  0
SECTION
  2
HEADER
  9
$ACADVER
  1
AC1014
  9
$ACADMAINTVER
 70
     0
  9
$DWGCODEPAGE
  3
DOS932
  9
$INSBASE
 10
0.0
 20
0.0
 30
0.0
  9
$EXTMIN
 10
40.436236
 20
30.360619
 30
0.0
  9
$EXTMAX
 10
517.0
 20
369.968448
 30
0.0
  9
$LIMMIN
 10
0.0
 20
0.0
  9
$LIMMAX
 10
594.0
 20
420.0
  9
$ORTHOMODE
 70
     0
  9
$REGENMODE
 70
     1
  9
$FILLMODE
 70
     1
  9
$QTEXTMODE
 70
     0
  9
$MIRRTEXT
 70
     1
  9
$DRAGMODE
 70
     2
  9
$LTSCALE
 40
1.0
  9
$OSMODE
 70
     0
  9
$ATTMODE
 70
     1
  9
$TEXTSIZE
 40
0.2
  9
$TRACEWID
 40
0.05
  9
$TEXTSTYLE
  7
STANDARD
  9
$CLAYER
  8
0
  9
$CELTYPE
  6
CONTINUOUS
  9
$CECOLOR
 62
   256
  9
$CELTSCALE
 40
1.0
  9
$DELOBJ
 70
     1
  9
$DISPSILH
 70
     0
  9
$DIMSCALE
 40
1.0
  9
$DIMASZ
 40
0.18
  9
$DIMEXO
 40
0.0625
  9
$DIMDLI
 40
0.38
  9
$DIMRND
 40
0.0
  9
$DIMDLE
 40
0.0
  9
$DIMEXE
 40
0.18
  9
$DIMTP
 40
0.0
  9
$DIMTM
 40
0.0
  9
$DIMTXT
 40
0.18
  9
$DIMCEN
 40
0.09
  9
$DIMTSZ
 40
0.0
  9
$DIMTOL
 70
     0
  9
$DIMLIM
 70
     0
  9
$DIMTIH
 70
     1
  9
$DIMTOH
 70
     1
  9
$DIMSE1
 70
     0
  9
$DIMSE2
 70
     0
  9
$DIMTAD
 70
     0
  9
$DIMZIN
 70
     0
  9
$DIMBLK
  1

  9
$DIMASO
 70
     1
  9
$DIMSHO
 70
     1
  9
$DIMPOST
  1

  9
$DIMAPOST
  1

  9
$DIMALT
 70
     0
  9
$DIMALTD
 70
     2
  9
$DIMALTF
 40
25.4
  9
$DIMLFAC
 40
1.0
  9
$DIMTOFL
 70
     0
  9
$DIMTVP
 40
0.0
  9
$DIMTIX
 70
     0
  9
$DIMSOXD
 70
     0
  9
$DIMSAH
 70
     0
  9
$DIMBLK1
  1

  9
$DIMBLK2
  1

  9
$DIMSTYLE
  2
STANDARD
  9
$DIMCLRD
 70
     0
  9
$DIMCLRE
 70
     0
  9
$DIMCLRT
 70
     0
  9
$DIMTFAC
 40
1.0
  9
$DIMGAP
 40
0.09
  9
$DIMJUST
 70
     0
  9
$DIMSD1
 70
     0
  9
$DIMSD2
 70
     0
  9
$DIMTOLJ
 70
     1
  9
$DIMTZIN
 70
     0
  9
$DIMALTZ
 70
     0
  9
$DIMALTTZ
 70
     0
  9
$DIMFIT
 70
     3
  9
$DIMUPT
 70
     0
  9
$DIMUNIT
 70
     2
  9
$DIMDEC
 70
     4
  9
$DIMTDEC
 70
     4
  9
$DIMALTU
 70
     2
  9
$DIMALTTD
 70
     2
  9
$DIMTXSTY
  7
STANDARD
  9
$DIMAUNIT
 70
     0
  9
$LUNITS
 70
     2
  9
$LUPREC
 70
     4
  9
$SKETCHINC
 40
0.1
  9
$FILLETRAD
 40
0.0
  9
$AUNITS
 70
     0
  9
$AUPREC
 70
     0
  9
$MENU
  1
acad
  9
$ELEVATION
 40
0.0
  9
$PELEVATION
 40
0.0
  9
$THICKNESS
 40
0.0
  9
$LIMCHECK
 70
     0
  9
$BLIPMODE
 70
     1
  9
$CHAMFERA
 40
0.0
  9
$CHAMFERB
 40
0.0
  9
$CHAMFERC
 40
0.0
  9
$CHAMFERD
 40
0.0
  9
$SKPOLY
 70
     0
  9
$TDCREATE
 40
2460213.848150347
  9
$TDUPDATE
 40
2460213.848150347
  9
$TDINDWG
 40
0.0000000000
  9
$TDUSRTIMER
 40
0.0000000000
  9
$USRTIMER
 70
     1
  9
$ANGBASE
 50
0.0
  9
$ANGDIR
 70
     0
  9
$PDMODE
 70
     0
  9
$PDSIZE
 40
0.0
  9
$PLINEWID
 40
0.0
  9
$COORDS
 70
     1
  9
$SPLFRAME
 70
     0
  9
$SPLINETYPE
 70
     6
  9
$SPLINESEGS
 70
     8
  9
$ATTDIA
 70
     0
  9
$ATTREQ
 70
     1
  9
$HANDLING
 70
     1
  9
$HANDSEED
  5
24B
  9
$SURFTAB1
 70
     6
  9
$SURFTAB2
 70
     6
  9
$SURFTYPE
 70
     6
  9
$SURFU
 70
     6
  9
$SURFV
 70
     6
  9
$UCSNAME
  2

  9
$UCSORG
 10
0.0
 20
0.0
 30
0.0
  9
$UCSXDIR
 10
1.0
 20
0.0
 30
0.0
  9
$UCSYDIR
 10
0.0
 20
1.0
 30
0.0
  9
$PUCSNAME
  2

  9
$PUCSORG
 10
0.0
 20
0.0
 30
0.0
  9
$PUCSXDIR
 10
1.0
 20
0.0
 30
0.0
  9
$PUCSYDIR
 10
0.0
 20
1.0
 30
0.0
  9
$USERI1
 70
     0
  9
$USERI2
 70
     0
  9
$USERI3
 70
     0
  9
$USERI4
 70
     0
  9
$USERI5
 70
     0
  9
$USERR1
 40
0.0
  9
$USERR2
 40
0.0
  9
$USERR3
 40
0.0
  9
$USERR4
 40
0.0
  9
$USERR5
 40
0.0
  9
$WORLDVIEW
 70
     1
  9
$SHADEDGE
 70
     3
  9
$SHADEDIF
 70
    70
  9
$TILEMODE
 70
     1
  9
$MAXACTVP
 70
    16
  9
$PINSBASE
 10
0.0
 20
0.0
 30
0.0
  9
$PLIMCHECK
 70
     0
  9
$PEXTMIN
 10
1.000000E+20
 20
1.000000E+20
 30
1.000000E+20
  9
$PEXTMAX
 10
-1.000000E+20
 20
-1.000000E+20
 30
-1.000000E+20
  9
$PLIMMIN
 10
0.0
 20
0.0
  9
$PLIMMAX
 10
12.0
 20
9.0
  9
$UNITMODE
 70
     0
  9
$VISRETAIN
 70
     0
  9
$PLINEGEN
 70
     1
  9
$PSLTSCALE
 70
     0
  9
$TREEDEPTH
 70
  3020
  9
$PICKSTYLE
 70
     1
  9
$CMLSTYLE
  2
Standard
  9
$CMLJUST
 70
     0
  9
$CMLSCALE
 40
1.0
  9
$PROXYGRAPHICS
 70
     0
  9
$MEASUREMENT
 70
     0
  0
ENDSEC
  0
SECTION
  2
CLASSES
  0
CLASS
  1
LWPOLYLINE
  2
AcDbPolyline
  3
"AutoCAD"
 90
        0
280
     0
281
     1
  0
CLASS
  1
IMAGE
  2
AcDbRasterImage
  3
ISM
 90
      127
280
     0
281
     1
  0
CLASS
  1
OLE2FRAME
  2
AcDbOle2Frame
  3
""
 90
        0
280
     0
281
     1
  0
CLASS
  1
HATCH
  2
AcDbHatch
  3
"ACAD_SEDONA"
 90
        0
280
     0
281
     1
  0
CLASS
  1
DICTIONARYVAR
  2
AcDbDictionaryVar
  3
"AutoCAD"
 90
        0
280
     0
281
     0
  0
CLASS
  1
RASTERVARIABLES
  2
AcDbRasterVariables
  3
ISM
 90
        0
280
     0
281
     0
  0
CLASS
  1
IMAGEDEF
  2
AcDbRasterImageDef
  3
ISM
 90
        0
280
     0
281
     0
  0
CLASS
  1
IMAGEDEF_REACTOR
  2
AcDbRasterImageDefReactor
  3
ISM
 90
        1
280
     0
281
     0
  0
CLASS
  1
IDBUFFER
  2
AcDbIdBuffer
  3
"Acad"
 90
        0
280
     0
281
     0
  0
CLASS
  1
SPATIAL_FILTER
  2
AcDbSpatialFilter
  3
"Acad"
 90
        0
280
     0
281
     0
  0
CLASS
  1
XRECORD
  2
AcDbXrecord
  3
"<Built In>"
 90
        0
280
     0
281
     0
  0
CLASS
  1
SORTENTSTABLE
  2
AcDbSortentsTable
  3
"AutoCAD"
 90
        0
280
     0
281
     0
  0
CLASS
  1
LAYER_INDEX
  2
AcDbLayerIndex
  3
"Acad"
 90
        0
280
     0
281
     0
  0
CLASS
  1
SPATIAL_INDEX
  2
AcDbSpatialIndex
  3
"Acad"
 90
        0
280
     0
281
     0
  0
CLASS
  1
OBJECT_PTR
  2
CAseDLPNTableRecord
  3
"ASE-LPNTableRecord"
 90
        1
280
     0
281
     0
  0
CLASS
  1
LAYOUT
  2
AcDbLayout
  3
"AutoCAD 2000"
 90
        1
280
     0
281
     0
  0
CLASS
  1
PLOTSETTINGS
  2
AcDbPlotSettings
  3
"AutoCAD 2000"
 90
        1
280
     0
281
     0
  0
CLASS
  1
ACDBDICTIONARYWDFLT
  2
AcDbDictionaryWithDefault
  3
"AutoCAD 2000"
 90
        1
280
     0
281
     0
  0
CLASS
  1
ACDBPLACEHOLDER
  2
AcDbPlaceHolder
  3
"AutoCAD 2000"
 90
        1
280
     0
281
     0
  0
CLASS
  1
VBA_PROJECT
  2
AcDbVbaProject
  3
"acadvba"
 90
        1
280
     0
281
     0
  0
CLASS
  1
WIPEOUT
  2
AcDbWipeout
  3
WipeOut|AutoCAD Express Tool|expresstools@autodesk.com
 90
      127
280
     0
281
     1
  0
CLASS
  1
WIPEOUTVARIABLES
  2
AcDbWipeoutVariables
  3
WipeOut|AutoCAD Express Tool|expresstools@autodesk.com
 90
        0
280
     0
281
     0
  0
CLASS
  1
RTEXT
  2
RText
  3
RText|AutoCAD Express Tool|expresstools@autodesk.com
 90
        0
280
     0
281
     1
  0
CLASS
  1
ARCALIGNEDTEXT
  2
AcDbArcAlignedText
  3
ATEXT|AutoCAD Express Tool|expresstools@autodesk.com
 90
        0
280
     0
281
     1
  0
ENDSEC
  0
SECTION
  2
TABLES
  0
TABLE
  2
VPORT
  5
7
100
AcDbSymbolTable
 70
     1
  0
VPORT
  5
15
100
AcDbSymbolTableRecord
100
AcDbViewportTableRecord
  2
*ACTIVE
 70
     0
 10
0.0
 20
0.0
 11
1.0
 21
1.0
 12
278.718118
 22
200.164534
 13
0.0
 23
0.0
 14
1.0
 24
1.0
 15
0.0
 25
0.0
 16
0.0
 26
0.0
 36
1.0
 17
0.0
 27
0.0
 37
0.0
 40
339.607829
 41
1.722533
 42
50.0
 43
0.0
 44
0.0
 50
0.0
 51
0.0
 71
     0
 72
   100
 73
     1
 74
     1
 75
     0
 76
     0
 77
     0
 78
     0
  0
ENDTAB
  0
TABLE
  2
LTYPE
  5
4
100
AcDbSymbolTable
 70
     7
  0
LTYPE
  5
11
100
AcDbSymbolTableRecord
100
AcDbLinetypeTableRecord
  2
BYBLOCK
 70
    64
  3

 72
    65
 73
     0
 40
0.0
  0
LTYPE
  5
12
100
AcDbSymbolTableRecord
100
AcDbLinetypeTableRecord
  2
BYLAYER
 70
    64
  3

 72
    65
 73
     0
 40
0.0
  0
LTYPE
  5
13
100
AcDbSymbolTableRecord
100
AcDbLinetypeTableRecord
  2
CONTINUOUS
 70
    64
  3
実線
 72
    65
 73
     0
 40
0.0
  0
LTYPE
  5
1D
100
AcDbSymbolTableRecord
100
AcDbLinetypeTableRecord
  2
EXLTYPE1
 70
    64
  3
破線
 72
    65
 73
     2
 40
2.0
 49
1.0
 74
     0
 49
-1.0
 74
     0
  0
LTYPE
  5
1E
100
AcDbSymbolTableRecord
100
AcDbLinetypeTableRecord
  2
EXLTYPE2
 70
    64
  3
一点鎖線
 72
    65
 73
     4
 40
33.0
 49
30.0
 74
     0
 49
-1.0
 74
     0
 49
1.0
 74
     0
 49
-1.0
 74
     0
  0
LTYPE
  5
1F
100
AcDbSymbolTableRecord
100
AcDbLinetypeTableRecord
  2
EXLTYPE3
 70
    64
  3
二点鎖線
 72
    65
 73
     6
 40
35.0
 49
30.0
 74
     0
 49
-1.0
 74
     0
 49
1.0
 74
     0
 49
-1.0
 74
     0
 49
1.0
 74
     0
 49
-1.0
 74
     0
  0
LTYPE
  5
20
100
AcDbSymbolTableRecord
100
AcDbLinetypeTableRecord
  2
EXLTYPE4
 70
    64
  3
点線
 72
    65
 73
     2
 40
1.0
 49
0.5
 74
     0
 49
-0.5
 74
     0
  0
ENDTAB
  0
TABLE
  2
LAYER
  5
2
100
AcDbSymbolTable
 70
    11
  0
LAYER
  5
14
100
AcDbSymbolTableRecord
100
AcDbLayerTableRecord
  2
0
 70
     0
 62
     7
  6
CONTINUOUS
  0
LAYER
  5
23
100
AcDbSymbolTableRecord
100
AcDbLayerTableRecord
  2
緑
 70
    64
 62
     3
  6
CONTINUOUS
  0
LAYER
  5
24
100
AcDbSymbolTableRecord
100
AcDbLayerTableRecord
  2
文字
 70
    64
 62
     7
  6
CONTINUOUS
  0
LAYER
  5
25
100
AcDbSymbolTableRecord
100
AcDbLayerTableRecord
  2
DEFPOINTS
 70
    64
 62
     7
  6
CONTINUOUS
  0
LAYER
  5
26
100
AcDbSymbolTableRecord
100
AcDbLayerTableRecord
  2
枠
 70
    64
 62
   253
  6
CONTINUOUS
  0
LAYER
  5
27
100
AcDbSymbolTableRecord
100
AcDbLayerTableRecord
  2
\U+FF7C\U+FF71\U+FF9D
 70
    64
 62
     4
  6
CONTINUOUS
  0
LAYER
  5
28
100
AcDbSymbolTableRecord
100
AcDbLayerTableRecord
  2
紫
 70
    64
 62
     6
  6
CONTINUOUS
  0
LAYER
  5
29
100
AcDbSymbolTableRecord
100
AcDbLayerTableRecord
  2
赤
 70
    64
 62
     1
  6
CONTINUOUS
  0
LAYER
  5
2A
100
AcDbSymbolTableRecord
100
AcDbLayerTableRecord
  2
黄色
 70
    64
 62
     2
  6
CONTINUOUS
  0
LAYER
  5
2B
100
AcDbSymbolTableRecord
100
AcDbLayerTableRecord
  2
防振材
 70
    64
 62
     7
  6
CONTINUOUS
  0
LAYER
  5
2C
100
AcDbSymbolTableRecord
100
AcDbLayerTableRecord
  2
図形・寸法
 70
    64
 62
     7
  6
CONTINUOUS
  0
ENDTAB
  0
TABLE
  2
STYLE
  5
3
100
AcDbSymbolTable
 70
     3
  0
STYLE
  5
17
100
AcDbSymbolTableRecord
100
AcDbTextStyleTableRecord
  2
STANDARD
 70
     0
 40
0.0
 41
1.0
 50
0.0
 71
     0
 42
0.0
  3
monotxt
  4
extfont
  0
STYLE
  5
21
100
AcDbSymbolTableRecord
100
AcDbTextStyleTableRecord
  2
EXCADSTD
 70
    64
 40
0.0
 41
1.0
 50
0.0
 71
     0
 42
0.2
  3
monotxt
  4
extfont
  0
STYLE
  5
22
100
AcDbSymbolTableRecord
100
AcDbTextStyleTableRecord
  2
EXCADVERT
 70
    68
 40
0.0
 41
1.0
 50
0.0
 71
     0
 42
0.286885
  3
monotxt
  4
extfont
  0
ENDTAB
  0
TABLE
  2
VIEW
  5
5
100
AcDbSymbolTable
 70
     0
  0
ENDTAB
  0
TABLE
  2
UCS
  5
6
100
AcDbSymbolTable
 70
     0
  0
ENDTAB
  0
TABLE
  2
APPID
  5
8
100
AcDbSymbolTable
 70
     1
  0
APPID
  5
16
100
AcDbSymbolTableRecord
100
AcDbRegAppTableRecord
  2
ACAD
 70
     0
  0
ENDTAB
  0
TABLE
  2
DIMSTYLE
  5
9
100
AcDbSymbolTable
 70
     1
  0
DIMSTYLE
105
18
100
AcDbSymbolTableRecord
100
AcDbDimStyleTableRecord
  2
STANDARD
 70
     0
  3

  4

  5

  6

  7

 40
1.0
 41
0.18
 42
0.0625
 43
0.38
 44
0.18
 45
0.0
 46
0.0
 47
0.0
 48
0.0
 71
     0
 72
     0
 73
     1
 74
     1
 75
     0
 76
     0
 77
     0
 78
     0
140
0.18
141
0.09
142
0.0
143
25.4
144
1.0
145
0.0
146
1.0
147
0.09
170
     0
171
     2
172
     0
173
     0
174
     0
175
     0
176
     0
177
     0
178
     0
270
     2
271
     4
272
     4
273
     2
274
     2
275
     0
280
     0
281
     0
282
     0
283
     1
284
     0
285
     0
286
     0
287
     0
288
     0
340
17
  0
ENDTAB
  0
TABLE
  2
BLOCK_RECORD
  5
1
100
AcDbSymbolTable
 70
    14
  0
BLOCK_RECORD
  5
A
100
AcDbSymbolTableRecord
100
AcDbBlockTableRecord
  2
*MODEL_SPACE
  0
BLOCK_RECORD
  5
B
100
AcDbSymbolTableRecord
100
AcDbBlockTableRecord
  2
*PAPER_SPACE
  0
BLOCK_RECORD
  5
2D
100
AcDbSymbolTableRecord
100
AcDbBlockTableRecord
  2
_EX_NORM
  0
BLOCK_RECORD
  5
2E
100
AcDbSymbolTableRecord
100
AcDbBlockTableRecord
  2
_EX_BNORM
  0
BLOCK_RECORD
  5
2F
100
AcDbSymbolTableRecord
100
AcDbBlockTableRecord
  2
_EX_BCIR
  0
BLOCK_RECORD
  5
30
100
AcDbSymbolTableRecord
100
AcDbBlockTableRecord
  2
_EX_RCIVIL
  0
BLOCK_RECORD
  5
31
100
AcDbSymbolTableRecord
100
AcDbBlockTableRecord
  2
_EX_SLANT
  0
BLOCK_RECORD
  5
32
100
AcDbSymbolTableRecord
100
AcDbBlockTableRecord
  2
_EX_NONE
  0
BLOCK_RECORD
  5
33
100
AcDbSymbolTableRecord
100
AcDbBlockTableRecord
  2
_EX_CIVIL
  0
BLOCK_RECORD
  5
34
100
AcDbSymbolTableRecord
100
AcDbBlockTableRecord
  2
_EX_WCIR
  0
BLOCK_RECORD
  5
35
100
AcDbSymbolTableRecord
100
AcDbBlockTableRecord
  2
_EX_WCIR2
  0
BLOCK_RECORD
  5
36
100
AcDbSymbolTableRecord
100
AcDbBlockTableRecord
  2
_EX_WNORM
  0
BLOCK_RECORD
  5
37
100
AcDbSymbolTableRecord
100
AcDbBlockTableRecord
  2
_EX_NNORM
  0
BLOCK_RECORD
  5
38
100
AcDbSymbolTableRecord
100
AcDbBlockTableRecord
  2
_EX_BBOX
  0
BLOCK_RECORD
  5
39
100
AcDbSymbolTableRecord
100
AcDbBlockTableRecord
  2
_EX_WBOX
  0
BLOCK_RECORD
  5
3A
100
AcDbSymbolTableRecord
100
AcDbBlockTableRecord
  2
_EX_INTEGRAL
  0
ENDTAB
  0
ENDSEC
  0
SECTION
  2
BLOCKS
  0
BLOCK
  5
D
100
AcDbEntity
  8
0
100
AcDbBlockBegin
  2
*MODEL_SPACE
 70
     0
 10
0.0
 20
0.0
 30
0.0
  3
*MODEL_SPACE
  1

  0
ENDBLK
  5
E
100
AcDbEntity
  8
0
100
AcDbBlockEnd
  0
BLOCK
  5
F
100
AcDbEntity
 67
     1
  8
0
100
AcDbBlockBegin
  2
*PAPER_SPACE
 70
     0
 10
0.0
 20
0.0
 30
0.0
  3
*PAPER_SPACE
  1

  0
ENDBLK
  5
10
100
AcDbEntity
 67
     1
  8
0
100
AcDbBlockEnd
  0
BLOCK
  5
3B
100
AcDbEntity
  8
0
100
AcDbBlockBegin
  2
_EX_NORM
 70
     0
 10
0.0
 20
0.0
 30
0.0
  3
_EX_NORM
  1

  0
LINE
  5
3C
100
AcDbEntity
  8
0
  6
CONTINUOUS
 62
     0
100
AcDbLine
 10
0.0
 20
0.0
 30
0.0
 11
-1.0
 21
0.0
 31
0.0
  0
LINE
  5
3D
100
AcDbEntity
  8
0
  6
CONTINUOUS
 62
     0
100
AcDbLine
 10
0.0
 20
0.0
 30
0.0
 11
-1.0
 21
0.166667
 31
0.0
  0
LINE
  5
3E
100
AcDbEntity
  8
0
  6
CONTINUOUS
 62
     0
100
AcDbLine
 10
0.0
 20
0.0
 30
0.0
 11
-1.0
 21
-0.166667
 31
0.0
  0
ENDBLK
  5
3F
100
AcDbEntity
  8
0
100
AcDbBlockEnd
  0
BLOCK
  5
40
100
AcDbEntity
  8
0
100
AcDbBlockBegin
  2
_EX_BNORM
 70
     0
 10
0.0
 20
0.0
 30
0.0
  3
_EX_BNORM
  1

  0
LINE
  5
41
100
AcDbEntity
  8
0
  6
CONTINUOUS
 62
     0
100
AcDbLine
 10
0.0
 20
0.0
 30
0.0
 11
-1.0
 21
0.0
 31
0.0
  0
LINE
  5
42
100
AcDbEntity
  8
0
  6
CONTINUOUS
 62
     0
100
AcDbLine
 10
0.0
 20
0.0
 30
0.0
 11
-1.0
 21
0.166667
 31
0.0
  0
LINE
  5
43
100
AcDbEntity
  8
0
  6
CONTINUOUS
 62
     0
100
AcDbLine
 10
0.0
 20
0.0
 30
0.0
 11
-1.0
 21
-0.166667
 31
0.0
  0
LINE
  5
44
100
AcDbEntity
  8
0
  6
CONTINUOUS
 62
     0
100
AcDbLine
 10
0.0
 20
0.0
 30
0.0
 11
-1.0
 21
0.083333
 31
0.0
  0
LINE
  5
45
100
AcDbEntity
  8
0
  6
CONTINUOUS
 62
     0
100
AcDbLine
 10
0.0
 20
0.0
 30
0.0
 11
-1.0
 21
-0.083333
 31
0.0
  0
LINE
  5
46
100
AcDbEntity
  8
0
  6
CONTINUOUS
 62
     0
100
AcDbLine
 10
-1.0
 20
0.166667
 30
0.0
 11
-1.0
 21
-0.166667
 31
0.0
  0
ENDBLK
  5
47
100
AcDbEntity
  8
0
100
AcDbBlockEnd
  0
BLOCK
  5
48
100
AcDbEntity
  8
0
100
AcDbBlockBegin
  2
_EX_BCIR
 70
     0
 10
0.0
 20
0.0
 30
0.0
  3
_EX_BCIR
  1

  0
LINE
  5
49
100
AcDbEntity
  8
0
  6
CONTINUOUS
 62
     0
100
AcDbLine
 10
0.0
 20
0.0
 30
0.0
 11
-1.0
 21
0.0
 31
0.0
  0
CIRCLE
  5
4A
100
AcDbEntity
  8
0
  6
CONTINUOUS
 62
     0
100
AcDbCircle
 10
0.0
 20
0.0
 30
0.0
 40
0.5
  0
CIRCLE
  5
4B
100
AcDbEntity
  8
0
  6
CONTINUOUS
 62
     0
100
AcDbCircle
 10
0.0
 20
0.0
 30
0.0
 40
0.25
  0
ENDBLK
  5
4C
100
AcDbEntity
  8
0
100
AcDbBlockEnd
  0
BLOCK
  5
4D
100
AcDbEntity
  8
0
100
AcDbBlockBegin
  2
_EX_RCIVIL
 70
     0
 10
0.0
 20
0.0
 30
0.0
  3
_EX_RCIVIL
  1

  0
LINE
  5
4E
100
AcDbEntity
  8
0
  6
CONTINUOUS
 62
     0
100
AcDbLine
 10
0.0
 20
0.0
 30
0.0
 11
-1.0
 21
0.0
 31
0.0
  0
LINE
  5
4F
100
AcDbEntity
  8
0
  6
CONTINUOUS
 62
     0
100
AcDbLine
 10
-1.0
 20
-0.25
 30
0.0
 11
0.0
 21
-0.25
 31
0.0
  0
LINE
  5
50
100
AcDbEntity
  8
0
  6
CONTINUOUS
 62
     0
100
AcDbLine
 10
-1.0
 20
-0.125
 30
0.0
 11
0.0
 21
-0.125
 31
0.0
  0
ENDBLK
  5
51
100
AcDbEntity
  8
0
100
AcDbBlockEnd
  0
BLOCK
  5
52
100
AcDbEntity
  8
0
100
AcDbBlockBegin
  2
_EX_SLANT
 70
     0
 10
0.0
 20
0.0
 30
0.0
  3
_EX_SLANT
  1

  0
LINE
  5
53
100
AcDbEntity
  8
0
  6
CONTINUOUS
 62
     0
100
AcDbLine
 10
0.0
 20
0.0
 30
0.0
 11
-1.0
 21
0.0
 31
0.0
  0
LINE
  5
54
100
AcDbEntity
  8
0
  6
CONTINUOUS
 62
     0
100
AcDbLine
 10
0.707107
 20
0.707107
 30
0.0
 11
-0.707107
 21
-0.707107
 31
0.0
  0
ENDBLK
  5
55
100
AcDbEntity
  8
0
100
AcDbBlockEnd
  0
BLOCK
  5
56
100
AcDbEntity
  8
0
100
AcDbBlockBegin
  2
_EX_NONE
 70
     0
 10
0.0
 20
0.0
 30
0.0
  3
_EX_NONE
  1

  0
LINE
  5
57
100
AcDbEntity
  8
0
  6
CONTINUOUS
 62
     0
100
AcDbLine
 10
0.0
 20
0.0
 30
0.0
 11
-1.0
 21
0.0
 31
0.0
  0
ENDBLK
  5
58
100
AcDbEntity
  8
0
100
AcDbBlockEnd
  0
BLOCK
  5
59
100
AcDbEntity
  8
0
100
AcDbBlockBegin
  2
_EX_CIVIL
 70
     0
 10
0.0
 20
0.0
 30
0.0
  3
_EX_CIVIL
  1

  0
LINE
  5
5A
100
AcDbEntity
  8
0
  6
CONTINUOUS
 62
     0
100
AcDbLine
 10
0.0
 20
0.0
 30
0.0
 11
-1.0
 21
0.0
 31
0.0
  0
LINE
  5
5B
100
AcDbEntity
  8
0
  6
CONTINUOUS
 62
     0
100
AcDbLine
 10
-1.0
 20
0.25
 30
0.0
 11
0.0
 21
0.25
 31
0.0
  0
LINE
  5
5C
100
AcDbEntity
  8
0
  6
CONTINUOUS
 62
     0
100
AcDbLine
 10
-1.0
 20
0.125
 30
0.0
 11
0.0
 21
0.125
 31
0.0
  0
ENDBLK
  5
5D
100
AcDbEntity
  8
0
100
AcDbBlockEnd
  0
BLOCK
  5
5E
100
AcDbEntity
  8
0
100
AcDbBlockBegin
  2
_EX_WCIR
 70
     0
 10
0.0
 20
0.0
 30
0.0
  3
_EX_WCIR
  1

  0
LINE
  5
5F
100
AcDbEntity
  8
0
  6
CONTINUOUS
 62
     0
100
AcDbLine
 10
0.0
 20
0.0
 30
0.0
 11
-1.0
 21
0.0
 31
0.0
  0
CIRCLE
  5
60
100
AcDbEntity
  8
0
  6
CONTINUOUS
 62
     0
100
AcDbCircle
 10
0.0
 20
0.0
 30
0.0
 40
0.5
  0
ENDBLK
  5
61
100
AcDbEntity
  8
0
100
AcDbBlockEnd
  0
BLOCK
  5
62
100
AcDbEntity
  8
0
100
AcDbBlockBegin
  2
_EX_WCIR2
 70
     0
 10
0.0
 20
0.0
 30
0.0
  3
_EX_WCIR2
  1

  0
LINE
  5
63
100
AcDbEntity
  8
0
  6
CONTINUOUS
 62
     0
100
AcDbLine
 10
-0.5
 20
0.0
 30
0.0
 11
-1.0
 21
0.0
 31
0.0
  0
CIRCLE
  5
64
100
AcDbEntity
  8
0
  6
CONTINUOUS
 62
     0
100
AcDbCircle
 10
0.0
 20
0.0
 30
0.0
 40
0.5
  0
ENDBLK
  5
65
100
AcDbEntity
  8
0
100
AcDbBlockEnd
  0
BLOCK
  5
66
100
AcDbEntity
  8
0
100
AcDbBlockBegin
  2
_EX_WNORM
 70
     0
 10
0.0
 20
0.0
 30
0.0
  3
_EX_WNORM
  1

  0
LINE
  5
67
100
AcDbEntity
  8
0
  6
CONTINUOUS
 62
     0
100
AcDbLine
 10
-1.0
 20
0.0
 30
0.0
 11
-1.0
 21
0.0
 31
0.0
  0
LINE
  5
68
100
AcDbEntity
  8
0
  6
CONTINUOUS
 62
     0
100
AcDbLine
 10
0.0
 20
0.0
 30
0.0
 11
-1.0
 21
0.166667
 31
0.0
  0
LINE
  5
69
100
AcDbEntity
  8
0
  6
CONTINUOUS
 62
     0
100
AcDbLine
 10
0.0
 20
0.0
 30
0.0
 11
-1.0
 21
-0.166667
 31
0.0
  0
LINE
  5
6A
100
AcDbEntity
  8
0
  6
CONTINUOUS
 62
     0
100
AcDbLine
 10
-1.0
 20
0.166667
 30
0.0
 11
-1.0
 21
-0.166667
 31
0.0
  0
ENDBLK
  5
6B
100
AcDbEntity
  8
0
100
AcDbBlockEnd
  0
BLOCK
  5
6C
100
AcDbEntity
  8
0
100
AcDbBlockBegin
  2
_EX_NNORM
 70
     0
 10
0.0
 20
0.0
 30
0.0
  3
_EX_NNORM
  1

  0
LINE
  5
6D
100
AcDbEntity
  8
0
  6
CONTINUOUS
 62
     0
100
AcDbLine
 10
0.0
 20
0.0
 30
0.0
 11
-1.0
 21
0.0
 31
0.0
  0
LINE
  5
6E
100
AcDbEntity
  8
0
  6
CONTINUOUS
 62
     0
100
AcDbLine
 10
0.0
 20
0.0
 30
0.0
 11
-1.0
 21
0.166667
 31
0.0
  0
LINE
  5
6F
100
AcDbEntity
  8
0
  6
CONTINUOUS
 62
     0
100
AcDbLine
 10
0.0
 20
0.0
 30
0.0
 11
-1.0
 21
-0.166667
 31
0.0
  0
LINE
  5
70
100
AcDbEntity
  8
0
  6
CONTINUOUS
 62
     0
100
AcDbLine
 10
-1.0
 20
0.166667
 30
0.0
 11
-1.0
 21
-0.166667
 31
0.0
  0
ENDBLK
  5
71
100
AcDbEntity
  8
0
100
AcDbBlockEnd
  0
BLOCK
  5
72
100
AcDbEntity
  8
0
100
AcDbBlockBegin
  2
_EX_BBOX
 70
     0
 10
0.0
 20
0.0
 30
0.0
  3
_EX_BBOX
  1

  0
LINE
  5
73
100
AcDbEntity
  8
0
  6
CONTINUOUS
 62
     0
100
AcDbLine
 10
0.0
 20
0.0
 30
0.0
 11
-1.0
 21
0.0
 31
0.0
  0
LINE
  5
74
100
AcDbEntity
  8
0
  6
CONTINUOUS
 62
     0
100
AcDbLine
 10
-0.5
 20
0.5
 30
0.0
 11
0.5
 21
0.5
 31
0.0
  0
LINE
  5
75
100
AcDbEntity
  8
0
  6
CONTINUOUS
 62
     0
100
AcDbLine
 10
0.5
 20
0.5
 30
0.0
 11
0.5
 21
-0.5
 31
0.0
  0
LINE
  5
76
100
AcDbEntity
  8
0
  6
CONTINUOUS
 62
     0
100
AcDbLine
 10
0.5
 20
-0.5
 30
0.0
 11
-0.5
 21
-0.5
 31
0.0
  0
LINE
  5
77
100
AcDbEntity
  8
0
  6
CONTINUOUS
 62
     0
100
AcDbLine
 10
-0.5
 20
-0.5
 30
0.0
 11
-0.5
 21
0.5
 31
0.0
  0
LINE
  5
78
100
AcDbEntity
  8
0
  6
CONTINUOUS
 62
     0
100
AcDbLine
 10
-0.25
 20
0.25
 30
0.0
 11
0.25
 21
0.25
 31
0.0
  0
LINE
  5
79
100
AcDbEntity
  8
0
  6
CONTINUOUS
 62
     0
100
AcDbLine
 10
0.25
 20
0.25
 30
0.0
 11
0.25
 21
-0.25
 31
0.0
  0
LINE
  5
7A
100
AcDbEntity
  8
0
  6
CONTINUOUS
 62
     0
100
AcDbLine
 10
0.25
 20
-0.25
 30
0.0
 11
-0.25
 21
-0.25
 31
0.0
  0
LINE
  5
7B
100
AcDbEntity
  8
0
  6
CONTINUOUS
 62
     0
100
AcDbLine
 10
-0.25
 20
-0.25
 30
0.0
 11
-0.25
 21
0.25
 31
0.0
  0
ENDBLK
  5
7C
100
AcDbEntity
  8
0
100
AcDbBlockEnd
  0
BLOCK
  5
7D
100
AcDbEntity
  8
0
100
AcDbBlockBegin
  2
_EX_WBOX
 70
     0
 10
0.0
 20
0.0
 30
0.0
  3
_EX_WBOX
  1

  0
LINE
  5
7E
100
AcDbEntity
  8
0
  6
CONTINUOUS
 62
     0
100
AcDbLine
 10
-0.5
 20
0.0
 30
0.0
 11
-1.0
 21
0.0
 31
0.0
  0
LINE
  5
7F
100
AcDbEntity
  8
0
  6
CONTINUOUS
 62
     0
100
AcDbLine
 10
-0.5
 20
0.5
 30
0.0
 11
0.5
 21
0.5
 31
0.0
  0
LINE
  5
80
100
AcDbEntity
  8
0
  6
CONTINUOUS
 62
     0
100
AcDbLine
 10
0.5
 20
0.5
 30
0.0
 11
0.5
 21
-0.5
 31
0.0
  0
LINE
  5
81
100
AcDbEntity
  8
0
  6
CONTINUOUS
 62
     0
100
AcDbLine
 10
0.5
 20
-0.5
 30
0.0
 11
-0.5
 21
-0.5
 31
0.0
  0
LINE
  5
82
100
AcDbEntity
  8
0
  6
CONTINUOUS
 62
     0
100
AcDbLine
 10
-0.5
 20
-0.5
 30
0.0
 11
-0.5
 21
0.5
 31
0.0
  0
ENDBLK
  5
83
100
AcDbEntity
  8
0
100
AcDbBlockEnd
  0
BLOCK
  5
84
100
AcDbEntity
  8
0
100
AcDbBlockBegin
  2
_EX_INTEGRAL
 70
     0
 10
0.0
 20
0.0
 30
0.0
  3
_EX_INTEGRAL
  1

  0
LINE
  5
85
100
AcDbEntity
  8
0
  6
CONTINUOUS
 62
     0
100
AcDbLine
 10
0.0
 20
0.0
 30
0.0
 11
-1.0
 21
0.0
 31
0.0
  0
ARC
  5
86
100
AcDbEntity
  8
0
  6
CONTINUOUS
 62
     0
100
AcDbCircle
 10
0.0
 20
0.0
 30
0.0
 40
0.707107
100
AcDbArc
 50
90.0
 51
180.0
  0
ARC
  5
87
100
AcDbEntity
  8
0
  6
CONTINUOUS
 62
     0
100
AcDbCircle
 10
0.0
 20
0.0
 30
0.0
 40
0.707107
100
AcDbArc
 50
270.0
 51
0.0
  0
ENDBLK
  5
88
100
AcDbEntity
  8
0
100
AcDbBlockEnd
  0
ENDSEC
  0
SECTION
  2
ENTITIES
  0
LINE
  5
89
100
AcDbEntity
  8
0
  6
CONTINUOUS
 62
     1
100
AcDbLine
 10
231.905809
 20
279.575807
 30
0.0
 11
231.905809
 21
275.263307
 31
0.0
  0
LINE
  5
8A
100
AcDbEntity
  8
0
  6
CONTINUOUS
 62
     1
100
AcDbLine
 10
233.218309
 20
279.575807
 30
0.0
 11
233.218309
 21
275.263307
 31
0.0
  0
CIRCLE
  5
8B
100
AcDbEntity
  8
0
  6
CONTINUOUS
 62
     1
100
AcDbCircle
 10
238.655809
 20
278.075807
 30
0.0
 40
1.9875
  0
CIRCLE
  5
8C
100
AcDbEntity
  8
0
  6
CONTINUOUS
 62
     1
100
AcDbCircle
 10
238.655809
 20
278.075807
 30
0.0
 40
2.625
  0
CIRCLE
  5
8D
100
AcDbEntity
  8
0
  6
CONTINUOUS
 62
     1
100
AcDbCircle
 10
238.655809
 20
278.075807
 30
0.0
 40
3.975
  0
LINE
  5
8E
100
AcDbEntity
  8
0
  6
CONTINUOUS
 62
     1
100
AcDbLine
 10
229.280809
 20
280.888307
 30
0.0
 11
229.280809
 21
279.575807
 31
0.0
  0
LINE
  5
8F
100
AcDbEntity
  8
0
  6
CONTINUOUS
 62
     1
100
AcDbLine
 10
231.905809
 20
275.263307
 30
0.0
 11
233.218309
 21
275.263307
 31
0.0
  0
ARC
  5
90
100
AcDbEntity
  8
0
  6
CONTINUOUS
 62
     1
100
AcDbCircle
 10
238.655809
 20
278.075807
 30
0.0
 40
4.361223
100
AcDbArc
 50
139.842723
 51
159.882882
  0
ARC
  5
91
100
AcDbEntity
  8
0
  6
CONTINUOUS
 62
     1
100
AcDbCircle
 10
238.655809
 20
278.075807
 30
0.0
 40
4.361223
100
AcDbArc
 50
20.117118
 51
40.157277
  0
LINE
  5
92
100
AcDbEntity
  8
0
  6
CONTINUOUS
 62
     1
100
AcDbLine
 10
246.530809
 20
276.575807
 30
0.0
 11
246.530809
 21
275.263307
 31
0.0
  0
LINE
  5
93
100
AcDbEntity
  8
0
  6
CONTINUOUS
 62
     1
100
AcDbLine
 10
246.530809
 20
280.888307
 30
0.0
 11
246.530809
 21
279.575807
 31
0.0
  0
ARC
  5
94
100
AcDbEntity
  8
0
  6
CONTINUOUS
 62
     1
100
AcDbCircle
 10
238.655809
 20
278.075807
 30
0.0
 40
4.361223
100
AcDbArc
 50
319.842723
 51
348.135428
  0
LINE
  5
95
100
AcDbEntity
  8
0
  6
CONTINUOUS
 62
     1
100
AcDbLine
 10
246.530809
 20
279.575807
 30
0.0
 11
243.826312
 21
276.575807
 31
0.0
  0
LINE
  5
96
100
AcDbEntity
  8
0
  6
CONTINUOUS
 62
     1
100
AcDbLine
 10
245.084449
 20
279.575807
 30
0.0
 11
242.923859
 21
277.179144
 31
0.0
  0
LINE
  5
97
100
AcDbEntity
  8
0
  6
CONTINUOUS
 62
     1
100
AcDbLine
 10
247.168309
 20
280.888307
 30
0.0
 11
247.168309
 21
275.263307
 31
0.0
  0
LINE
  5
98
100
AcDbEntity
  8
0
  6
CONTINUOUS
 62
     1
100
AcDbLine
 10
248.480809
 20
278.638307
 30
0.0
 11
252.193309
 21
278.638307
 31
0.0
  0
LINE
  5
99
100
AcDbEntity
  8
0
  6
CONTINUOUS
 62
     1
100
AcDbLine
 10
248.480809
 20
277.513307
 30
0.0
 11
252.193309
 21
277.513307
 31
0.0
  0
LINE
  5
9A
100
AcDbEntity
  8
0
  6
CONTINUOUS
 62
     1
100
AcDbLine
 10
252.755809
 20
280.888307
 30
0.0
 11
252.755809
 21
275.263307
 31
0.0
  0
LINE
  5
9B
100
AcDbEntity
  8
0
  6
CONTINUOUS
 62
     1
100
AcDbLine
 10
257.930809
 20
280.888307
 30
0.0
 11
257.930809
 21
275.263307
 31
0.0
  0
LINE
  5
9C
100
AcDbEntity
  8
0
  6
CONTINUOUS
 62
     1
100
AcDbLine
 10
256.655809
 20
275.263307
 30
0.0
 11
254.030809
 21
279.252134
 31
0.0
  0
LINE
  5
9D
100
AcDbEntity
  8
0
  6
CONTINUOUS
 62
     1
100
AcDbLine
 10
254.030809
 20
280.888307
 30
0.0
 11
256.655809
 21
276.89948
 31
0.0
  0
LINE
  5
9E
100
AcDbEntity
  8
0
  6
CONTINUOUS
 62
     1
100
AcDbLine
 10
252.193309
 20
280.888307
 30
0.0
 11
252.193309
 21
279.575807
 31
0.0
  0
LINE
  5
9F
100
AcDbEntity
  8
0
  6
CONTINUOUS
 62
     1
100
AcDbLine
 10
252.193309
 20
278.638307
 30
0.0
 11
252.193309
 21
277.513307
 31
0.0
  0
LINE
  5
A0
100
AcDbEntity
  8
0
  6
CONTINUOUS
 62
     1
100
AcDbLine
 10
252.193309
 20
276.575807
 30
0.0
 11
252.193309
 21
275.263307
 31
0.0
  0
LINE
  5
A1
100
AcDbEntity
  8
0
  6
CONTINUOUS
 62
     1
100
AcDbLine
 10
248.480809
 20
279.575807
 30
0.0
 11
252.193309
 21
279.575807
 31
0.0
  0
LINE
  5
A2
100
AcDbEntity
  8
0
  6
CONTINUOUS
 62
     1
100
AcDbLine
 10
247.168309
 20
280.888307
 30
0.0
 11
252.193309
 21
280.888307
 31
0.0
  0
LINE
  5
A3
100
AcDbEntity
  8
0
  6
CONTINUOUS
 62
     1
100
AcDbLine
 10
248.480809
 20
277.513307
 30
0.0
 11
248.480809
 21
276.575807
 31
0.0
  0
LINE
  5
A4
100
AcDbEntity
  8
0
  6
CONTINUOUS
 62
     1
100
AcDbLine
 10
247.168309
 20
275.263307
 30
0.0
 11
252.193309
 21
275.263307
 31
0.0
  0
LINE
  5
A5
100
AcDbEntity
  8
0
  6
CONTINUOUS
 62
     1
100
AcDbLine
 10
248.480809
 20
276.575807
 30
0.0
 11
252.193309
 21
276.575807
 31
0.0
  0
LINE
  5
A6
100
AcDbEntity
  8
0
  6
CONTINUOUS
 62
     1
100
AcDbLine
 10
254.030809
 20
279.252134
 30
0.0
 11
254.030809
 21
275.263307
 31
0.0
  0
LINE
  5
A7
100
AcDbEntity
  8
0
  6
CONTINUOUS
 62
     1
100
AcDbLine
 10
252.755809
 20
280.888307
 30
0.0
 11
254.030809
 21
280.888307
 31
0.0
  0
LINE
  5
A8
100
AcDbEntity
  8
0
  6
CONTINUOUS
 62
     1
100
AcDbLine
 10
256.655809
 20
280.888307
 30
0.0
 11
257.930809
 21
280.888307
 31
0.0
  0
LINE
  5
A9
100
AcDbEntity
  8
0
  6
CONTINUOUS
 62
     1
100
AcDbLine
 10
252.755809
 20
275.263307
 30
0.0
 11
254.030809
 21
275.263307
 31
0.0
  0
LINE
  5
AA
100
AcDbEntity
  8
0
  6
CONTINUOUS
 62
     1
100
AcDbLine
 10
256.655809
 20
275.263307
 30
0.0
 11
257.930809
 21
275.263307
 31
0.0
  0
LINE
  5
AB
100
AcDbEntity
  8
0
  6
CONTINUOUS
 62
     1
100
AcDbLine
 10
256.655809
 20
280.888307
 30
0.0
 11
256.655809
 21
276.89948
 31
0.0
  0
LINE
  5
AC
100
AcDbEntity
  8
0
  6
CONTINUOUS
 62
     1
100
AcDbLine
 10
229.280809
 20
279.575807
 30
0.0
 11
231.905809
 21
279.575807
 31
0.0
  0
LINE
  5
AD
100
AcDbEntity
  8
0
  6
CONTINUOUS
 62
     1
100
AcDbLine
 10
233.218309
 20
279.575807
 30
0.0
 11
234.560657
 21
279.575807
 31
0.0
  0
LINE
  5
AE
100
AcDbEntity
  8
0
  6
CONTINUOUS
 62
     1
100
AcDbLine
 10
229.280809
 20
280.888307
 30
0.0
 11
235.322626
 21
280.888307
 31
0.0
  0
LINE
  5
AF
100
AcDbEntity
  8
0
  6
CONTINUOUS
 62
     1
100
AcDbLine
 10
241.988991
 20
280.888307
 30
0.0
 11
246.530809
 21
280.888307
 31
0.0
  0
LINE
  5
B0
100
AcDbEntity
  8
0
  6
CONTINUOUS
 62
     1
100
AcDbLine
 10
242.75096
 20
279.575807
 30
0.0
 11
245.084449
 21
279.575807
 31
0.0
  0
LINE
  5
B1
100
AcDbEntity
  8
0
  6
CONTINUOUS
 62
     1
100
AcDbLine
 10
241.988991
 20
275.263307
 30
0.0
 11
246.530809
 21
275.263307
 31
0.0
  0
LINE
  5
B2
100
AcDbEntity
  8
0
  6
CONTINUOUS
 62
     1
100
AcDbLine
 10
243.826312
 20
276.575807
 30
0.0
 11
246.530809
 21
276.575807
 31
0.0
  0
LINE
  5
B3
100
AcDbEntity
  8
0
  6
CONTINUOUS
 62
     1
100
AcDbLine
 10
248.480809
 20
279.575807
 30
0.0
 11
248.480809
 21
278.638307
 31
0.0
  0
LINE
  5
B4
100
AcDbEntity
  8
0
  6
CONTINUOUS
 62
     1
100
AcDbLine
 10
506.0
 20
195.764448
 30
0.0
 11
506.0
 21
305.888822
 31
0.0
  0
LINE
  5
B5
100
AcDbEntity
  8
0
  6
EXLTYPE4
 62
     1
100
AcDbLine
 10
468.0
 20
210.888822
 30
0.0
 11
468.0
 21
205.888822
 31
0.0
  0
LINE
  5
B6
100
AcDbEntity
  8
0
  6
EXLTYPE4
 62
     1
100
AcDbLine
 10
484.0
 20
210.888822
 30
0.0
 11
484.0
 21
205.888822
 31
0.0
  0
LINE
  5
B7
100
AcDbEntity
  8
0
  6
EXLTYPE4
 62
     1
100
AcDbLine
 10
491.0
 20
210.888822
 30
0.0
 11
491.0
 21
205.888822
 31
0.0
  0
LINE
  5
B8
100
AcDbEntity
  8
0
  6
EXLTYPE4
 62
     1
100
AcDbLine
 10
528.0
 20
210.888822
 30
0.0
 11
528.0
 21
205.888822
 31
0.0
  0
LINE
  5
B9
100
AcDbEntity
  8
0
  6
EXLTYPE4
 62
     1
100
AcDbLine
 10
544.0
 20
210.888822
 30
0.0
 11
544.0
 21
205.888822
 31
0.0
  0
LINE
  5
BA
100
AcDbEntity
  8
0
  6
EXLTYPE4
 62
     1
100
AcDbLine
 10
521.0
 20
210.888822
 30
0.0
 11
521.0
 21
205.888822
 31
0.0
  0
LINE
  5
BB
100
AcDbEntity
  8
0
  6
EXLTYPE4
 62
     1
100
AcDbLine
 10
541.5
 20
295.388822
 30
0.0
 11
541.5
 21
291.888822
 31
0.0
  0
LINE
  5
BC
100
AcDbEntity
  8
0
  6
EXLTYPE4
 62
     1
100
AcDbLine
 10
530.5
 20
295.388822
 30
0.0
 11
530.5
 21
291.888822
 31
0.0
  0
LINE
  5
BD
100
AcDbEntity
  8
0
  6
EXLTYPE4
 62
     1
100
AcDbLine
 10
511.5
 20
295.388822
 30
0.0
 11
511.5
 21
291.888822
 31
0.0
  0
LINE
  5
BE
100
AcDbEntity
  8
0
  6
EXLTYPE4
 62
     1
100
AcDbLine
 10
500.5
 20
295.388822
 30
0.0
 11
500.5
 21
291.888822
 31
0.0
  0
LINE
  5
BF
100
AcDbEntity
  8
0
  6
EXLTYPE4
 62
     1
100
AcDbLine
 10
481.5
 20
295.388822
 30
0.0
 11
481.5
 21
291.888822
 31
0.0
  0
LINE
  5
C0
100
AcDbEntity
  8
0
  6
EXLTYPE4
 62
     1
100
AcDbLine
 10
470.5
 20
295.388822
 30
0.0
 11
470.5
 21
291.888822
 31
0.0
  0
LINE
  5
C1
100
AcDbEntity
  8
0
  6
CONTINUOUS
 62
     3
100
AcDbLine
 10
460.0
 20
290.888822
 30
0.0
 11
460.0
 21
235.888822
 31
0.0
  0
LINE
  5
C2
100
AcDbEntity
  8
0
  6
CONTINUOUS
 62
     3
100
AcDbLine
 10
470.0
 20
291.888822
 30
0.0
 11
460.0
 21
281.888822
 31
0.0
  0
LINE
  5
C3
100
AcDbEntity
  8
0
  6
CONTINUOUS
 62
     3
100
AcDbLine
 10
461.0
 20
291.888822
 30
0.0
 11
551.0
 21
291.888822
 31
0.0
  0
LINE
  5
C4
100
AcDbEntity
  8
0
  6
CONTINUOUS
 62
     3
100
AcDbLine
 10
461.0
 20
295.888822
 30
0.0
 11
551.0
 21
295.888822
 31
0.0
  0
ARC
  5
C5
100
AcDbEntity
  8
0
  6
CONTINUOUS
 62
     3
100
AcDbCircle
 10
461.0
 20
290.888822
 30
0.0
 40
1.0
100
AcDbArc
 50
90.0
 51
180.0
  0
ARC
  5
C6
100
AcDbEntity
  8
0
  6
CONTINUOUS
 62
     3
100
AcDbCircle
 10
461.0
 20
290.888822
 30
0.0
 40
5.0
100
AcDbArc
 50
90.0
 51
180.0
  0
LINE
  5
C7
100
AcDbEntity
  8
0
  6
CONTINUOUS
 62
     3
100
AcDbLine
 10
456.0
 20
290.888822
 30
0.0
 11
456.0
 21
235.888822
 31
0.0
  0
POLYLINE
  5
C8
100
AcDbEntity
  8
0
  6
CONTINUOUS
 62
     3
100
AcDb2dPolyline
 66
     1
 10
0.0
 20
0.0
 30
0.0
 70
   128
  0
VERTEX
  5
C9
100
AcDbEntity
  8
0
  6
CONTINUOUS
 62
     3
100
AcDbVertex
100
AcDb2dVertex
 10
470.0
 20
270.888822
 30
0.0
  0
VERTEX
  5
CA
100
AcDbEntity
  8
0
  6
CONTINUOUS
 62
     3
100
AcDbVertex
100
AcDb2dVertex
 10
474.0
 20
270.888822
 30
0.0
  0
VERTEX
  5
CB
100
AcDbEntity
  8
0
  6
CONTINUOUS
 62
     3
100
AcDbVertex
100
AcDb2dVertex
 10
474.0
 20
240.888822
 30
0.0
  0
VERTEX
  5
CC
100
AcDbEntity
  8
0
  6
CONTINUOUS
 62
     3
100
AcDbVertex
100
AcDb2dVertex
 10
470.0
 20
240.888822
 30
0.0
  0
VERTEX
  5
CD
100
AcDbEntity
  8
0
  6
CONTINUOUS
 62
     3
100
AcDbVertex
100
AcDb2dVertex
 10
470.0
 20
270.888822
 30
0.0
  0
SEQEND
  5
CE
100
AcDbEntity
  8
0
  6
CONTINUOUS
 62
     3
  0
POLYLINE
  5
CF
100
AcDbEntity
  8
0
  6
CONTINUOUS
 62
     3
100
AcDb2dPolyline
 66
     1
 10
0.0
 20
0.0
 30
0.0
 70
   128
  0
VERTEX
  5
D0
100
AcDbEntity
  8
0
  6
CONTINUOUS
 62
     3
100
AcDbVertex
100
AcDb2dVertex
 10
486.0
 20
246.888822
 30
0.0
  0
VERTEX
  5
D1
100
AcDbEntity
  8
0
  6
CONTINUOUS
 62
     3
100
AcDbVertex
100
AcDb2dVertex
 10
526.0
 20
246.888822
 30
0.0
  0
VERTEX
  5
D2
100
AcDbEntity
  8
0
  6
CONTINUOUS
 62
     3
100
AcDbVertex
100
AcDb2dVertex
 10
526.0
 20
240.888822
 30
0.0
  0
VERTEX
  5
D3
100
AcDbEntity
  8
0
  6
CONTINUOUS
 62
     3
100
AcDbVertex
100
AcDb2dVertex
 10
486.0
 20
240.888822
 30
0.0
  0
VERTEX
  5
D4
100
AcDbEntity
  8
0
  6
CONTINUOUS
 62
     3
100
AcDbVertex
100
AcDb2dVertex
 10
486.0
 20
246.888822
 30
0.0
  0
SEQEND
  5
D5
100
AcDbEntity
  8
0
  6
CONTINUOUS
 62
     3
  0
LINE
  5
D6
100
AcDbEntity
  8
0
  6
CONTINUOUS
 62
     3
100
AcDbLine
 10
506.0
 20
267.032049
 30
0.0
 11
506.0
 21
261.245595
 31
0.0
  0
LINE
  5
D7
100
AcDbEntity
  8
0
  6
CONTINUOUS
 62
     3
100
AcDbLine
 10
511.75
 20
259.888822
 30
0.0
 11
500.25
 21
259.888822
 31
0.0
  0
ARC
  5
D8
100
AcDbEntity
  8
0
  6
CONTINUOUS
 62
     3
100
AcDbCircle
 10
500.25
 20
247.026195
 30
0.0
 40
12.862627
100
AcDbArc
 50
63.44661
 51
116.55339
  0
ARC
  5
D9
100
AcDbEntity
  8
0
  6
CONTINUOUS
 62
     3
100
AcDbCircle
 10
511.75
 20
247.026195
 30
0.0
 40
12.862627
100
AcDbArc
 50
63.44661
 51
116.55339
  0
LINE
  5
DA
100
AcDbEntity
  8
0
  6
CONTINUOUS
 62
     3
100
AcDbLine
 10
500.25
 20
259.888822
 30
0.0
 11
511.75
 21
259.888822
 31
0.0
  0
LINE
  5
DB
100
AcDbEntity
  8
0
  6
CONTINUOUS
 62
     3
100
AcDbLine
 10
511.75
 20
268.388822
 30
0.0
 11
500.25
 21
268.388822
 31
0.0
  0
ARC
  5
DC
100
AcDbEntity
  8
0
  6
CONTINUOUS
 62
     3
100
AcDbCircle
 10
500.25
 20
272.751449
 30
0.0
 40
12.862627
100
AcDbArc
 50
243.44661
 51
296.55339
  0
ARC
  5
DD
100
AcDbEntity
  8
0
  6
CONTINUOUS
 62
     3
100
AcDbCircle
 10
500.25
 20
255.526195
 30
0.0
 40
12.862627
100
AcDbArc
 50
63.44661
 51
116.55339
  0
ARC
  5
DE
100
AcDbEntity
  8
0
  6
CONTINUOUS
 62
     3
100
AcDbCircle
 10
511.75
 20
272.751449
 30
0.0
 40
12.862627
100
AcDbArc
 50
243.44661
 51
296.55339
  0
ARC
  5
DF
100
AcDbEntity
  8
0
  6
CONTINUOUS
 62
     3
100
AcDbCircle
 10
511.75
 20
255.526195
 30
0.0
 40
12.862627
100
AcDbArc
 50
63.44661
 51
116.55339
  0
LINE
  5
E0
100
AcDbEntity
  8
0
  6
CONTINUOUS
 62
     3
100
AcDbLine
 10
517.5
 20
267.032049
 30
0.0
 11
517.5
 21
261.245595
 31
0.0
  0
LINE
  5
E1
100
AcDbEntity
  8
0
  6
CONTINUOUS
 62
     3
100
AcDbLine
 10
494.5
 20
267.032049
 30
0.0
 11
494.5
 21
261.245595
 31
0.0
  0
LINE
  5
E2
100
AcDbEntity
  8
0
  6
CONTINUOUS
 62
     3
100
AcDbLine
 10
500.25
 20
246.888822
 30
0.0
 11
511.75
 21
246.888822
 31
0.0
  0
ARC
  5
E3
100
AcDbEntity
  8
0
  6
CONTINUOUS
 62
     3
100
AcDbCircle
 10
500.25
 20
259.751449
 30
0.0
 40
12.862627
100
AcDbArc
 50
243.44661
 51
296.55339
  0
ARC
  5
E4
100
AcDbEntity
  8
0
  6
CONTINUOUS
 62
     3
100
AcDbCircle
 10
511.75
 20
259.751449
 30
0.0
 40
12.862627
100
AcDbArc
 50
243.44661
 51
296.55339
  0
LINE
  5
E5
100
AcDbEntity
  8
0
  6
CONTINUOUS
 62
     3
100
AcDbLine
 10
517.5
 20
246.888822
 30
0.0
 11
494.5
 21
246.888822
 31
0.0
  0
LINE
  5
E6
100
AcDbEntity
  8
0
  6
CONTINUOUS
 62
     3
100
AcDbLine
 10
506.0
 20
258.532049
 30
0.0
 11
506.0
 21
248.245595
 31
0.0
  0
LINE
  5
E7
100
AcDbEntity
  8
0
  6
CONTINUOUS
 62
     3
100
AcDbLine
 10
517.5
 20
258.532049
 30
0.0
 11
517.5
 21
248.245595
 31
0.0
  0
LINE
  5
E8
100
AcDbEntity
  8
0
  6
CONTINUOUS
 62
     3
100
AcDbLine
 10
494.5
 20
258.532049
 30
0.0
 11
494.5
 21
248.245595
 31
0.0
  0
LINE
  5
E9
100
AcDbEntity
  8
0
  6
CONTINUOUS
 62
     3
100
AcDbLine
 10
514.0
 20
268.388822
 30
0.0
 11
514.0
 21
284.188822
 31
0.0
  0
LINE
  5
EA
100
AcDbEntity
  8
0
  6
CONTINUOUS
 62
     3
100
AcDbLine
 10
512.3
 20
285.888822
 30
0.0
 11
514.0
 21
284.188822
 31
0.0
  0
LINE
  5
EB
100
AcDbEntity
  8
0
  6
CONTINUOUS
 62
     3
100
AcDbLine
 10
498.0
 20
268.388822
 30
0.0
 11
498.0
 21
284.188822
 31
0.0
  0
LINE
  5
EC
100
AcDbEntity
  8
0
  6
CONTINUOUS
 62
     3
100
AcDbLine
 10
499.7
 20
285.888822
 30
0.0
 11
498.0
 21
284.188822
 31
0.0
  0
LINE
  5
ED
100
AcDbEntity
  8
0
  6
CONTINUOUS
 62
     3
100
AcDbLine
 10
512.3
 20
285.888822
 30
0.0
 11
499.7
 21
285.888822
 31
0.0
  0
LINE
  5
EE
100
AcDbEntity
  8
0
  6
CONTINUOUS
 62
     3
100
AcDbLine
 10
514.0
 20
284.188822
 30
0.0
 11
498.0
 21
284.188822
 31
0.0
  0
LINE
  5
EF
100
AcDbEntity
  8
0
  6
CONTINUOUS
 62
     3
100
AcDbLine
 10
499.7
 20
285.888822
 30
0.0
 11
499.7
 21
268.388822
 31
0.0
  0
LINE
  5
F0
100
AcDbEntity
  8
0
  6
CONTINUOUS
 62
     3
100
AcDbLine
 10
512.3
 20
285.888822
 30
0.0
 11
512.3
 21
268.388822
 31
0.0
  0
POLYLINE
  5
F1
100
AcDbEntity
  8
0
  6
CONTINUOUS
 62
     3
100
AcDb2dPolyline
 66
     1
 10
0.0
 20
0.0
 30
0.0
 70
   128
  0
VERTEX
  5
F2
100
AcDbEntity
  8
0
  6
CONTINUOUS
 62
     3
100
AcDbVertex
100
AcDb2dVertex
 10
538.0
 20
270.888822
 30
0.0
  0
VERTEX
  5
F3
100
AcDbEntity
  8
0
  6
CONTINUOUS
 62
     3
100
AcDbVertex
100
AcDb2dVertex
 10
542.0
 20
270.888822
 30
0.0
  0
VERTEX
  5
F4
100
AcDbEntity
  8
0
  6
CONTINUOUS
 62
     3
100
AcDbVertex
100
AcDb2dVertex
 10
542.0
 20
240.888822
 30
0.0
  0
VERTEX
  5
F5
100
AcDbEntity
  8
0
  6
CONTINUOUS
 62
     3
100
AcDbVertex
100
AcDb2dVertex
 10
538.0
 20
240.888822
 30
0.0
  0
VERTEX
  5
F6
100
AcDbEntity
  8
0
  6
CONTINUOUS
 62
     3
100
AcDbVertex
100
AcDb2dVertex
 10
538.0
 20
270.888822
 30
0.0
  0
SEQEND
  5
F7
100
AcDbEntity
  8
0
  6
CONTINUOUS
 62
     3
  0
POLYLINE
  5
F8
100
AcDbEntity
  8
0
  6
CONTINUOUS
 62
     3
100
AcDb2dPolyline
 66
     1
 10
0.0
 20
0.0
 30
0.0
 70
   128
  0
VERTEX
  5
F9
100
AcDbEntity
  8
0
  6
CONTINUOUS
 62
     3
100
AcDbVertex
100
AcDb2dVertex
 10
466.0
 20
235.888822
 30
0.0
  0
VERTEX
  5
FA
100
AcDbEntity
  8
0
  6
CONTINUOUS
 62
     3
100
AcDbVertex
100
AcDb2dVertex
 10
546.0
 20
235.888822
 30
0.0
  0
VERTEX
  5
FB
100
AcDbEntity
  8
0
  6
CONTINUOUS
 62
     3
100
AcDbVertex
100
AcDb2dVertex
 10
546.0
 20
210.888822
 30
0.0
  0
VERTEX
  5
FC
100
AcDbEntity
  8
0
  6
CONTINUOUS
 62
     3
100
AcDbVertex
100
AcDb2dVertex
 10
466.0
 20
210.888822
 30
0.0
  0
VERTEX
  5
FD
100
AcDbEntity
  8
0
  6
CONTINUOUS
 62
     3
100
AcDbVertex
100
AcDb2dVertex
 10
466.0
 20
235.888822
 30
0.0
  0
SEQEND
  5
FE
100
AcDbEntity
  8
0
  6
CONTINUOUS
 62
     3
  0
LINE
  5
FF
100
AcDbEntity
  8
0
  6
CONTINUOUS
 62
     3
100
AcDbLine
 10
456.0
 20
235.888822
 30
0.0
 11
556.0
 21
235.888822
 31
0.0
  0
POLYLINE
  5
100
100
AcDbEntity
  8
0
  6
CONTINUOUS
 62
     3
100
AcDb2dPolyline
 66
     1
 10
0.0
 20
0.0
 30
0.0
 70
   128
  0
VERTEX
  5
101
100
AcDbEntity
  8
0
  6
CONTINUOUS
 62
     3
100
AcDbVertex
100
AcDb2dVertex
 10
460.0
 20
240.888822
 30
0.0
  0
VERTEX
  5
102
100
AcDbEntity
  8
0
  6
CONTINUOUS
 62
     3
100
AcDbVertex
100
AcDb2dVertex
 10
552.0
 20
240.888822
 30
0.0
  0
VERTEX
  5
103
100
AcDbEntity
  8
0
  6
CONTINUOUS
 62
     3
100
AcDbVertex
100
AcDb2dVertex
 10
552.0
 20
235.888822
 30
0.0
  0
VERTEX
  5
104
100
AcDbEntity
  8
0
  6
CONTINUOUS
 62
     3
100
AcDbVertex
100
AcDb2dVertex
 10
460.0
 20
235.888822
 30
0.0
  0
VERTEX
  5
105
100
AcDbEntity
  8
0
  6
CONTINUOUS
 62
     3
100
AcDbVertex
100
AcDb2dVertex
 10
460.0
 20
240.888822
 30
0.0
  0
SEQEND
  5
106
100
AcDbEntity
  8
0
  6
CONTINUOUS
 62
     3
  0
LINE
  5
107
100
AcDbEntity
  8
0
  6
CONTINUOUS
 62
     3
100
AcDbLine
 10
556.0
 20
290.888822
 30
0.0
 11
556.0
 21
235.888822
 31
0.0
  0
LINE
  5
108
100
AcDbEntity
  8
0
  6
CONTINUOUS
 62
     3
100
AcDbLine
 10
552.0
 20
290.888822
 30
0.0
 11
552.0
 21
235.888822
 31
0.0
  0
LINE
  5
109
100
AcDbEntity
  8
0
  6
CONTINUOUS
 62
     3
100
AcDbLine
 10
542.0
 20
291.888822
 30
0.0
 11
552.0
 21
281.888822
 31
0.0
  0
ARC
  5
10A
100
AcDbEntity
  8
0
  6
CONTINUOUS
 62
     3
100
AcDbCircle
 10
551.0
 20
290.888822
 30
0.0
 40
5.0
100
AcDbArc
 50
0.0
 51
90.0
  0
ARC
  5
10B
100
AcDbEntity
  8
0
  6
CONTINUOUS
 62
     3
100
AcDbCircle
 10
551.0
 20
290.888822
 30
0.0
 40
1.0
100
AcDbArc
 50
0.0
 51
90.0
  0
POLYLINE
  5
10C
100
AcDbEntity
  8
0
  6
CONTINUOUS
 62
     3
100
AcDb2dPolyline
 66
     1
 10
0.0
 20
0.0
 30
0.0
 70
   128
  0
VERTEX
  5
10D
100
AcDbEntity
  8
0
  6
CONTINUOUS
 62
     3
100
AcDbVertex
100
AcDb2dVertex
 10
456.0
 20
210.888822
 30
0.0
  0
VERTEX
  5
10E
100
AcDbEntity
  8
0
  6
CONTINUOUS
 62
     3
100
AcDbVertex
100
AcDb2dVertex
 10
556.0
 20
210.888822
 30
0.0
  0
VERTEX
  5
10F
100
AcDbEntity
  8
0
  6
CONTINUOUS
 62
     3
100
AcDbVertex
100
AcDb2dVertex
 10
556.0
 20
205.888822
 30
0.0
  0
VERTEX
  5
110
100
AcDbEntity
  8
0
  6
CONTINUOUS
 62
     3
100
AcDbVertex
100
AcDb2dVertex
 10
456.0
 20
205.888822
 30
0.0
  0
VERTEX
  5
111
100
AcDbEntity
  8
0
  6
CONTINUOUS
 62
     3
100
AcDbVertex
100
AcDb2dVertex
 10
456.0
 20
210.888822
 30
0.0
  0
SEQEND
  5
112
100
AcDbEntity
  8
0
  6
CONTINUOUS
 62
     3
  0
LINE
  5
113
100
AcDbEntity
  8
0
  6
CONTINUOUS
 62
     3
100
AcDbLine
 10
517.75
 20
217.888822
 30
0.0
 11
494.25
 21
217.888822
 31
0.0
  0
LINE
  5
114
100
AcDbEntity
  8
0
  6
CONTINUOUS
 62
     3
100
AcDbLine
 10
506.0
 20
225.032049
 30
0.0
 11
506.0
 21
219.245595
 31
0.0
  0
LINE
  5
115
100
AcDbEntity
  8
0
  6
CONTINUOUS
 62
     3
100
AcDbLine
 10
500.25
 20
217.888822
 30
0.0
 11
511.75
 21
217.888822
 31
0.0
  0
LINE
  5
116
100
AcDbEntity
  8
0
  6
CONTINUOUS
 62
     3
100
AcDbLine
 10
511.75
 20
226.388822
 30
0.0
 11
500.25
 21
226.388822
 31
0.0
  0
ARC
  5
117
100
AcDbEntity
  8
0
  6
CONTINUOUS
 62
     3
100
AcDbCircle
 10
500.25
 20
230.751449
 30
0.0
 40
12.862627
100
AcDbArc
 50
243.44661
 51
296.55339
  0
ARC
  5
118
100
AcDbEntity
  8
0
  6
CONTINUOUS
 62
     3
100
AcDbCircle
 10
500.25
 20
213.526195
 30
0.0
 40
12.862627
100
AcDbArc
 50
63.44661
 51
116.55339
  0
ARC
  5
119
100
AcDbEntity
  8
0
  6
CONTINUOUS
 62
     3
100
AcDbCircle
 10
511.75
 20
230.751449
 30
0.0
 40
12.862627
100
AcDbArc
 50
243.44661
 51
296.55339
  0
ARC
  5
11A
100
AcDbEntity
  8
0
  6
CONTINUOUS
 62
     3
100
AcDbCircle
 10
511.75
 20
213.526195
 30
0.0
 40
12.862627
100
AcDbArc
 50
63.44661
 51
116.55339
  0
LINE
  5
11B
100
AcDbEntity
  8
0
  6
CONTINUOUS
 62
     3
100
AcDbLine
 10
517.5
 20
225.032049
 30
0.0
 11
517.5
 21
219.245595
 31
0.0
  0
LINE
  5
11C
100
AcDbEntity
  8
0
  6
CONTINUOUS
 62
     3
100
AcDbLine
 10
494.5
 20
225.032049
 30
0.0
 11
494.5
 21
219.245595
 31
0.0
  0
LINE
  5
11D
100
AcDbEntity
  8
0
  6
CONTINUOUS
 62
     3
100
AcDbLine
 10
517.75
 20
217.888822
 30
0.0
 11
517.75
 21
212.388822
 31
0.0
  0
ARC
  5
11E
100
AcDbEntity
  8
0
  6
CONTINUOUS
 62
     3
100
AcDbCircle
 10
519.25
 20
212.388822
 30
0.0
 40
1.5
100
AcDbArc
 50
180.0
 51
270.0
  0
LINE
  5
11F
100
AcDbEntity
  8
0
  6
CONTINUOUS
 62
     3
100
AcDbLine
 10
494.25
 20
217.888822
 30
0.0
 11
494.25
 21
212.388822
 31
0.0
  0
ARC
  5
120
100
AcDbEntity
  8
0
  6
CONTINUOUS
 62
     3
100
AcDbCircle
 10
492.75
 20
212.388822
 30
0.0
 40
1.5
100
AcDbArc
 50
270.0
 51
0.0
  0
LINE
  5
121
100
AcDbEntity
  8
0
  6
CONTINUOUS
 62
     3
100
AcDbLine
 10
499.7
 20
235.888822
 30
0.0
 11
499.7
 21
226.388822
 31
0.0
  0
LINE
  5
122
100
AcDbEntity
  8
0
  6
CONTINUOUS
 62
     3
100
AcDbLine
 10
498.0
 20
226.388822
 30
0.0
 11
498.0
 21
235.888822
 31
0.0
  0
LINE
  5
123
100
AcDbEntity
  8
0
  6
CONTINUOUS
 62
     3
100
AcDbLine
 10
512.3
 20
235.888822
 30
0.0
 11
512.3
 21
226.388822
 31
0.0
  0
LINE
  5
124
100
AcDbEntity
  8
0
  6
CONTINUOUS
 62
     3
100
AcDbLine
 10
514.0
 20
226.388822
 30
0.0
 11
514.0
 21
235.888822
 31
0.0
  0
LINE
  5
125
100
AcDbEntity
  8
0
  6
EXLTYPE2
 62
     1
100
AcDbLine
 10
476.0
 20
305.888822
 30
0.0
 11
476.0
 21
281.888822
 31
0.0
  0
LINE
  5
126
100
AcDbEntity
  8
0
  6
EXLTYPE2
 62
     1
100
AcDbLine
 10
506.0
 20
305.888822
 30
0.0
 11
506.0
 21
281.888822
 31
0.0
  0
LINE
  5
127
100
AcDbEntity
  8
0
  6
EXLTYPE2
 62
     1
100
AcDbLine
 10
536.0
 20
305.888822
 30
0.0
 11
536.0
 21
281.888822
 31
0.0
  0
LINE
  5
128
100
AcDbEntity
  8
0
  6
EXLTYPE2
 62
     1
100
AcDbLine
 10
476.0
 20
220.888822
 30
0.0
 11
476.0
 21
195.888822
 31
0.0
  0
LINE
  5
129
100
AcDbEntity
  8
0
  6
EXLTYPE2
 62
     1
100
AcDbLine
 10
536.0
 20
220.888822
 30
0.0
 11
536.0
 21
195.764448
 31
0.0
  0
LINE
  5
12A
100
AcDbEntity
  8
0
  6
EXLTYPE4
 62
     1
100
AcDbLine
 10
493.0
 20
240.888822
 30
0.0
 11
493.0
 21
235.888822
 31
0.0
  0
LINE
  5
12B
100
AcDbEntity
  8
0
  6
EXLTYPE4
 62
     1
100
AcDbLine
 10
519.0
 20
240.888822
 30
0.0
 11
519.0
 21
235.888822
 31
0.0
  0
LINE
  5
12C
100
AcDbEntity
  8
防振材
  6
CONTINUOUS
 62
     3
100
AcDbLine
 10
406.65963
 20
432.392822
 30
0.0
 11
396.65963
 21
422.392822
 31
0.0
  0
LINE
  5
12D
100
AcDbEntity
  8
防振材
  6
CONTINUOUS
 62
     3
100
AcDbLine
 10
81.65963
 20
512.392822
 30
0.0
 11
91.65963
 21
522.392822
 31
0.0
  0
LINE
  5
12E
100
AcDbEntity
  8
防振材
  6
CONTINUOUS
 62
     3
100
AcDbLine
 10
91.65963
 20
522.392822
 30
0.0
 11
156.636236
 21
522.392822
 31
0.0
  0
LINE
  5
12F
100
AcDbEntity
  8
防振材
  6
CONTINUOUS
 62
     3
100
AcDbLine
 10
81.65963
 20
432.392822
 30
0.0
 11
91.65963
 21
422.392822
 31
0.0
  0
LINE
  5
130
100
AcDbEntity
  8
防振材
  6
CONTINUOUS
 62
     3
100
AcDbLine
 10
91.65963
 20
422.392822
 30
0.0
 11
156.636236
 21
422.392822
 31
0.0
  0
LINE
  5
131
100
AcDbEntity
  8
防振材
  6
CONTINUOUS
 62
     3
100
AcDbLine
 10
81.65963
 20
512.392822
 30
0.0
 11
81.65963
 21
432.392822
 31
0.0
  0
LINE
  5
132
100
AcDbEntity
  8
防振材
  6
CONTINUOUS
 62
     3
100
AcDbLine
 10
396.65963
 20
422.392822
 30
0.0
 11
331.683023
 21
422.392822
 31
0.0
  0
LINE
  5
133
100
AcDbEntity
  8
防振材
  6
CONTINUOUS
 62
     3
100
AcDbLine
 10
406.65963
 20
512.392822
 30
0.0
 11
396.65963
 21
522.392822
 31
0.0
  0
LINE
  5
134
100
AcDbEntity
  8
防振材
  6
CONTINUOUS
 62
     3
100
AcDbLine
 10
396.65963
 20
522.392822
 30
0.0
 11
331.683023
 21
522.392822
 31
0.0
  0
LINE
  5
135
100
AcDbEntity
  8
防振材
  6
CONTINUOUS
 62
     3
100
AcDbLine
 10
406.65963
 20
512.392822
 30
0.0
 11
406.65963
 21
432.392822
 31
0.0
  0
CIRCLE
  5
136
100
AcDbEntity
  8
防振材
  6
CONTINUOUS
 62
     3
100
AcDbCircle
 10
389.15963
 20
442.392822
 30
0.0
 40
8.0
  0
CIRCLE
  5
137
100
AcDbEntity
  8
防振材
  6
CONTINUOUS
 62
     3
100
AcDbCircle
 10
389.15963
 20
502.392822
 30
0.0
 40
8.0
  0
CIRCLE
  5
138
100
AcDbEntity
  8
防振材
  6
CONTINUOUS
 62
     3
100
AcDbCircle
 10
99.15963
 20
442.392822
 30
0.0
 40
8.0
  0
CIRCLE
  5
139
100
AcDbEntity
  8
防振材
  6
CONTINUOUS
 62
     3
100
AcDbCircle
 10
99.15963
 20
502.392822
 30
0.0
 40
8.0
  0
LINE
  5
13A
100
AcDbEntity
  8
防振材
  6
CONTINUOUS
 62
     3
100
AcDbLine
 10
370.65963
 20
436.392822
 30
0.0
 11
370.65963
 21
508.392822
 31
0.0
  0
LINE
  5
13B
100
AcDbEntity
  8
防振材
  6
CONTINUOUS
 62
     3
100
AcDbLine
 10
117.65963
 20
436.392822
 30
0.0
 11
117.65963
 21
508.392822
 31
0.0
  0
LINE
  5
13C
100
AcDbEntity
  8
防振材
  6
CONTINUOUS
 62
     3
100
AcDbLine
 10
329.15963
 20
522.392822
 30
0.0
 11
329.15963
 21
422.392822
 31
0.0
  0
LINE
  5
13D
100
AcDbEntity
  8
防振材
  6
CONTINUOUS
 62
     3
100
AcDbLine
 10
159.15963
 20
522.392822
 30
0.0
 11
159.15963
 21
422.392822
 31
0.0
  0
LINE
  5
13E
100
AcDbEntity
  8
防振材
  6
CONTINUOUS
 62
     3
100
AcDbLine
 10
370.65963
 20
436.392822
 30
0.0
 11
360.65963
 21
426.392822
 31
0.0
  0
LINE
  5
13F
100
AcDbEntity
  8
防振材
  6
CONTINUOUS
 62
     3
100
AcDbLine
 10
360.65963
 20
426.392822
 30
0.0
 11
330.65963
 21
426.392822
 31
0.0
  0
LINE
  5
140
100
AcDbEntity
  8
防振材
  6
CONTINUOUS
 62
     3
100
AcDbLine
 10
127.65963
 20
426.392822
 30
0.0
 11
158.236236
 21
426.392822
 31
0.0
  0
LINE
  5
141
100
AcDbEntity
  8
防振材
  6
CONTINUOUS
 62
     3
100
AcDbLine
 10
117.65963
 20
436.392822
 30
0.0
 11
127.65963
 21
426.392822
 31
0.0
  0
LINE
  5
142
100
AcDbEntity
  8
防振材
  6
CONTINUOUS
 62
     3
100
AcDbLine
 10
360.65963
 20
518.392822
 30
0.0
 11
370.65963
 21
508.392822
 31
0.0
  0
LINE
  5
143
100
AcDbEntity
  8
防振材
  6
CONTINUOUS
 62
     3
100
AcDbLine
 10
360.65963
 20
518.392822
 30
0.0
 11
330.65963
 21
518.392822
 31
0.0
  0
LINE
  5
144
100
AcDbEntity
  8
防振材
  6
CONTINUOUS
 62
     3
100
AcDbLine
 10
127.65963
 20
518.392822
 30
0.0
 11
158.236236
 21
518.392822
 31
0.0
  0
LINE
  5
145
100
AcDbEntity
  8
防振材
  6
CONTINUOUS
 62
     3
100
AcDbLine
 10
127.65963
 20
518.392822
 30
0.0
 11
117.65963
 21
508.392822
 31
0.0
  0
CIRCLE
  5
146
100
AcDbEntity
  8
防振材
  6
CONTINUOUS
 62
     3
100
AcDbCircle
 10
137.65963
 20
472.392822
 30
0.0
 40
20.0
  0
LINE
  5
147
100
AcDbEntity
  8
防振材
  6
CONTINUOUS
 62
     3
100
AcDbLine
 10
159.15963
 20
422.392822
 30
0.0
 11
329.15963
 21
422.392822
 31
0.0
  0
LINE
  5
148
100
AcDbEntity
  8
防振材
  6
CONTINUOUS
 62
     3
100
AcDbLine
 10
159.15963
 20
522.392822
 30
0.0
 11
329.15963
 21
522.392822
 31
0.0
  0
LINE
  5
149
100
AcDbEntity
  8
防振材
  6
CONTINUOUS
 62
     3
100
AcDbLine
 10
81.65963
 20
205.888822
 30
0.0
 11
406.65963
 21
205.888822
 31
0.0
  0
LINE
  5
14A
100
AcDbEntity
  8
防振材
  6
CONTINUOUS
 62
     3
100
AcDbLine
 10
81.65963
 20
210.888822
 30
0.0
 11
81.65963
 21
205.888822
 31
0.0
  0
LINE
  5
14B
100
AcDbEntity
  8
防振材
  6
CONTINUOUS
 62
     3
100
AcDbLine
 10
174.15963
 20
249.388822
 30
0.0
 11
174.15963
 21
210.888822
 31
0.0
  0
LINE
  5
14C
100
AcDbEntity
  8
防振材
  6
CONTINUOUS
 62
     3
100
AcDbLine
 10
129.65963
 20
284.188822
 30
0.0
 11
145.65963
 21
284.188822
 31
0.0
  0
LINE
  5
14D
100
AcDbEntity
  8
防振材
  6
CONTINUOUS
 62
     3
100
AcDbLine
 10
145.65963
 20
281.888822
 30
0.0
 11
145.65963
 21
284.188822
 31
0.0
  0
LINE
  5
14E
100
AcDbEntity
  8
防振材
  6
CONTINUOUS
 62
     3
100
AcDbLine
 10
131.35963
 20
285.888822
 30
0.0
 11
143.95963
 21
285.888822
 31
0.0
  0
LINE
  5
14F
100
AcDbEntity
  8
防振材
  6
CONTINUOUS
 62
     3
100
AcDbLine
 10
143.95963
 20
285.888822
 30
0.0
 11
145.65963
 21
284.188822
 31
0.0
  0
LINE
  5
150
100
AcDbEntity
  8
防振材
  6
CONTINUOUS
 62
     3
100
AcDbLine
 10
129.65963
 20
281.888822
 30
0.0
 11
129.65963
 21
284.188822
 31
0.0
  0
LINE
  5
151
100
AcDbEntity
  8
防振材
  6
CONTINUOUS
 62
     3
100
AcDbLine
 10
131.35963
 20
285.888822
 30
0.0
 11
129.65963
 21
284.188822
 31
0.0
  0
LINE
  5
152
100
AcDbEntity
  8
防振材
  6
CONTINUOUS
 62
     3
100
AcDbLine
 10
145.65963
 20
226.388822
 30
0.0
 11
145.65963
 21
249.388822
 31
0.0
  0
LINE
  5
153
100
AcDbEntity
  8
防振材
  6
CONTINUOUS
 62
     3
100
AcDbLine
 10
129.65963
 20
226.388822
 30
0.0
 11
129.65963
 21
249.388822
 31
0.0
  0
LINE
  5
154
100
AcDbEntity
  8
防振材
  6
CONTINUOUS
 62
     3
100
AcDbLine
 10
117.65963
 20
254.388822
 30
0.0
 11
117.65963
 21
249.388822
 31
0.0
  0
LINE
  5
155
100
AcDbEntity
  8
防振材
  6
CONTINUOUS
 62
     3
100
AcDbLine
 10
117.65963
 20
254.388822
 30
0.0
 11
159.15963
 21
254.388822
 31
0.0
  0
LINE
  5
156
100
AcDbEntity
  8
防振材
  6
CONTINUOUS
 62
     3
100
AcDbLine
 10
159.15963
 20
309.388822
 30
0.0
 11
159.15963
 21
249.388822
 31
0.0
  0
LINE
  5
157
100
AcDbEntity
  8
防振材
  6
CONTINUOUS
 62
     3
100
AcDbLine
 10
159.15963
 20
309.388822
 30
0.0
 11
244.15963
 21
309.388822
 31
0.0
  0
LINE
  5
158
100
AcDbEntity
  8
防振材
  6
CONTINUOUS
 62
     3
100
AcDbLine
 10
117.65963
 20
260.388822
 30
0.0
 11
117.65963
 21
254.388822
 31
0.0
  0
LINE
  5
159
100
AcDbEntity
  8
防振材
  6
CONTINUOUS
 62
     3
100
AcDbLine
 10
117.65963
 20
249.388822
 30
0.0
 11
159.03963
 21
249.388822
 31
0.0
  0
LINE
  5
15A
100
AcDbEntity
  8
防振材
  6
CONTINUOUS
 62
     3
100
AcDbLine
 10
123.80963
 20
225.032049
 30
0.0
 11
123.80963
 21
219.245595
 31
0.0
  0
LINE
  5
15B
100
AcDbEntity
  8
防振材
  6
CONTINUOUS
 62
     3
100
AcDbLine
 10
130.73463
 20
225.032049
 30
0.0
 11
130.73463
 21
219.245595
 31
0.0
  0
LINE
  5
15C
100
AcDbEntity
  8
防振材
  6
CONTINUOUS
 62
     3
100
AcDbLine
 10
144.58463
 20
225.032049
 30
0.0
 11
144.58463
 21
219.245595
 31
0.0
  0
LINE
  5
15D
100
AcDbEntity
  8
防振材
  6
CONTINUOUS
 62
     3
100
AcDbLine
 10
151.50963
 20
225.032049
 30
0.0
 11
151.50963
 21
219.245595
 31
0.0
  0
ARC
  5
15E
100
AcDbEntity
  8
防振材
  6
CONTINUOUS
 62
     3
100
AcDbCircle
 10
137.65963
 20
208.037759
 30
0.0
 40
18.351063
100
AcDbArc
 50
67.829605
 51
112.170395
  0
LINE
  5
15F
100
AcDbEntity
  8
防振材
  6
CONTINUOUS
 62
     3
100
AcDbLine
 10
126.15963
 20
226.388822
 30
0.0
 11
149.15963
 21
226.388822
 31
0.0
  0
ARC
  5
160
100
AcDbEntity
  8
防振材
  6
CONTINUOUS
 62
     3
100
AcDbCircle
 10
149.403903
 20
217.17337
 30
0.0
 40
9.21869
100
AcDbArc
 50
91.518378
 51
121.518378
  0
LINE
  5
161
100
AcDbEntity
  8
防振材
  6
CONTINUOUS
 62
     3
100
AcDbLine
 10
149.15963
 20
226.388822
 30
0.0
 11
151.50963
 21
225.032049
 31
0.0
  0
ARC
  5
162
100
AcDbEntity
  8
防振材
  6
CONTINUOUS
 62
     3
100
AcDbCircle
 10
125.915356
 20
217.17337
 30
0.0
 40
9.21869
100
AcDbArc
 50
58.481622
 51
88.481622
  0
LINE
  5
163
100
AcDbEntity
  8
防振材
  6
CONTINUOUS
 62
     3
100
AcDbLine
 10
126.15963
 20
226.388822
 30
0.0
 11
123.80963
 21
225.032049
 31
0.0
  0
LINE
  5
164
100
AcDbEntity
  8
防振材
  6
CONTINUOUS
 62
     3
100
AcDbLine
 10
126.15963
 20
217.888822
 30
0.0
 11
149.15963
 21
217.888822
 31
0.0
  0
LINE
  5
165
100
AcDbEntity
  8
防振材
  6
CONTINUOUS
 62
     3
100
AcDbLine
 10
149.15963
 20
217.888822
 30
0.0
 11
151.50963
 21
219.245595
 31
0.0
  0
ARC
  5
166
100
AcDbEntity
  8
防振材
  6
CONTINUOUS
 62
     3
100
AcDbCircle
 10
149.403903
 20
227.104275
 30
0.0
 40
9.21869
100
AcDbArc
 50
238.481622
 51
268.481622
  0
ARC
  5
167
100
AcDbEntity
  8
防振材
  6
CONTINUOUS
 62
     3
100
AcDbCircle
 10
137.65963
 20
236.239885
 30
0.0
 40
18.351063
100
AcDbArc
 50
247.829605
 51
292.170395
  0
ARC
  5
168
100
AcDbEntity
  8
防振材
  6
CONTINUOUS
 62
     3
100
AcDbCircle
 10
125.915356
 20
227.104275
 30
0.0
 40
9.21869
100
AcDbArc
 50
271.518378
 51
301.518378
  0
LINE
  5
169
100
AcDbEntity
  8
防振材
  6
CONTINUOUS
 62
     3
100
AcDbLine
 10
126.15963
 20
217.888822
 30
0.0
 11
123.80963
 21
219.245595
 31
0.0
  0
LINE
  5
16A
100
AcDbEntity
  8
防振材
  6
CONTINUOUS
 62
     3
100
AcDbLine
 10
125.40963
 20
217.888822
 30
0.0
 11
149.90963
 21
217.888822
 31
0.0
  0
LINE
  5
16B
100
AcDbEntity
  8
防振材
  6
CONTINUOUS
 62
     3
100
AcDbLine
 10
149.90963
 20
217.888822
 30
0.0
 11
149.90963
 21
212.388822
 31
0.0
  0
ARC
  5
16C
100
AcDbEntity
  8
防振材
  6
CONTINUOUS
 62
     3
100
AcDbCircle
 10
151.40963
 20
212.388822
 30
0.0
 40
1.5
100
AcDbArc
 50
180.0
 51
270.0
  0
LINE
  5
16D
100
AcDbEntity
  8
防振材
  6
CONTINUOUS
 62
     3
100
AcDbLine
 10
125.40963
 20
217.888822
 30
0.0
 11
125.40963
 21
212.388822
 31
0.0
  0
ARC
  5
16E
100
AcDbEntity
  8
防振材
  6
CONTINUOUS
 62
     3
100
AcDbCircle
 10
123.90963
 20
212.388822
 30
0.0
 40
1.5
100
AcDbArc
 50
270.0
 51
0.0
  0
LINE
  5
16F
100
AcDbEntity
  8
防振材
  6
CONTINUOUS
 62
     3
100
AcDbLine
 10
144.58463
 20
267.532049
 30
0.0
 11
144.58463
 21
266.313822
 31
0.0
  0
LINE
  5
170
100
AcDbEntity
  8
防振材
  6
CONTINUOUS
 62
     3
100
AcDbLine
 10
130.73463
 20
267.532049
 30
0.0
 11
130.73463
 21
261.745595
 31
0.0
  0
LINE
  5
171
100
AcDbEntity
  8
防振材
  6
CONTINUOUS
 62
     3
100
AcDbLine
 10
123.80963
 20
267.532049
 30
0.0
 11
123.80963
 21
261.745595
 31
0.0
  0
ARC
  5
172
100
AcDbEntity
  8
防振材
  6
CONTINUOUS
 62
     3
100
AcDbCircle
 10
137.65963
 20
250.537759
 30
0.0
 40
18.351063
100
AcDbArc
 50
67.829605
 51
112.170395
  0
LINE
  5
173
100
AcDbEntity
  8
防振材
  6
CONTINUOUS
 62
     3
100
AcDbLine
 10
123.80963
 20
268.888822
 30
0.0
 11
147.15963
 21
268.888822
 31
0.0
  0
ARC
  5
174
100
AcDbEntity
  8
防振材
  6
CONTINUOUS
 62
     3
100
AcDbCircle
 10
149.403903
 20
259.67337
 30
0.0
 40
9.21869
100
AcDbArc
 50
106.522251
 51
121.518378
  0
ARC
  5
175
100
AcDbEntity
  8
防振材
  6
CONTINUOUS
 62
     3
100
AcDbCircle
 10
125.915356
 20
259.67337
 30
0.0
 40
9.21869
100
AcDbArc
 50
58.481622
 51
88.481622
  0
LINE
  5
176
100
AcDbEntity
  8
防振材
  6
CONTINUOUS
 62
     3
100
AcDbLine
 10
126.15963
 20
268.888822
 30
0.0
 11
123.80963
 21
267.532049
 31
0.0
  0
ARC
  5
177
100
AcDbEntity
  8
防振材
  6
CONTINUOUS
 62
     3
100
AcDbCircle
 10
137.65963
 20
278.739885
 30
0.0
 40
18.351063
100
AcDbArc
 50
247.829605
 51
273.214012
  0
ARC
  5
178
100
AcDbEntity
  8
防振材
  6
CONTINUOUS
 62
     3
100
AcDbCircle
 10
125.915356
 20
269.604275
 30
0.0
 40
9.21869
100
AcDbArc
 50
271.518378
 51
301.518378
  0
LINE
  5
179
100
AcDbEntity
  8
防振材
  6
CONTINUOUS
 62
     3
100
AcDbLine
 10
126.15963
 20
260.388822
 30
0.0
 11
123.80963
 21
261.745595
 31
0.0
  0
LINE
  5
17A
100
AcDbEntity
  8
防振材
  6
CONTINUOUS
 62
     3
100
AcDbLine
 10
151.50963
 20
280.532049
 30
0.0
 11
151.50963
 21
273.238822
 31
0.0
  0
LINE
  5
17B
100
AcDbEntity
  8
防振材
  6
CONTINUOUS
 62
     3
100
AcDbLine
 10
144.58463
 20
280.532049
 30
0.0
 11
144.58463
 21
268.888822
 31
0.0
  0
LINE
  5
17C
100
AcDbEntity
  8
防振材
  6
CONTINUOUS
 62
     3
100
AcDbLine
 10
130.73463
 20
280.532049
 30
0.0
 11
130.73463
 21
268.888822
 31
0.0
  0
LINE
  5
17D
100
AcDbEntity
  8
防振材
  6
CONTINUOUS
 62
     3
100
AcDbLine
 10
123.80963
 20
280.532049
 30
0.0
 11
123.80963
 21
268.888822
 31
0.0
  0
ARC
  5
17E
100
AcDbEntity
  8
防振材
  6
CONTINUOUS
 62
     3
100
AcDbCircle
 10
137.65963
 20
263.537759
 30
0.0
 40
18.351063
100
AcDbArc
 50
67.829605
 51
112.170395
  0
LINE
  5
17F
100
AcDbEntity
  8
防振材
  6
CONTINUOUS
 62
     3
100
AcDbLine
 10
126.15963
 20
281.888822
 30
0.0
 11
149.15963
 21
281.888822
 31
0.0
  0
ARC
  5
180
100
AcDbEntity
  8
防振材
  6
CONTINUOUS
 62
     3
100
AcDbCircle
 10
149.403903
 20
272.67337
 30
0.0
 40
9.21869
100
AcDbArc
 50
91.518378
 51
121.518378
  0
LINE
  5
181
100
AcDbEntity
  8
防振材
  6
CONTINUOUS
 62
     3
100
AcDbLine
 10
149.15963
 20
281.888822
 30
0.0
 11
151.50963
 21
280.532049
 31
0.0
  0
ARC
  5
182
100
AcDbEntity
  8
防振材
  6
CONTINUOUS
 62
     3
100
AcDbCircle
 10
125.915356
 20
272.67337
 30
0.0
 40
9.21869
100
AcDbArc
 50
58.481622
 51
88.481622
  0
LINE
  5
183
100
AcDbEntity
  8
防振材
  6
CONTINUOUS
 62
     3
100
AcDbLine
 10
126.15963
 20
281.888822
 30
0.0
 11
123.80963
 21
280.532049
 31
0.0
  0
LINE
  5
184
100
AcDbEntity
  8
防振材
  6
CONTINUOUS
 62
     3
100
AcDbLine
 10
406.65963
 20
210.888822
 30
0.0
 11
406.65963
 21
205.888822
 31
0.0
  0
LINE
  5
185
100
AcDbEntity
  8
防振材
  6
CONTINUOUS
 62
     3
100
AcDbLine
 10
314.15963
 20
249.388822
 30
0.0
 11
314.15963
 21
210.888822
 31
0.0
  0
LINE
  5
186
100
AcDbEntity
  8
防振材
  6
CONTINUOUS
 62
     3
100
AcDbLine
 10
358.65963
 20
284.188822
 30
0.0
 11
342.65963
 21
284.188822
 31
0.0
  0
LINE
  5
187
100
AcDbEntity
  8
防振材
  6
CONTINUOUS
 62
     3
100
AcDbLine
 10
342.65963
 20
281.888822
 30
0.0
 11
342.65963
 21
284.188822
 31
0.0
  0
LINE
  5
188
100
AcDbEntity
  8
防振材
  6
CONTINUOUS
 62
     3
100
AcDbLine
 10
356.95963
 20
285.888822
 30
0.0
 11
344.35963
 21
285.888822
 31
0.0
  0
LINE
  5
189
100
AcDbEntity
  8
防振材
  6
CONTINUOUS
 62
     3
100
AcDbLine
 10
344.35963
 20
285.888822
 30
0.0
 11
342.65963
 21
284.188822
 31
0.0
  0
LINE
  5
18A
100
AcDbEntity
  8
防振材
  6
CONTINUOUS
 62
     3
100
AcDbLine
 10
358.65963
 20
281.888822
 30
0.0
 11
358.65963
 21
284.188822
 31
0.0
  0
LINE
  5
18B
100
AcDbEntity
  8
防振材
  6
CONTINUOUS
 62
     3
100
AcDbLine
 10
356.95963
 20
285.888822
 30
0.0
 11
358.65963
 21
284.188822
 31
0.0
  0
LINE
  5
18C
100
AcDbEntity
  8
防振材
  6
CONTINUOUS
 62
     3
100
AcDbLine
 10
342.65963
 20
226.388822
 30
0.0
 11
342.65963
 21
249.388822
 31
0.0
  0
LINE
  5
18D
100
AcDbEntity
  8
防振材
  6
CONTINUOUS
 62
     3
100
AcDbLine
 10
358.65963
 20
226.388822
 30
0.0
 11
358.65963
 21
249.388822
 31
0.0
  0
LINE
  5
18E
100
AcDbEntity
  8
防振材
  6
CONTINUOUS
 62
     3
100
AcDbLine
 10
370.65963
 20
254.388822
 30
0.0
 11
370.65963
 21
249.388822
 31
0.0
  0
LINE
  5
18F
100
AcDbEntity
  8
防振材
  6
CONTINUOUS
 62
     3
100
AcDbLine
 10
370.65963
 20
254.388822
 30
0.0
 11
329.15963
 21
254.388822
 31
0.0
  0
LINE
  5
190
100
AcDbEntity
  8
防振材
  6
CONTINUOUS
 62
     3
100
AcDbLine
 10
329.15963
 20
309.388822
 30
0.0
 11
329.15963
 21
249.388822
 31
0.0
  0
LINE
  5
191
100
AcDbEntity
  8
防振材
  6
CONTINUOUS
 62
     3
100
AcDbLine
 10
370.65963
 20
260.388822
 30
0.0
 11
370.65963
 21
254.388822
 31
0.0
  0
LINE
  5
192
100
AcDbEntity
  8
防振材
  6
CONTINUOUS
 62
     3
100
AcDbLine
 10
370.65963
 20
249.388822
 30
0.0
 11
329.27963
 21
249.388822
 31
0.0
  0
LINE
  5
193
100
AcDbEntity
  8
防振材
  6
CONTINUOUS
 62
     3
100
AcDbLine
 10
364.50963
 20
225.032049
 30
0.0
 11
364.50963
 21
219.245595
 31
0.0
  0
LINE
  5
194
100
AcDbEntity
  8
防振材
  6
CONTINUOUS
 62
     3
100
AcDbLine
 10
357.58463
 20
225.032049
 30
0.0
 11
357.58463
 21
219.245595
 31
0.0
  0
LINE
  5
195
100
AcDbEntity
  8
防振材
  6
CONTINUOUS
 62
     3
100
AcDbLine
 10
343.73463
 20
225.032049
 30
0.0
 11
343.73463
 21
219.245595
 31
0.0
  0
LINE
  5
196
100
AcDbEntity
  8
防振材
  6
CONTINUOUS
 62
     3
100
AcDbLine
 10
336.80963
 20
225.032049
 30
0.0
 11
336.80963
 21
219.245595
 31
0.0
  0
ARC
  5
197
100
AcDbEntity
  8
防振材
  6
CONTINUOUS
 62
     3
100
AcDbCircle
 10
350.65963
 20
208.037759
 30
0.0
 40
18.351063
100
AcDbArc
 50
67.829605
 51
112.170395
  0
LINE
  5
198
100
AcDbEntity
  8
防振材
  6
CONTINUOUS
 62
     3
100
AcDbLine
 10
362.15963
 20
226.388822
 30
0.0
 11
339.15963
 21
226.388822
 31
0.0
  0
ARC
  5
199
100
AcDbEntity
  8
防振材
  6
CONTINUOUS
 62
     3
100
AcDbCircle
 10
338.915356
 20
217.17337
 30
0.0
 40
9.21869
100
AcDbArc
 50
58.481622
 51
88.481622
  0
LINE
  5
19A
100
AcDbEntity
  8
防振材
  6
CONTINUOUS
 62
     3
100
AcDbLine
 10
339.15963
 20
226.388822
 30
0.0
 11
336.80963
 21
225.032049
 31
0.0
  0
ARC
  5
19B
100
AcDbEntity
  8
防振材
  6
CONTINUOUS
 62
     3
100
AcDbCircle
 10
362.403903
 20
217.17337
 30
0.0
 40
9.21869
100
AcDbArc
 50
91.518378
 51
121.518378
  0
LINE
  5
19C
100
AcDbEntity
  8
防振材
  6
CONTINUOUS
 62
     3
100
AcDbLine
 10
362.15963
 20
226.388822
 30
0.0
 11
364.50963
 21
225.032049
 31
0.0
  0
LINE
  5
19D
100
AcDbEntity
  8
防振材
  6
CONTINUOUS
 62
     3
100
AcDbLine
 10
362.15963
 20
217.888822
 30
0.0
 11
339.15963
 21
217.888822
 31
0.0
  0
LINE
  5
19E
100
AcDbEntity
  8
防振材
  6
CONTINUOUS
 62
     3
100
AcDbLine
 10
339.15963
 20
217.888822
 30
0.0
 11
336.80963
 21
219.245595
 31
0.0
  0
ARC
  5
19F
100
AcDbEntity
  8
防振材
  6
CONTINUOUS
 62
     3
100
AcDbCircle
 10
338.915356
 20
227.104275
 30
0.0
 40
9.21869
100
AcDbArc
 50
271.518378
 51
301.518378
  0
ARC
  5
1A0
100
AcDbEntity
  8
防振材
  6
CONTINUOUS
 62
     3
100
AcDbCircle
 10
350.65963
 20
236.239885
 30
0.0
 40
18.351063
100
AcDbArc
 50
247.829605
 51
292.170395
  0
ARC
  5
1A1
100
AcDbEntity
  8
防振材
  6
CONTINUOUS
 62
     3
100
AcDbCircle
 10
362.403903
 20
227.104275
 30
0.0
 40
9.21869
100
AcDbArc
 50
238.481622
 51
268.481622
  0
LINE
  5
1A2
100
AcDbEntity
  8
防振材
  6
CONTINUOUS
 62
     3
100
AcDbLine
 10
362.15963
 20
217.888822
 30
0.0
 11
364.50963
 21
219.245595
 31
0.0
  0
LINE
  5
1A3
100
AcDbEntity
  8
防振材
  6
CONTINUOUS
 62
     3
100
AcDbLine
 10
362.90963
 20
217.888822
 30
0.0
 11
338.40963
 21
217.888822
 31
0.0
  0
LINE
  5
1A4
100
AcDbEntity
  8
防振材
  6
CONTINUOUS
 62
     3
100
AcDbLine
 10
338.40963
 20
217.888822
 30
0.0
 11
338.40963
 21
212.388822
 31
0.0
  0
ARC
  5
1A5
100
AcDbEntity
  8
防振材
  6
CONTINUOUS
 62
     3
100
AcDbCircle
 10
336.90963
 20
212.388822
 30
0.0
 40
1.5
100
AcDbArc
 50
270.0
 51
0.0
  0
LINE
  5
1A6
100
AcDbEntity
  8
防振材
  6
CONTINUOUS
 62
     3
100
AcDbLine
 10
362.90963
 20
217.888822
 30
0.0
 11
362.90963
 21
212.388822
 31
0.0
  0
ARC
  5
1A7
100
AcDbEntity
  8
防振材
  6
CONTINUOUS
 62
     3
100
AcDbCircle
 10
364.40963
 20
212.388822
 30
0.0
 40
1.5
100
AcDbArc
 50
180.0
 51
270.0
  0
LINE
  5
1A8
100
AcDbEntity
  8
防振材
  6
CONTINUOUS
 62
     3
100
AcDbLine
 10
343.73463
 20
267.532049
 30
0.0
 11
343.73463
 21
266.313822
 31
0.0
  0
LINE
  5
1A9
100
AcDbEntity
  8
防振材
  6
CONTINUOUS
 62
     3
100
AcDbLine
 10
357.58463
 20
267.532049
 30
0.0
 11
357.58463
 21
261.745595
 31
0.0
  0
LINE
  5
1AA
100
AcDbEntity
  8
防振材
  6
CONTINUOUS
 62
     3
100
AcDbLine
 10
364.50963
 20
267.532049
 30
0.0
 11
364.50963
 21
261.745595
 31
0.0
  0
ARC
  5
1AB
100
AcDbEntity
  8
防振材
  6
CONTINUOUS
 62
     3
100
AcDbCircle
 10
350.65963
 20
250.537759
 30
0.0
 40
18.351063
100
AcDbArc
 50
67.829605
 51
112.170395
  0
LINE
  5
1AC
100
AcDbEntity
  8
防振材
  6
CONTINUOUS
 62
     3
100
AcDbLine
 10
364.50963
 20
268.888822
 30
0.0
 11
341.15963
 21
268.888822
 31
0.0
  0
ARC
  5
1AD
100
AcDbEntity
  8
防振材
  6
CONTINUOUS
 62
     3
100
AcDbCircle
 10
338.915356
 20
259.67337
 30
0.0
 40
9.21869
100
AcDbArc
 50
58.481622
 51
73.477749
  0
ARC
  5
1AE
100
AcDbEntity
  8
防振材
  6
CONTINUOUS
 62
     3
100
AcDbCircle
 10
362.403903
 20
259.67337
 30
0.0
 40
9.21869
100
AcDbArc
 50
91.518378
 51
121.518378
  0
LINE
  5
1AF
100
AcDbEntity
  8
防振材
  6
CONTINUOUS
 62
     3
100
AcDbLine
 10
362.15963
 20
268.888822
 30
0.0
 11
364.50963
 21
267.532049
 31
0.0
  0
ARC
  5
1B0
100
AcDbEntity
  8
防振材
  6
CONTINUOUS
 62
     3
100
AcDbCircle
 10
350.65963
 20
278.739885
 30
0.0
 40
18.351063
100
AcDbArc
 50
266.785988
 51
292.170395
  0
ARC
  5
1B1
100
AcDbEntity
  8
防振材
  6
CONTINUOUS
 62
     3
100
AcDbCircle
 10
362.403903
 20
269.604275
 30
0.0
 40
9.21869
100
AcDbArc
 50
238.481622
 51
268.481622
  0
LINE
  5
1B2
100
AcDbEntity
  8
防振材
  6
CONTINUOUS
 62
     3
100
AcDbLine
 10
362.15963
 20
260.388822
 30
0.0
 11
364.50963
 21
261.745595
 31
0.0
  0
LINE
  5
1B3
100
AcDbEntity
  8
防振材
  6
CONTINUOUS
 62
     3
100
AcDbLine
 10
336.80963
 20
280.532049
 30
0.0
 11
336.80963
 21
273.238822
 31
0.0
  0
LINE
  5
1B4
100
AcDbEntity
  8
防振材
  6
CONTINUOUS
 62
     3
100
AcDbLine
 10
343.73463
 20
280.532049
 30
0.0
 11
343.73463
 21
268.888822
 31
0.0
  0
LINE
  5
1B5
100
AcDbEntity
  8
防振材
  6
CONTINUOUS
 62
     3
100
AcDbLine
 10
357.58463
 20
280.532049
 30
0.0
 11
357.58463
 21
268.888822
 31
0.0
  0
LINE
  5
1B6
100
AcDbEntity
  8
防振材
  6
CONTINUOUS
 62
     3
100
AcDbLine
 10
364.50963
 20
280.532049
 30
0.0
 11
364.50963
 21
268.888822
 31
0.0
  0
ARC
  5
1B7
100
AcDbEntity
  8
防振材
  6
CONTINUOUS
 62
     3
100
AcDbCircle
 10
350.65963
 20
263.537759
 30
0.0
 40
18.351063
100
AcDbArc
 50
67.829605
 51
112.170395
  0
LINE
  5
1B8
100
AcDbEntity
  8
防振材
  6
CONTINUOUS
 62
     3
100
AcDbLine
 10
362.15963
 20
281.888822
 30
0.0
 11
339.15963
 21
281.888822
 31
0.0
  0
ARC
  5
1B9
100
AcDbEntity
  8
防振材
  6
CONTINUOUS
 62
     3
100
AcDbCircle
 10
338.915356
 20
272.67337
 30
0.0
 40
9.21869
100
AcDbArc
 50
58.481622
 51
88.481622
  0
LINE
  5
1BA
100
AcDbEntity
  8
防振材
  6
CONTINUOUS
 62
     3
100
AcDbLine
 10
339.15963
 20
281.888822
 30
0.0
 11
336.80963
 21
280.532049
 31
0.0
  0
ARC
  5
1BB
100
AcDbEntity
  8
防振材
  6
CONTINUOUS
 62
     3
100
AcDbCircle
 10
362.403903
 20
272.67337
 30
0.0
 40
9.21869
100
AcDbArc
 50
91.518378
 51
121.518378
  0
LINE
  5
1BC
100
AcDbEntity
  8
防振材
  6
CONTINUOUS
 62
     3
100
AcDbLine
 10
362.15963
 20
281.888822
 30
0.0
 11
364.50963
 21
280.532049
 31
0.0
  0
LINE
  5
1BD
100
AcDbEntity
  8
防振材
  6
CONTINUOUS
 62
     3
100
AcDbLine
 10
244.15963
 20
309.388822
 30
0.0
 11
329.15963
 21
309.388822
 31
0.0
  0
LINE
  5
1BE
100
AcDbEntity
  8
防振材
  6
CONTINUOUS
 62
     3
100
AcDbLine
 10
159.15963
 20
249.388822
 30
0.0
 11
329.27963
 21
249.388822
 31
0.0
  0
LINE
  5
1BF
100
AcDbEntity
  8
防振材
  6
CONTINUOUS
 62
     3
100
AcDbLine
 10
81.65963
 20
210.888822
 30
0.0
 11
406.65963
 21
210.888822
 31
0.0
  0
ARC
  5
1C0
100
AcDbEntity
  8
図形・寸法
  6
CONTINUOUS
 62
     3
100
AcDbCircle
 10
389.15963
 20
467.392822
 30
0.0
 40
10.0
100
AcDbArc
 50
180.0
 51
0.0
  0
ARC
  5
1C1
100
AcDbEntity
  8
図形・寸法
  6
CONTINUOUS
 62
     3
100
AcDbCircle
 10
389.15963
 20
477.392822
 30
0.0
 40
10.0
100
AcDbArc
 50
0.0
 51
180.0
  0
LINE
  5
1C2
100
AcDbEntity
  8
図形・寸法
  6
CONTINUOUS
 62
     3
100
AcDbLine
 10
379.15963
 20
477.392822
 30
0.0
 11
379.15963
 21
467.392822
 31
0.0
  0
LINE
  5
1C3
100
AcDbEntity
  8
図形・寸法
  6
CONTINUOUS
 62
     3
100
AcDbLine
 10
399.15963
 20
477.392822
 30
0.0
 11
399.15963
 21
467.392822
 31
0.0
  0
LINE
  5
1C4
100
AcDbEntity
  8
図形・寸法
  6
EXLTYPE2
 62
     1
100
AcDbLine
 10
400.436236
 20
502.392822
 30
0.0
 11
377.036236
 21
502.392822
 31
0.0
  0
LINE
  5
1C5
100
AcDbEntity
  8
図形・寸法
  6
EXLTYPE2
 62
     1
100
AcDbLine
 10
400.236236
 20
442.392822
 30
0.0
 11
377.036236
 21
442.392822
 31
0.0
  0
LINE
  5
1C6
100
AcDbEntity
  8
図形・寸法
  6
EXLTYPE2
 62
     1
100
AcDbLine
 10
389.15963
 20
517.868448
 30
0.0
 11
389.15963
 21
426.068448
 31
0.0
  0
ARC
  5
1C7
100
AcDbEntity
  8
図形・寸法
  6
CONTINUOUS
 62
     3
100
AcDbCircle
 10
99.15963
 20
467.392822
 30
0.0
 40
10.0
100
AcDbArc
 50
180.0
 51
0.0
  0
ARC
  5
1C8
100
AcDbEntity
  8
図形・寸法
  6
CONTINUOUS
 62
     3
100
AcDbCircle
 10
99.15963
 20
477.392822
 30
0.0
 40
10.0
100
AcDbArc
 50
0.0
 51
180.0
  0
LINE
  5
1C9
100
AcDbEntity
  8
図形・寸法
  6
CONTINUOUS
 62
     3
100
AcDbLine
 10
109.15963
 20
477.392822
 30
0.0
 11
109.15963
 21
467.392822
 31
0.0
  0
LINE
  5
1CA
100
AcDbEntity
  8
図形・寸法
  6
CONTINUOUS
 62
     3
100
AcDbLine
 10
89.15963
 20
477.392822
 30
0.0
 11
89.15963
 21
467.392822
 31
0.0
  0
LINE
  5
1CB
100
AcDbEntity
  8
図形・寸法
  6
EXLTYPE2
 62
     1
100
AcDbLine
 10
88.136236
 20
442.392822
 30
0.0
 11
116.036236
 21
442.392822
 31
0.0
  0
LINE
  5
1CC
100
AcDbEntity
  8
図形・寸法
  6
EXLTYPE2
 62
     1
100
AcDbLine
 10
88.136236
 20
502.392822
 30
0.0
 11
116.036236
 21
502.392822
 31
0.0
  0
LINE
  5
1CD
100
AcDbEntity
  8
図形・寸法
  6
EXLTYPE2
 62
     1
100
AcDbLine
 10
99.15963
 20
517.868448
 30
0.0
 11
99.15963
 21
426.068448
 31
0.0
  0
CIRCLE
  5
1CE
100
AcDbEntity
  8
図形・寸法
  6
CONTINUOUS
 62
     3
100
AcDbCircle
 10
244.15963
 20
472.392822
 30
0.0
 40
6.996967
  0
CIRCLE
  5
1CF
100
AcDbEntity
  8
図形・寸法
  6
CONTINUOUS
 62
     1
100
AcDbCircle
 10
244.15963
 20
472.392822
 30
0.0
 40
7.9998
  0
POLYLINE
  5
1D0
100
AcDbEntity
  8
図形・寸法
  6
CONTINUOUS
 62
     3
100
AcDb2dPolyline
 66
     1
 10
0.0
 20
0.0
 30
0.0
 70
   128
  0
VERTEX
  5
1D1
100
AcDbEntity
  8
図形・寸法
  6
CONTINUOUS
 62
     3
100
AcDbVertex
100
AcDb2dVertex
 10
336.80963
 20
472.392822
 30
0.0
  0
VERTEX
  5
1D2
100
AcDbEntity
  8
図形・寸法
  6
CONTINUOUS
 62
     3
100
AcDbVertex
100
AcDb2dVertex
 10
343.73463
 20
483.892822
 30
0.0
  0
VERTEX
  5
1D3
100
AcDbEntity
  8
図形・寸法
  6
CONTINUOUS
 62
     3
100
AcDbVertex
100
AcDb2dVertex
 10
357.58463
 20
483.892822
 30
0.0
  0
VERTEX
  5
1D4
100
AcDbEntity
  8
図形・寸法
  6
CONTINUOUS
 62
     3
100
AcDbVertex
100
AcDb2dVertex
 10
364.50963
 20
472.392822
 30
0.0
  0
VERTEX
  5
1D5
100
AcDbEntity
  8
図形・寸法
  6
CONTINUOUS
 62
     3
100
AcDbVertex
100
AcDb2dVertex
 10
357.58463
 20
460.892822
 30
0.0
  0
VERTEX
  5
1D6
100
AcDbEntity
  8
図形・寸法
  6
CONTINUOUS
 62
     3
100
AcDbVertex
100
AcDb2dVertex
 10
343.73463
 20
460.892822
 30
0.0
  0
VERTEX
  5
1D7
100
AcDbEntity
  8
図形・寸法
  6
CONTINUOUS
 62
     3
100
AcDbVertex
100
AcDb2dVertex
 10
336.80963
 20
472.392822
 30
0.0
  0
SEQEND
  5
1D8
100
AcDbEntity
  8
図形・寸法
  6
CONTINUOUS
 62
     3
  0
CIRCLE
  5
1D9
100
AcDbEntity
  8
図形・寸法
  6
CONTINUOUS
 62
     3
100
AcDbCircle
 10
350.65963
 20
472.392822
 30
0.0
 40
11.5
  0
CIRCLE
  5
1DA
100
AcDbEntity
  8
図形・寸法
  6
CONTINUOUS
 62
     1
100
AcDbCircle
 10
350.65963
 20
472.392822
 30
0.0
 40
7.043437
  0
CIRCLE
  5
1DB
100
AcDbEntity
  8
図形・寸法
  6
CONTINUOUS
 62
     3
100
AcDbCircle
 10
350.65963
 20
472.392822
 30
0.0
 40
8.0
  0
CIRCLE
  5
1DC
100
AcDbEntity
  8
図形・寸法
  6
CONTINUOUS
 62
     3
100
AcDbCircle
 10
350.65963
 20
472.392822
 30
0.0
 40
20.0
  0
POLYLINE
  5
1DD
100
AcDbEntity
  8
図形・寸法
  6
CONTINUOUS
 62
     3
100
AcDb2dPolyline
 66
     1
 10
0.0
 20
0.0
 30
0.0
 70
   128
  0
VERTEX
  5
1DE
100
AcDbEntity
  8
図形・寸法
  6
CONTINUOUS
 62
     3
100
AcDbVertex
100
AcDb2dVertex
 10
151.50963
 20
472.392822
 30
0.0
  0
VERTEX
  5
1DF
100
AcDbEntity
  8
図形・寸法
  6
CONTINUOUS
 62
     3
100
AcDbVertex
100
AcDb2dVertex
 10
144.58463
 20
483.892822
 30
0.0
  0
VERTEX
  5
1E0
100
AcDbEntity
  8
図形・寸法
  6
CONTINUOUS
 62
     3
100
AcDbVertex
100
AcDb2dVertex
 10
130.73463
 20
483.892822
 30
0.0
  0
VERTEX
  5
1E1
100
AcDbEntity
  8
図形・寸法
  6
CONTINUOUS
 62
     3
100
AcDbVertex
100
AcDb2dVertex
 10
123.80963
 20
472.392822
 30
0.0
  0
VERTEX
  5
1E2
100
AcDbEntity
  8
図形・寸法
  6
CONTINUOUS
 62
     3
100
AcDbVertex
100
AcDb2dVertex
 10
130.73463
 20
460.892822
 30
0.0
  0
VERTEX
  5
1E3
100
AcDbEntity
  8
図形・寸法
  6
CONTINUOUS
 62
     3
100
AcDbVertex
100
AcDb2dVertex
 10
144.58463
 20
460.892822
 30
0.0
  0
VERTEX
  5
1E4
100
AcDbEntity
  8
図形・寸法
  6
CONTINUOUS
 62
     3
100
AcDbVertex
100
AcDb2dVertex
 10
151.50963
 20
472.392822
 30
0.0
  0
SEQEND
  5
1E5
100
AcDbEntity
  8
図形・寸法
  6
CONTINUOUS
 62
     3
  0
CIRCLE
  5
1E6
100
AcDbEntity
  8
図形・寸法
  6
CONTINUOUS
 62
     3
100
AcDbCircle
 10
137.65963
 20
472.392822
 30
0.0
 40
11.5
  0
CIRCLE
  5
1E7
100
AcDbEntity
  8
図形・寸法
  6
CONTINUOUS
 62
     1
100
AcDbCircle
 10
137.65963
 20
472.392822
 30
0.0
 40
7.043437
  0
CIRCLE
  5
1E8
100
AcDbEntity
  8
図形・寸法
  6
CONTINUOUS
 62
     3
100
AcDbCircle
 10
137.65963
 20
472.392822
 30
0.0
 40
8.0
  0
LINE
  5
1E9
100
AcDbEntity
  8
図形・寸法
  6
EXLTYPE2
 62
     1
100
AcDbLine
 10
281.65963
 20
485.892822
 30
0.0
 11
281.65963
 21
459.592822
 31
0.0
  0
LINE
  5
1EA
100
AcDbEntity
  8
図形・寸法
  6
EXLTYPE2
 62
     1
100
AcDbLine
 10
281.65963
 20
485.892822
 30
0.0
 11
281.65963
 21
459.592822
 31
0.0
  0
CIRCLE
  5
1EB
100
AcDbEntity
  8
図形・寸法
  6
CONTINUOUS
 62
     3
100
AcDbCircle
 10
281.65963
 20
472.392822
 30
0.0
 40
5.247857
  0
CIRCLE
  5
1EC
100
AcDbEntity
  8
図形・寸法
  6
CONTINUOUS
 62
     1
100
AcDbCircle
 10
281.65963
 20
472.392822
 30
0.0
 40
6.0
  0
LINE
  5
1ED
100
AcDbEntity
  8
図形・寸法
  6
EXLTYPE2
 62
     1
100
AcDbLine
 10
206.65963
 20
485.892822
 30
0.0
 11
206.65963
 21
459.592822
 31
0.0
  0
CIRCLE
  5
1EE
100
AcDbEntity
  8
図形・寸法
  6
CONTINUOUS
 62
     3
100
AcDbCircle
 10
206.65963
 20
472.392822
 30
0.0
 40
5.247857
  0
CIRCLE
  5
1EF
100
AcDbEntity
  8
図形・寸法
  6
CONTINUOUS
 62
     1
100
AcDbCircle
 10
206.65963
 20
472.392822
 30
0.0
 40
6.0
  0
CIRCLE
  5
1F0
100
AcDbEntity
  8
図形・寸法
  6
CONTINUOUS
 62
     3
100
AcDbCircle
 10
244.15963
 20
442.392822
 30
0.0
 40
5.247857
  0
CIRCLE
  5
1F1
100
AcDbEntity
  8
図形・寸法
  6
CONTINUOUS
 62
     1
100
AcDbCircle
 10
244.15963
 20
442.392822
 30
0.0
 40
6.0
  0
CIRCLE
  5
1F2
100
AcDbEntity
  8
図形・寸法
  6
CONTINUOUS
 62
     3
100
AcDbCircle
 10
244.15963
 20
502.392822
 30
0.0
 40
5.247857
  0
CIRCLE
  5
1F3
100
AcDbEntity
  8
図形・寸法
  6
CONTINUOUS
 62
     1
100
AcDbCircle
 10
244.15963
 20
502.392822
 30
0.0
 40
6.0
  0
LINE
  5
1F4
100
AcDbEntity
  8
図形・寸法
  6
EXLTYPE2
 62
     1
100
AcDbLine
 10
233.49776
 20
442.392822
 30
0.0
 11
255.59776
 21
442.392822
 31
0.0
  0
LINE
  5
1F5
100
AcDbEntity
  8
図形・寸法
  6
EXLTYPE2
 62
     1
100
AcDbLine
 10
233.49776
 20
502.392822
 30
0.0
 11
255.59776
 21
502.392822
 31
0.0
  0
LINE
  5
1F6
100
AcDbEntity
  8
図形・寸法
  6
CONTINUOUS
 62
     3
100
AcDbLine
 10
132.65963
 20
436.392822
 30
0.0
 11
159.15963
 21
436.392822
 31
0.0
  0
LINE
  5
1F7
100
AcDbEntity
  8
図形・寸法
  6
CONTINUOUS
 62
     3
100
AcDbLine
 10
132.65963
 20
440.392822
 30
0.0
 11
159.15963
 21
440.392822
 31
0.0
  0
LINE
  5
1F8
100
AcDbEntity
  8
図形・寸法
  6
CONTINUOUS
 62
     3
100
AcDbLine
 10
132.65963
 20
440.392822
 30
0.0
 11
132.65963
 21
436.392822
 31
0.0
  0
LINE
  5
1F9
100
AcDbEntity
  8
図形・寸法
  6
EXLTYPE2
 62
     1
100
AcDbLine
 10
137.65963
 20
499.164619
 30
0.0
 11
137.65963
 21
446.464619
 31
0.0
  0
LINE
  5
1FA
100
AcDbEntity
  8
図形・寸法
  6
CONTINUOUS
 62
     3
100
AcDbLine
 10
132.65963
 20
508.392822
 30
0.0
 11
159.15963
 21
508.392822
 31
0.0
  0
LINE
  5
1FB
100
AcDbEntity
  8
図形・寸法
  6
CONTINUOUS
 62
     3
100
AcDbLine
 10
132.65963
 20
504.392822
 30
0.0
 11
159.15963
 21
504.392822
 31
0.0
  0
LINE
  5
1FC
100
AcDbEntity
  8
図形・寸法
  6
CONTINUOUS
 62
     3
100
AcDbLine
 10
132.65963
 20
504.392822
 30
0.0
 11
132.65963
 21
508.392822
 31
0.0
  0
LINE
  5
1FD
100
AcDbEntity
  8
図形・寸法
  6
EXLTYPE2
 62
     1
100
AcDbLine
 10
350.65963
 20
499.164619
 30
0.0
 11
350.65963
 21
446.464619
 31
0.0
  0
LINE
  5
1FE
100
AcDbEntity
  8
図形・寸法
  6
CONTINUOUS
 62
     3
100
AcDbLine
 10
355.65963
 20
436.392822
 30
0.0
 11
329.15963
 21
436.392822
 31
0.0
  0
LINE
  5
1FF
100
AcDbEntity
  8
図形・寸法
  6
CONTINUOUS
 62
     3
100
AcDbLine
 10
355.65963
 20
440.392822
 30
0.0
 11
329.15963
 21
440.392822
 31
0.0
  0
LINE
  5
200
100
AcDbEntity
  8
図形・寸法
  6
CONTINUOUS
 62
     3
100
AcDbLine
 10
355.65963
 20
440.392822
 30
0.0
 11
355.65963
 21
436.392822
 31
0.0
  0
LINE
  5
201
100
AcDbEntity
  8
図形・寸法
  6
CONTINUOUS
 62
     3
100
AcDbLine
 10
355.65963
 20
508.392822
 30
0.0
 11
329.15963
 21
508.392822
 31
0.0
  0
LINE
  5
202
100
AcDbEntity
  8
図形・寸法
  6
CONTINUOUS
 62
     3
100
AcDbLine
 10
355.65963
 20
504.392822
 30
0.0
 11
329.15963
 21
504.392822
 31
0.0
  0
LINE
  5
203
100
AcDbEntity
  8
図形・寸法
  6
CONTINUOUS
 62
     3
100
AcDbLine
 10
355.65963
 20
504.392822
 30
0.0
 11
355.65963
 21
508.392822
 31
0.0
  0
CIRCLE
  5
204
100
AcDbEntity
  8
図形・寸法
  6
CONTINUOUS
 62
     3
100
AcDbCircle
 10
184.15963
 20
442.392822
 30
0.0
 40
5.247857
  0
CIRCLE
  5
205
100
AcDbEntity
  8
図形・寸法
  6
CONTINUOUS
 62
     1
100
AcDbCircle
 10
184.15963
 20
442.392822
 30
0.0
 40
6.0
  0
LINE
  5
206
100
AcDbEntity
  8
図形・寸法
  6
EXLTYPE2
 62
     1
100
AcDbLine
 10
184.15963
 20
453.364619
 30
0.0
 11
184.15963
 21
430.064619
 31
0.0
  0
LINE
  5
207
100
AcDbEntity
  8
図形・寸法
  6
EXLTYPE2
 62
     1
100
AcDbLine
 10
171.79776
 20
442.392822
 30
0.0
 11
196.89776
 21
442.392822
 31
0.0
  0
CIRCLE
  5
208
100
AcDbEntity
  8
図形・寸法
  6
CONTINUOUS
 62
     3
100
AcDbCircle
 10
184.15963
 20
502.392822
 30
0.0
 40
5.247857
  0
CIRCLE
  5
209
100
AcDbEntity
  8
図形・寸法
  6
CONTINUOUS
 62
     1
100
AcDbCircle
 10
184.15963
 20
502.392822
 30
0.0
 40
6.0
  0
LINE
  5
20A
100
AcDbEntity
  8
図形・寸法
  6
EXLTYPE2
 62
     1
100
AcDbLine
 10
171.79776
 20
502.392822
 30
0.0
 11
196.89776
 21
502.392822
 31
0.0
  0
LINE
  5
20B
100
AcDbEntity
  8
図形・寸法
  6
EXLTYPE2
 62
     1
100
AcDbLine
 10
184.15963
 20
491.421026
 30
0.0
 11
184.15963
 21
514.721026
 31
0.0
  0
LINE
  5
20C
100
AcDbEntity
  8
図形・寸法
  6
EXLTYPE2
 62
     1
100
AcDbLine
 10
316.521499
 20
502.392822
 30
0.0
 11
291.421499
 21
502.392822
 31
0.0
  0
LINE
  5
20D
100
AcDbEntity
  8
図形・寸法
  6
EXLTYPE2
 62
     1
100
AcDbLine
 10
304.15963
 20
491.421026
 30
0.0
 11
304.15963
 21
514.721026
 31
0.0
  0
CIRCLE
  5
20E
100
AcDbEntity
  8
図形・寸法
  6
CONTINUOUS
 62
     3
100
AcDbCircle
 10
304.15963
 20
502.392822
 30
0.0
 40
5.247857
  0
CIRCLE
  5
20F
100
AcDbEntity
  8
図形・寸法
  6
CONTINUOUS
 62
     1
100
AcDbCircle
 10
304.15963
 20
502.392822
 30
0.0
 40
6.0
  0
LINE
  5
210
100
AcDbEntity
  8
図形・寸法
  6
EXLTYPE2
 62
     1
100
AcDbLine
 10
304.15963
 20
453.364619
 30
0.0
 11
304.15963
 21
430.064619
 31
0.0
  0
LINE
  5
211
100
AcDbEntity
  8
図形・寸法
  6
EXLTYPE2
 62
     1
100
AcDbLine
 10
316.521499
 20
442.392822
 30
0.0
 11
291.421499
 21
442.392822
 31
0.0
  0
CIRCLE
  5
212
100
AcDbEntity
  8
図形・寸法
  6
CONTINUOUS
 62
     3
100
AcDbCircle
 10
304.15963
 20
442.392822
 30
0.0
 40
5.247857
  0
CIRCLE
  5
213
100
AcDbEntity
  8
図形・寸法
  6
CONTINUOUS
 62
     1
100
AcDbCircle
 10
304.15963
 20
442.392822
 30
0.0
 40
6.0
  0
LINE
  5
214
100
AcDbEntity
  8
図形・寸法
  6
EXLTYPE2
 62
     1
100
AcDbLine
 10
137.65963
 20
289.864448
 30
0.0
 11
137.65963
 21
200.464448
 31
0.0
  0
LINE
  5
215
100
AcDbEntity
  8
図形・寸法
  6
CONTINUOUS
 62
     1
100
AcDbLine
 10
131.35963
 20
285.888822
 30
0.0
 11
131.35963
 21
281.888822
 31
0.0
  0
LINE
  5
216
100
AcDbEntity
  8
図形・寸法
  6
CONTINUOUS
 62
     1
100
AcDbLine
 10
143.95963
 20
285.888822
 30
0.0
 11
143.95963
 21
281.888822
 31
0.0
  0
LINE
  5
217
100
AcDbEntity
  8
図形・寸法
  6
CONTINUOUS
 62
     1
100
AcDbLine
 10
143.95963
 20
249.388822
 30
0.0
 11
143.95963
 21
226.388822
 31
0.0
  0
LINE
  5
218
100
AcDbEntity
  8
図形・寸法
  6
CONTINUOUS
 62
     1
100
AcDbLine
 10
131.35963
 20
249.388822
 30
0.0
 11
131.35963
 21
226.388822
 31
0.0
  0
LINE
  5
219
100
AcDbEntity
  8
図形・寸法
  6
EXLTYPE1
 62
     1
100
AcDbLine
 10
91.15963
 20
210.888822
 30
0.0
 11
91.15963
 21
205.888822
 31
0.0
  0
LINE
  5
21A
100
AcDbEntity
  8
図形・寸法
  6
EXLTYPE1
 62
     1
100
AcDbLine
 10
107.15963
 20
210.888822
 30
0.0
 11
107.15963
 21
205.888822
 31
0.0
  0
LINE
  5
21B
100
AcDbEntity
  8
図形・寸法
  6
CONTINUOUS
 62
     3
100
AcDbLine
 10
132.65963
 20
254.388822
 30
0.0
 11
159.15963
 21
280.888822
 31
0.0
  0
LINE
  5
21C
100
AcDbEntity
  8
図形・寸法
  6
CONTINUOUS
 62
     3
100
AcDbLine
 10
153.872833
 20
254.388822
 30
0.0
 11
159.15963
 21
259.675619
 31
0.0
  0
LINE
  5
21D
100
AcDbEntity
  8
図形・寸法
  6
CONTINUOUS
 62
     3
100
AcDbLine
 10
117.65963
 20
260.388822
 30
0.0
 11
138.65963
 21
260.388822
 31
0.0
  0
LINE
  5
21E
100
AcDbEntity
  8
図形・寸法
  6
CONTINUOUS
 62
     3
100
AcDbLine
 10
157.65963
 20
257.860619
 30
0.0
 11
157.65963
 21
254.411597
 31
0.0
  0
ARC
  5
21F
100
AcDbEntity
  8
図形・寸法
  6
CONTINUOUS
 62
     1
100
AcDbCircle
 10
223.613535
 20
279.888822
 30
0.0
 40
3.5
100
AcDbArc
 50
90.0
 51
180.0
  0
ARC
  5
220
100
AcDbEntity
  8
図形・寸法
  6
CONTINUOUS
 62
     1
100
AcDbCircle
 10
223.613535
 20
279.888822
 30
0.0
 40
4.5
100
AcDbArc
 50
90.0
 51
180.0
  0
LINE
  5
221
100
AcDbEntity
  8
図形・寸法
  6
CONTINUOUS
 62
     1
100
AcDbLine
 10
224.108781
 20
273.588822
 30
0.0
 11
224.108781
 21
266.388822
 31
0.0
  0
ARC
  5
222
100
AcDbEntity
  8
図形・寸法
  6
CONTINUOUS
 62
     1
100
AcDbCircle
 10
223.613535
 20
263.888822
 30
0.0
 40
4.5
100
AcDbArc
 50
180.0
 51
270.0
  0
ARC
  5
223
100
AcDbEntity
  8
図形・寸法
  6
CONTINUOUS
 62
     1
100
AcDbCircle
 10
223.613535
 20
263.888822
 30
0.0
 40
3.5
100
AcDbArc
 50
180.0
 51
270.0
  0
LINE
  5
224
100
AcDbEntity
  8
図形・寸法
  6
CONTINUOUS
 62
     1
100
AcDbLine
 10
220.113535
 20
279.888822
 30
0.0
 11
220.113535
 21
263.888822
 31
0.0
  0
LINE
  5
225
100
AcDbEntity
  8
図形・寸法
  6
CONTINUOUS
 62
     1
100
AcDbLine
 10
219.113535
 20
279.888822
 30
0.0
 11
219.113535
 21
263.888822
 31
0.0
  0
LINE
  5
226
100
AcDbEntity
  8
図形・寸法
  6
EXLTYPE2
 62
     1
100
AcDbLine
 10
350.65963
 20
289.864448
 30
0.0
 11
350.65963
 21
200.464448
 31
0.0
  0
LINE
  5
227
100
AcDbEntity
  8
図形・寸法
  6
CONTINUOUS
 62
     1
100
AcDbLine
 10
356.95963
 20
285.888822
 30
0.0
 11
356.95963
 21
281.888822
 31
0.0
  0
LINE
  5
228
100
AcDbEntity
  8
図形・寸法
  6
CONTINUOUS
 62
     1
100
AcDbLine
 10
344.35963
 20
285.888822
 30
0.0
 11
344.35963
 21
281.888822
 31
0.0
  0
LINE
  5
229
100
AcDbEntity
  8
図形・寸法
  6
CONTINUOUS
 62
     1
100
AcDbLine
 10
344.35963
 20
249.388822
 30
0.0
 11
344.35963
 21
226.388822
 31
0.0
  0
LINE
  5
22A
100
AcDbEntity
  8
図形・寸法
  6
CONTINUOUS
 62
     1
100
AcDbLine
 10
356.95963
 20
249.388822
 30
0.0
 11
356.95963
 21
226.388822
 31
0.0
  0
LINE
  5
22B
100
AcDbEntity
  8
図形・寸法
  6
EXLTYPE1
 62
     1
100
AcDbLine
 10
397.15963
 20
210.888822
 30
0.0
 11
397.15963
 21
205.888822
 31
0.0
  0
LINE
  5
22C
100
AcDbEntity
  8
図形・寸法
  6
EXLTYPE1
 62
     1
100
AcDbLine
 10
381.15963
 20
210.888822
 30
0.0
 11
381.15963
 21
205.888822
 31
0.0
  0
LINE
  5
22D
100
AcDbEntity
  8
図形・寸法
  6
CONTINUOUS
 62
     3
100
AcDbLine
 10
355.65963
 20
254.388822
 30
0.0
 11
329.15963
 21
280.888822
 31
0.0
  0
LINE
  5
22E
100
AcDbEntity
  8
図形・寸法
  6
CONTINUOUS
 62
     3
100
AcDbLine
 10
334.446426
 20
254.388822
 30
0.0
 11
329.15963
 21
259.675619
 31
0.0
  0
LINE
  5
22F
100
AcDbEntity
  8
図形・寸法
  6
CONTINUOUS
 62
     3
100
AcDbLine
 10
370.65963
 20
260.388822
 30
0.0
 11
349.65963
 21
260.388822
 31
0.0
  0
LINE
  5
230
100
AcDbEntity
  8
図形・寸法
  6
CONTINUOUS
 62
     3
100
AcDbLine
 10
330.65963
 20
257.860619
 30
0.0
 11
330.65963
 21
254.411597
 31
0.0
  0
ARC
  5
231
100
AcDbEntity
  8
図形・寸法
  6
CONTINUOUS
 62
     1
100
AcDbCircle
 10
264.705725
 20
279.888822
 30
0.0
 40
3.5
100
AcDbArc
 50
0.0
 51
90.0
  0
ARC
  5
232
100
AcDbEntity
  8
図形・寸法
  6
CONTINUOUS
 62
     1
100
AcDbCircle
 10
264.705725
 20
279.888822
 30
0.0
 40
4.5
100
AcDbArc
 50
0.0
 51
90.0
  0
LINE
  5
233
100
AcDbEntity
  8
図形・寸法
  6
CONTINUOUS
 62
     1
100
AcDbLine
 10
264.210479
 20
273.588822
 30
0.0
 11
264.210479
 21
266.388822
 31
0.0
  0
ARC
  5
234
100
AcDbEntity
  8
図形・寸法
  6
CONTINUOUS
 62
     1
100
AcDbCircle
 10
264.705725
 20
263.888822
 30
0.0
 40
4.5
100
AcDbArc
 50
270.0
 51
0.0
  0
ARC
  5
235
100
AcDbEntity
  8
図形・寸法
  6
CONTINUOUS
 62
     1
100
AcDbCircle
 10
264.705725
 20
263.888822
 30
0.0
 40
3.5
100
AcDbArc
 50
270.0
 51
0.0
  0
LINE
  5
236
100
AcDbEntity
  8
図形・寸法
  6
CONTINUOUS
 62
     1
100
AcDbLine
 10
268.205725
 20
279.888822
 30
0.0
 11
268.205725
 21
263.888822
 31
0.0
  0
LINE
  5
237
100
AcDbEntity
  8
図形・寸法
  6
CONTINUOUS
 62
     1
100
AcDbLine
 10
269.205725
 20
279.888822
 30
0.0
 11
269.205725
 21
263.888822
 31
0.0
  0
LINE
  5
238
100
AcDbEntity
  8
図形・寸法
  6
CONTINUOUS
 62
     1
100
AcDbLine
 10
264.705725
 20
283.388822
 30
0.0
 11
223.613535
 21
283.388822
 31
0.0
  0
LINE
  5
239
100
AcDbEntity
  8
図形・寸法
  6
CONTINUOUS
 62
     1
100
AcDbLine
 10
264.705725
 20
284.388822
 30
0.0
 11
223.613535
 21
284.388822
 31
0.0
  0
LINE
  5
23A
100
AcDbEntity
  8
図形・寸法
  6
CONTINUOUS
 62
     1
100
AcDbLine
 10
264.210479
 20
273.588822
 30
0.0
 11
224.108781
 21
273.588822
 31
0.0
  0
LINE
  5
23B
100
AcDbEntity
  8
図形・寸法
  6
CONTINUOUS
 62
     1
100
AcDbLine
 10
224.108781
 20
266.388822
 30
0.0
 11
264.210479
 21
266.388822
 31
0.0
  0
LINE
  5
23C
100
AcDbEntity
  8
図形・寸法
  6
CONTINUOUS
 62
     1
100
AcDbLine
 10
223.613535
 20
259.388822
 30
0.0
 11
264.705725
 21
259.388822
 31
0.0
  0
LINE
  5
23D
100
AcDbEntity
  8
図形・寸法
  6
CONTINUOUS
 62
     1
100
AcDbLine
 10
223.613535
 20
260.388822
 30
0.0
 11
264.705725
 21
260.388822
 31
0.0
  0
LINE
  5
23E
100
AcDbEntity
  8
図形・寸法
  6
EXLTYPE2
 62
     1
100
AcDbLine
 10
389.15963
 20
228.060619
 30
0.0
 11
389.15963
 21
189.360619
 31
0.0
  0
LINE
  5
23F
100
AcDbEntity
  8
図形・寸法
  6
EXLTYPE2
 62
     1
100
AcDbLine
 10
244.15963
 20
318.364448
 30
0.0
 11
244.15963
 21
195.864448
 31
0.0
  0
LINE
  5
240
100
AcDbEntity
  8
図形・寸法
  6
EXLTYPE2
 62
     1
100
AcDbLine
 10
99.15963
 20
228.060619
 30
0.0
 11
99.15963
 21
189.360619
 31
0.0
  0
LINE
  5
241
100
AcDbEntity
  8
図形・寸法
  6
EXLTYPE2
 62
     1
100
AcDbLine
 10
206.65963
 20
317.760619
 30
0.0
 11
206.65963
 21
298.960619
 31
0.0
  0
LINE
  5
242
100
AcDbEntity
  8
図形・寸法
  6
EXLTYPE2
 62
     1
100
AcDbLine
 10
184.15963
 20
317.760619
 30
0.0
 11
184.15963
 21
298.960619
 31
0.0
  0
LINE
  5
243
100
AcDbEntity
  8
図形・寸法
  6
EXLTYPE2
 62
     1
100
AcDbLine
 10
281.65963
 20
317.760619
 30
0.0
 11
281.65963
 21
298.960619
 31
0.0
  0
LINE
  5
244
100
AcDbEntity
  8
図形・寸法
  6
EXLTYPE2
 62
     1
100
AcDbLine
 10
304.15963
 20
317.760619
 30
0.0
 11
304.15963
 21
298.960619
 31
0.0
  0
LINE
  5
245
100
AcDbEntity
  8
図形・寸法
  6
EXLTYPE2
 62
     1
100
AcDbLine
 10
79.436236
 20
472.392822
 30
0.0
 11
412.236236
 21
472.392822
 31
0.0
  0
LINE
  5
246
100
AcDbEntity
  8
図形・寸法
  6
EXLTYPE2
 62
     1
100
AcDbLine
 10
244.15963
 20
528.968448
 30
0.0
 11
244.15963
 21
416.568448
 31
0.0
  0
LINE
  5
247
100
AcDbEntity
  8
図形・寸法
  6
EXLTYPE4
 62
     1
100
AcDbLine
 10
337.65963
 20
254.388822
 30
0.0
 11
337.65963
 21
249.388822
 31
0.0
  0
LINE
  5
248
100
AcDbEntity
  8
図形・寸法
  6
EXLTYPE4
 62
     1
100
AcDbLine
 10
363.65963
 20
254.388822
 30
0.0
 11
363.65963
 21
249.388822
 31
0.0
  0
LINE
  5
249
100
AcDbEntity
  8
図形・寸法
  6
EXLTYPE4
 62
     1
100
AcDbLine
 10
150.65963
 20
254.388822
 30
0.0
 11
150.65963
 21
249.388822
 31
0.0
  0
LINE
  5
24A
100
AcDbEntity
  8
図形・寸法
  6
EXLTYPE4
 62
     1
100
AcDbLine
 10
124.65963
 20
254.388822
 30
0.0
 11
124.65963
 21
249.388822
 31
0.0
  0
ENDSEC
  0
SECTION
  2
OBJECTS
  0
DICTIONARY
  5
19
100
AcDbDictionary
  3
ACAD_GROUP
350
1A
  3
ACAD_MLINESTYLE
350
1B
  0
DICTIONARY
  5
1A
102
{ACAD_REACTORS
330
19
102
}
100
AcDbDictionary
  0
DICTIONARY
  5
1B
102
{ACAD_REACTORS
330
19
102
}
100
AcDbDictionary
  3
STANDARD
350
1C
  0
MLINESTYLE
  5
1C
102
{ACAD_REACTORS
330
1B
102
}
100
AcDbMlineStyle
  2
Standard
 70
     0
  3

 62
     0
 51
90.0
 52
90.0
 71
     2
 49
0.5
 62
   256
  6
ByLayer
 49
-0.5
 62
   256
  6
ByLayer
  0
ENDSEC
  0
EOF
