  0
SECTION
  2
HEADER
  9
$ACADVER
  1
AC1015
  9
$ACADMAINTVER
 70
    20
  9
$DWGCODEPAGE
  3
ANSI_932
  9
$INSBASE
 10
0.0
 20
0.0
 30
0.0
  9
$EXTMIN
 10
-66.8772337045059
 20
-14.86499577963843
 30
-0.0015258207003583
  9
$EXTMAX
 10
455.654657164672
 20
205.0092107459544
 30
0.0000000349246037
  9
$LIMMIN
 10
0.0
 20
0.0
  9
$LIMMAX
 10
297.0
 20
210.0
  9
$ORTHOMODE
 70
     1
  9
$REGENMODE
 70
     1
  9
$FILLMODE
 70
     1
  9
$QTEXTMODE
 70
     0
  9
$MIRRTEXT
 70
     1
  9
$LTSCALE
 40
1.0
  9
$ATTMODE
 70
     1
  9
$TEXTSIZE
 40
0.0
  9
$TRACEWID
 40
0.05
  9
$TEXTSTYLE
  7
STANDARD
  9
$CLAYER
  8
LAY-1
  9
$CELTYPE
  6
CONTINUOUS
  9
$CECOLOR
 62
   256
  9
$CELTSCALE
 40
1.0
  9
$DISPSILH
 70
     0
  9
$DIMSCALE
 40
1.0
  9
$DIMASZ
 40
0.18
  9
$DIMEXO
 40
0.0625
  9
$DIMDLI
 40
0.38
  9
$DIMRND
 40
0.0
  9
$DIMDLE
 40
0.0
  9
$DIMEXE
 40
0.18
  9
$DIMTP
 40
0.0
  9
$DIMTM
 40
0.0
  9
$DIMTXT
 40
0.18
  9
$DIMCEN
 40
0.09
  9
$DIMTSZ
 40
0.0
  9
$DIMTOL
 70
     0
  9
$DIMLIM
 70
     0
  9
$DIMTIH
 70
     1
  9
$DIMTOH
 70
     1
  9
$DIMSE1
 70
     0
  9
$DIMSE2
 70
     0
  9
$DIMTAD
 70
     0
  9
$DIMZIN
 70
     0
  9
$DIMBLK
  1

  9
$DIMASO
 70
     1
  9
$DIMSHO
 70
     1
  9
$DIMPOST
  1

  9
$DIMAPOST
  1

  9
$DIMALT
 70
     0
  9
$DIMALTD
 70
     2
  9
$DIMALTF
 40
25.4
  9
$DIMLFAC
 40
1.0
  9
$DIMTOFL
 70
     0
  9
$DIMTVP
 40
0.0
  9
$DIMTIX
 70
     0
  9
$DIMSOXD
 70
     0
  9
$DIMSAH
 70
     0
  9
$DIMBLK1
  1

  9
$DIMBLK2
  1

  9
$DIMSTYLE
  2
STANDARD
  9
$DIMCLRD
 70
     0
  9
$DIMCLRE
 70
     0
  9
$DIMCLRT
 70
     0
  9
$DIMTFAC
 40
1.0
  9
$DIMGAP
 40
0.09
  9
$DIMJUST
 70
     0
  9
$DIMSD1
 70
     0
  9
$DIMSD2
 70
     0
  9
$DIMTOLJ
 70
     1
  9
$DIMTZIN
 70
     0
  9
$DIMALTZ
 70
     0
  9
$DIMALTTZ
 70
     0
  9
$DIMUPT
 70
     0
  9
$DIMDEC
 70
     4
  9
$DIMTDEC
 70
     4
  9
$DIMALTU
 70
     2
  9
$DIMALTTD
 70
     2
  9
$DIMTXSTY
  7
STANDARD
  9
$DIMAUNIT
 70
     0
  9
$DIMADEC
 70
     0
  9
$DIMALTRND
 40
0.0
  9
$DIMAZIN
 70
     0
  9
$DIMDSEP
 70
    46
  9
$DIMATFIT
 70
     3
  9
$DIMFRAC
 70
     0
  9
$DIMLDRBLK
  1

  9
$DIMLUNIT
 70
     2
  9
$DIMLWD
 70
    -2
  9
$DIMLWE
 70
    -2
  9
$DIMTMOVE
 70
     0
  9
$LUNITS
 70
     2
  9
$LUPREC
 70
     4
  9
$SKETCHINC
 40
0.1
  9
$FILLETRAD
 40
0.0
  9
$AUNITS
 70
     0
  9
$AUPREC
 70
     0
  9
$MENU
  1
acad
  9
$ELEVATION
 40
0.0
  9
$PELEVATION
 40
0.0
  9
$THICKNESS
 40
0.0
  9
$LIMCHECK
 70
     0
  9
$CHAMFERA
 40
0.0
  9
$CHAMFERB
 40
0.0
  9
$CHAMFERC
 40
0.0
  9
$CHAMFERD
 40
0.0
  9
$SKPOLY
 70
     0
  9
$TDCREATE
 40
2453478.290752315
  9
$TDUCREATE
 40
2453477.915752315
  9
$TDUPDATE
 40
2460066.554513889
  9
$TDUUPDATE
 40
2460066.179513889
  9
$TDINDWG
 40
0.0040277778
  9
$TDUSRTIMER
 40
0.0040277778
  9
$USRTIMER
 70
     1
  9
$ANGBASE
 50
0.0
  9
$ANGDIR
 70
     0
  9
$PDMODE
 70
     0
  9
$PDSIZE
 40
0.0
  9
$PLINEWID
 40
0.0
  9
$SPLFRAME
 70
     0
  9
$SPLINETYPE
 70
     6
  9
$SPLINESEGS
 70
     8
  9
$HANDSEED
  5
4C2
  9
$SURFTAB1
 70
     6
  9
$SURFTAB2
 70
     6
  9
$SURFTYPE
 70
     6
  9
$SURFU
 70
     6
  9
$SURFV
 70
     6
  9
$UCSBASE
  2

  9
$UCSNAME
  2

  9
$UCSORG
 10
0.0
 20
0.0
 30
0.0
  9
$UCSXDIR
 10
1.0
 20
0.0
 30
0.0
  9
$UCSYDIR
 10
0.0
 20
1.0
 30
0.0
  9
$UCSORTHOREF
  2

  9
$UCSORTHOVIEW
 70
     0
  9
$UCSORGTOP
 10
0.0
 20
0.0
 30
0.0
  9
$UCSORGBOTTOM
 10
0.0
 20
0.0
 30
0.0
  9
$UCSORGLEFT
 10
0.0
 20
0.0
 30
0.0
  9
$UCSORGRIGHT
 10
0.0
 20
0.0
 30
0.0
  9
$UCSORGFRONT
 10
0.0
 20
0.0
 30
0.0
  9
$UCSORGBACK
 10
0.0
 20
0.0
 30
0.0
  9
$PUCSBASE
  2

  9
$PUCSNAME
  2

  9
$PUCSORG
 10
0.0
 20
0.0
 30
0.0
  9
$PUCSXDIR
 10
1.0
 20
0.0
 30
0.0
  9
$PUCSYDIR
 10
0.0
 20
1.0
 30
0.0
  9
$PUCSORTHOREF
  2

  9
$PUCSORTHOVIEW
 70
     0
  9
$PUCSORGTOP
 10
0.0
 20
0.0
 30
0.0
  9
$PUCSORGBOTTOM
 10
0.0
 20
0.0
 30
0.0
  9
$PUCSORGLEFT
 10
0.0
 20
0.0
 30
0.0
  9
$PUCSORGRIGHT
 10
0.0
 20
0.0
 30
0.0
  9
$PUCSORGFRONT
 10
0.0
 20
0.0
 30
0.0
  9
$PUCSORGBACK
 10
0.0
 20
0.0
 30
0.0
  9
$USERI1
 70
     0
  9
$USERI2
 70
     0
  9
$USERI3
 70
     0
  9
$USERI4
 70
     0
  9
$USERI5
 70
     0
  9
$USERR1
 40
0.0
  9
$USERR2
 40
0.0
  9
$USERR3
 40
0.0
  9
$USERR4
 40
0.0
  9
$USERR5
 40
0.0
  9
$WORLDVIEW
 70
     1
  9
$SHADEDGE
 70
     3
  9
$SHADEDIF
 70
    70
  9
$TILEMODE
 70
     1
  9
$MAXACTVP
 70
    16
  9
$PINSBASE
 10
0.0
 20
0.0
 30
0.0
  9
$PLIMCHECK
 70
     0
  9
$PEXTMIN
 10
1.000000000000000E+20
 20
1.000000000000000E+20
 30
1.000000000000000E+20
  9
$PEXTMAX
 10
-1.000000000000000E+20
 20
-1.000000000000000E+20
 30
-1.000000000000000E+20
  9
$PLIMMIN
 10
0.0
 20
0.0
  9
$PLIMMAX
 10
12.0
 20
9.0
  9
$UNITMODE
 70
     0
  9
$VISRETAIN
 70
     0
  9
$PLINEGEN
 70
     1
  9
$PSLTSCALE
 70
     0
  9
$TREEDEPTH
 70
  3020
  9
$CMLSTYLE
  2
STANDARD
  9
$CMLJUST
 70
     0
  9
$CMLSCALE
 40
1.0
  9
$PROXYGRAPHICS
 70
     0
  9
$MEASUREMENT
 70
     0
  9
$CELWEIGHT
370
    -1
  9
$ENDCAPS
280
     0
  9
$JOINSTYLE
280
     0
  9
$LWDISPLAY
290
     0
  9
$INSUNITS
 70
     0
  9
$HYPERLINKBASE
  1

  9
$STYLESHEET
  1

  9
$XEDIT
290
     1
  9
$CEPSNTYPE
380
     0
  9
$PSTYLEMODE
290
     1
  9
$FINGERPRINTGUID
  2
{FEF5E949-F880-0840-8900-B98AB8CBC9D0}
  9
$VERSIONGUID
  2
{442A29D1-7499-F746-81A3-5A329CC59B46}
  9
$EXTNAMES
290
     1
  9
$PSVPSCALE
 40
0.0
  9
$OLESTARTUP
290
     0
  0
ENDSEC
  0
SECTION
  2
CLASSES
  0
CLASS
  1
IMAGE
  2
AcDbRasterImage
  3
ISM
 90
    34943
280
     0
281
     1
  0
CLASS
  1
DICTIONARYVAR
  2
AcDbDictionaryVar
  3
ObjectDBX Classes
 90
        0
280
     0
281
     0
  0
CLASS
  1
RASTERVARIABLES
  2
AcDbRasterVariables
  3
ISM
 90
    32768
280
     0
281
     0
  0
CLASS
  1
IMAGEDEF
  2
AcDbRasterImageDef
  3
ISM
 90
    32768
280
     0
281
     0
  0
CLASS
  1
IMAGEDEF_REACTOR
  2
AcDbRasterImageDefReactor
  3
ISM
 90
    32769
280
     0
281
     0
  0
CLASS
  1
IDBUFFER
  2
AcDbIdBuffer
  3
ObjectDBX Classes
 90
    32768
280
     0
281
     0
  0
CLASS
  1
SPATIAL_FILTER
  2
AcDbSpatialFilter
  3
ObjectDBX Classes
 90
    32768
280
     0
281
     0
  0
CLASS
  1
SORTENTSTABLE
  2
AcDbSortentsTable
  3
ObjectDBX Classes
 90
        0
280
     0
281
     0
  0
CLASS
  1
LAYER_INDEX
  2
AcDbLayerIndex
  3
ObjectDBX Classes
 90
    32768
280
     0
281
     0
  0
CLASS
  1
SPATIAL_INDEX
  2
AcDbSpatialIndex
  3
ObjectDBX Classes
 90
    32768
280
     0
281
     0
  0
CLASS
  1
OBJECT_PTR
  2
CAseDLPNTableRecord
  3
ASE-LPNTableRecord
 90
    32769
280
     0
281
     0
  0
CLASS
  1
LAYOUT
  2
AcDbLayout
  3
ObjectDBX Classes
 90
        0
280
     0
281
     0
  0
CLASS
  1
PLOTSETTINGS
  2
AcDbPlotSettings
  3
ObjectDBX Classes
 90
    32768
280
     0
281
     0
  0
CLASS
  1
ACDBDICTIONARYWDFLT
  2
AcDbDictionaryWithDefault
  3
ObjectDBX Classes
 90
        0
280
     0
281
     0
  0
CLASS
  1
ACDBPLACEHOLDER
  2
AcDbPlaceHolder
  3
ObjectDBX Classes
 90
        0
280
     0
281
     0
  0
CLASS
  1
VBA_PROJECT
  2
AcDbVbaProject
  3
acad
 90
    32768
280
     0
281
     0
  0
CLASS
  1
WIPEOUT
  2
AcDbWipeout
  3
WipeOut|Product Desc: Object Enabler for WipeOut entity | Company: Autodesk, Inc. | WEB Address: www.autodesk.com
 90
    34943
280
     0
281
     1
  0
CLASS
  1
WIPEOUTVARIABLES
  2
AcDbWipeoutVariables
  3
"WipeOut|Product Desc:     WipeOut Dbx Application|Company:          Autodesk, Inc.|WEB Address:      www.autodesk.com"
 90
    32768
280
     0
281
     0
  0
CLASS
  1
RTEXT
  2
RText
  3
RText|AutoCAD Express Tool|expresstools@autodesk.com
 90
    35839
280
     0
281
     1
  0
CLASS
  1
ARCALIGNEDTEXT
  2
AcDbArcAlignedText
  3
ATEXT|AutoCAD Express Tool|expresstools@autodesk.com
 90
    32768
280
     0
281
     1
  0
CLASS
  1
MATERIAL
  2
AcDbMaterial
  3
ObjectDBX Classes
 90
     1153
280
     0
281
     0
  0
CLASS
  1
VISUALSTYLE
  2
AcDbVisualStyle
  3
ObjectDBX Classes
 90
     4095
280
     0
281
     0
  0
CLASS
  1
TABLESTYLE
  2
AcDbTableStyle
  3
ObjectDBX Classes
 90
     4095
280
     0
281
     0
  0
CLASS
  1
SCALE
  2
AcDbScale
  3
ObjectDBX Classes
 90
     1153
280
     0
281
     0
  0
CLASS
  1
MLEADERSTYLE
  2
AcDbMLeaderStyle
  3
ACDB_MLEADERSTYLE_CLASS
 90
     4095
280
     0
281
     0
  0
CLASS
  1
ACDBSECTIONVIEWSTYLE
  2
AcDbSectionViewStyle
  3
ObjectDBX Classes
 90
     1025
280
     0
281
     0
  0
CLASS
  1
ACDBDETAILVIEWSTYLE
  2
AcDbDetailViewStyle
  3
ObjectDBX Classes
 90
     1025
280
     0
281
     0
  0
CLASS
  1
CELLSTYLEMAP
  2
AcDbCellStyleMap
  3
ObjectDBX Classes
 90
     1152
280
     0
281
     0
  0
ENDSEC
  0
SECTION
  2
TABLES
  0
TABLE
  2
VPORT
  5
7
330
0
100
AcDbSymbolTable
 70
     1
  0
VPORT
  5
15
330
7
100
AcDbSymbolTableRecord
100
AcDbViewportTableRecord
  2
*ACTIVE
 70
     0
 10
0.0
 20
0.0
 11
1.0
 21
1.0
 12
194.388711730083
 22
95.07210748315797
 13
0.0
 23
0.0
 14
1.0
 24
1.0
 15
0.0
 25
0.0
 16
0.0
 26
0.0
 36
1.0
 17
0.0
 27
0.0
 37
0.0
 40
307.8249267252074
 41
1.704070407040704
 42
50.0
 43
0.0
 44
0.0
 50
0.0
 51
0.0
 71
     0
 72
   100
 73
     1
 74
     1
 75
     0
 76
     0
 77
     0
 78
     0
281
     0
 65
     1
110
0.0
120
0.0
130
0.0
111
1.0
121
0.0
131
0.0
112
0.0
122
1.0
132
0.0
 79
     0
146
0.0
1001
ACAD_NAV_VCDISPLAY
1070
     3
  0
ENDTAB
  0
TABLE
  2
LTYPE
  5
4
330
0
100
AcDbSymbolTable
 70
     9
  0
LTYPE
  5
11
330
4
100
AcDbSymbolTableRecord
100
AcDbLinetypeTableRecord
  2
BYBLOCK
 70
     0
  3

 72
    65
 73
     0
 40
0.0
  0
LTYPE
  5
12
330
4
100
AcDbSymbolTableRecord
100
AcDbLinetypeTableRecord
  2
BYLAYER
 70
     0
  3

 72
    65
 73
     0
 40
0.0
  0
LTYPE
  5
13
330
4
100
AcDbSymbolTableRecord
100
AcDbLinetypeTableRecord
  2
CONTINUOUS
 70
     0
  3
実線
 72
    65
 73
     0
 40
0.0
  0
LTYPE
  5
1D
330
4
100
AcDbSymbolTableRecord
100
AcDbLinetypeTableRecord
  2
EXLTYPE1
 70
     0
  3
破線
 72
    65
 73
     2
 40
4.0
 49
3.0
 74
     0
 49
-1.0
 74
     0
  0
LTYPE
  5
1E
330
4
100
AcDbSymbolTableRecord
100
AcDbLinetypeTableRecord
  2
EXLTYPE2
 70
     0
  3
点線
 72
    65
 73
     2
 40
2.0
 49
1.0
 74
     0
 49
-1.0
 74
     0
  0
LTYPE
  5
1F
330
4
100
AcDbSymbolTableRecord
100
AcDbLinetypeTableRecord
  2
EXLTYPE3
 70
     0
  3
一点鎖線
 72
    65
 73
     4
 40
33.0
 49
30.0
 74
     0
 49
-1.0
 74
     0
 49
1.0
 74
     0
 49
-1.0
 74
     0
  0
LTYPE
  5
20
330
4
100
AcDbSymbolTableRecord
100
AcDbLinetypeTableRecord
  2
EXLTYPE4
 70
     0
  3
二点鎖線
 72
    65
 73
     6
 40
35.0
 49
30.0
 74
     0
 49
-1.0
 74
     0
 49
1.0
 74
     0
 49
-1.0
 74
     0
 49
1.0
 74
     0
 49
-1.0
 74
     0
  0
LTYPE
  5
21
330
4
100
AcDbSymbolTableRecord
100
AcDbLinetypeTableRecord
  2
EXLTYPE5
 70
     0
  3
三点鎖線
 72
    65
 73
     8
 40
37.0
 49
30.0
 74
     0
 49
-1.0
 74
     0
 49
1.0
 74
     0
 49
-1.0
 74
     0
 49
1.0
 74
     0
 49
-1.0
 74
     0
 49
1.0
 74
     0
 49
-1.0
 74
     0
  0
LTYPE
  5
22
330
4
100
AcDbSymbolTableRecord
100
AcDbLinetypeTableRecord
  2
EXLTYPE6
 70
     0
  3
四点鎖線
 72
    65
 73
    10
 40
39.0
 49
30.0
 74
     0
 49
-1.0
 74
     0
 49
1.0
 74
     0
 49
-1.0
 74
     0
 49
1.0
 74
     0
 49
-1.0
 74
     0
 49
1.0
 74
     0
 49
-1.0
 74
     0
 49
1.0
 74
     0
 49
-1.0
 74
     0
  0
ENDTAB
  0
TABLE
  2
LAYER
  5
2
102
{ACAD_XDICTIONARY
360
3FB
102
}
330
0
100
AcDbSymbolTable
 70
     4
  0
LAYER
  5
14
102
{ACAD_XDICTIONARY
360
46F
102
}
330
2
100
AcDbSymbolTableRecord
100
AcDbLayerTableRecord
  2
0
 70
     0
 62
     7
  6
CONTINUOUS
370
    -3
390
394
  0
LAYER
  5
25
102
{ACAD_XDICTIONARY
360
471
102
}
330
2
100
AcDbSymbolTableRecord
100
AcDbLayerTableRecord
  2
LAY-1
 70
     0
 62
     7
  6
CONTINUOUS
370
    -3
390
394
  0
LAYER
  5
26
102
{ACAD_XDICTIONARY
360
473
102
}
330
2
100
AcDbSymbolTableRecord
100
AcDbLayerTableRecord
  2
LAY-2
 70
     0
 62
     7
  6
CONTINUOUS
370
    -3
390
394
  0
LAYER
  5
453
330
2
100
AcDbSymbolTableRecord
100
AcDbLayerTableRecord
  2
Defpoints
 70
     0
 62
     7
  6
CONTINUOUS
290
     0
370
    -3
390
394
  0
ENDTAB
  0
TABLE
  2
STYLE
  5
3
330
0
100
AcDbSymbolTable
 70
     5
  0
STYLE
  5
17
330
3
100
AcDbSymbolTableRecord
100
AcDbTextStyleTableRecord
  2
STANDARD
 70
     0
 40
0.0
 41
1.0
 50
0.0
 71
     0
 42
0.0
  3
monotxt
  4
extfont
  0
STYLE
  5
23
330
3
100
AcDbSymbolTableRecord
100
AcDbTextStyleTableRecord
  2
EXCADSTD
 70
     0
 40
0.0
 41
1.0
 50
0.0
 71
     0
 42
0.2
  3
monotxt
  4
extfont
  0
STYLE
  5
24
330
3
100
AcDbSymbolTableRecord
100
AcDbTextStyleTableRecord
  2
EXCADVERT
 70
     4
 40
0.0
 41
1.0
 50
0.0
 71
     0
 42
0.286885
  3
monotxt
  4
extfont
  0
STYLE
  5
386
330
3
100
AcDbSymbolTableRecord
100
AcDbTextStyleTableRecord
  2
EXCADTTF1
 70
     0
 40
0.0
 41
1.0
 50
0.0
 71
     0
 42
0.2
  3
MS Gothic.ttf
  4

1001
ACAD
1000
MS Gothic
1071
    32817
  0
STYLE
  5
3F4
330
3
100
AcDbSymbolTableRecord
100
AcDbTextStyleTableRecord
  2
MSゴシック
 70
     0
 40
0.0
 41
1.0
 50
0.0
 71
     0
 42
0.2
  3
MS Gothic.ttf
  4

1001
ACAD
1000
MS Gothic
1071
    32817
  0
ENDTAB
  0
TABLE
  2
VIEW
  5
5
330
0
100
AcDbSymbolTable
 70
     0
  0
ENDTAB
  0
TABLE
  2
UCS
  5
6
330
0
100
AcDbSymbolTable
 70
     0
  0
ENDTAB
  0
TABLE
  2
APPID
  5
8
330
0
100
AcDbSymbolTable
 70
     9
  0
APPID
  5
16
330
8
100
AcDbSymbolTableRecord
100
AcDbRegAppTableRecord
  2
ACAD
 70
     0
  0
APPID
  5
3EC
330
8
100
AcDbSymbolTableRecord
100
AcDbRegAppTableRecord
  2
ACAD_EXEMPT_FROM_CAD_STANDARDS
 70
     0
  0
APPID
  5
3F6
330
8
100
AcDbSymbolTableRecord
100
AcDbRegAppTableRecord
  2
ACAD_NAV_VCDISPLAY
 70
     0
  0
APPID
  5
3F7
330
8
100
AcDbSymbolTableRecord
100
AcDbRegAppTableRecord
  2
ACAD_PSEXT
 70
     0
  0
APPID
  5
3F8
330
8
100
AcDbSymbolTableRecord
100
AcDbRegAppTableRecord
  2
ACAD_DSTYLE_DIMJAG
 70
     0
  0
APPID
  5
3F9
330
8
100
AcDbSymbolTableRecord
100
AcDbRegAppTableRecord
  2
ACAD_DSTYLE_DIMTALN
 70
     0
  0
APPID
  5
3FA
330
8
100
AcDbSymbolTableRecord
100
AcDbRegAppTableRecord
  2
DCO15
 70
     0
  0
APPID
  5
451
330
8
100
AcDbSymbolTableRecord
100
AcDbRegAppTableRecord
  2
Acad_TC
 70
     0
  0
APPID
  5
4B9
330
8
100
AcDbSymbolTableRecord
100
AcDbRegAppTableRecord
  2
ACAD_MLEADERVER
 70
     0
  0
ENDTAB
  0
TABLE
  2
DIMSTYLE
  5
9
330
0
100
AcDbSymbolTable
 70
     3
100
AcDbDimStyleTable
 71
     1
340
18
  0
DIMSTYLE
105
18
330
9
100
AcDbSymbolTableRecord
100
AcDbDimStyleTableRecord
  2
STANDARD
 70
     0
340
17
  0
DIMSTYLE
105
3F5
330
9
100
AcDbSymbolTableRecord
100
AcDbDimStyleTableRecord
  2
寸法
 70
     0
 40
10.0
 41
2.0
 42
0.8
 43
0.1
 44
0.5
 73
     0
 74
     0
 77
     1
 78
     8
140
3.0
141
0.1
147
0.5
172
     1
173
     1
176
     1
177
     1
178
     7
271
     2
272
     2
279
     2
340
3F4
341
3EE
343
3EE
344
3EE
1001
ACAD_DSTYLE_DIMJAG
1070
   388
1040
1.5
1001
ACAD_DSTYLE_DIMTALN
1070
   392
1070
     0
  0
ENDTAB
  0
TABLE
  2
BLOCK_RECORD
  5
1
330
0
100
AcDbSymbolTable
 70
    19
  0
BLOCK_RECORD
  5
A
330
1
100
AcDbSymbolTableRecord
100
AcDbBlockTableRecord
  2
*MODEL_SPACE
340
3E4
  0
BLOCK_RECORD
  5
B
330
1
100
AcDbSymbolTableRecord
100
AcDbBlockTableRecord
  2
*PAPER_SPACE
340
3E5
  0
BLOCK_RECORD
  5
27
330
1
100
AcDbSymbolTableRecord
100
AcDbBlockTableRecord
  2
_EX_NORM
340
0
  0
BLOCK_RECORD
  5
28
330
1
100
AcDbSymbolTableRecord
100
AcDbBlockTableRecord
  2
_EX_BNORM
340
0
  0
BLOCK_RECORD
  5
29
330
1
100
AcDbSymbolTableRecord
100
AcDbBlockTableRecord
  2
_EX_BCIR
340
0
  0
BLOCK_RECORD
  5
2A
330
1
100
AcDbSymbolTableRecord
100
AcDbBlockTableRecord
  2
_EX_RCIVIL
340
0
  0
BLOCK_RECORD
  5
2B
330
1
100
AcDbSymbolTableRecord
100
AcDbBlockTableRecord
  2
_EX_SLANT
340
0
  0
BLOCK_RECORD
  5
2C
330
1
100
AcDbSymbolTableRecord
100
AcDbBlockTableRecord
  2
_EX_NONE
340
0
  0
BLOCK_RECORD
  5
2D
330
1
100
AcDbSymbolTableRecord
100
AcDbBlockTableRecord
  2
_EX_CIVIL
340
0
  0
BLOCK_RECORD
  5
2E
330
1
100
AcDbSymbolTableRecord
100
AcDbBlockTableRecord
  2
_EX_WCIR
340
0
  0
BLOCK_RECORD
  5
2F
330
1
100
AcDbSymbolTableRecord
100
AcDbBlockTableRecord
  2
_EX_WCIR2
340
0
  0
BLOCK_RECORD
  5
30
330
1
100
AcDbSymbolTableRecord
100
AcDbBlockTableRecord
  2
_EX_WNORM
340
0
  0
BLOCK_RECORD
  5
31
330
1
100
AcDbSymbolTableRecord
100
AcDbBlockTableRecord
  2
_EX_NNORM
340
0
  0
BLOCK_RECORD
  5
32
330
1
100
AcDbSymbolTableRecord
100
AcDbBlockTableRecord
  2
_EX_BBOX
340
0
  0
BLOCK_RECORD
  5
33
330
1
100
AcDbSymbolTableRecord
100
AcDbBlockTableRecord
  2
_EX_WBOX
340
0
  0
BLOCK_RECORD
  5
34
330
1
100
AcDbSymbolTableRecord
100
AcDbBlockTableRecord
  2
_EX_INTEGRAL
340
0
  0
BLOCK_RECORD
  5
3EE
330
1
100
AcDbSymbolTableRecord
100
AcDbBlockTableRecord
  2
_OPEN30
340
0
  0
BLOCK_RECORD
  5
454
330
1
100
AcDbSymbolTableRecord
100
AcDbBlockTableRecord
  2
*D17
340
0
  0
BLOCK_RECORD
  5
462
330
1
100
AcDbSymbolTableRecord
100
AcDbBlockTableRecord
  2
*D18
340
0
  0
ENDTAB
  0
ENDSEC
  0
SECTION
  2
BLOCKS
  0
BLOCK
  5
D
330
A
100
AcDbEntity
  8
0
100
AcDbBlockBegin
  2
*MODEL_SPACE
 70
     0
 10
0.0
 20
0.0
 30
0.0
  3
*MODEL_SPACE
  1

  0
ENDBLK
  5
E
330
A
100
AcDbEntity
  8
0
100
AcDbBlockEnd
  0
BLOCK
  5
F
330
B
100
AcDbEntity
 67
     1
  8
0
100
AcDbBlockBegin
  2
*PAPER_SPACE
 70
     0
 10
0.0
 20
0.0
 30
0.0
  3
*PAPER_SPACE
  1

  0
ENDBLK
  5
10
330
B
100
AcDbEntity
 67
     1
  8
0
100
AcDbBlockEnd
  0
BLOCK
  5
35
330
27
100
AcDbEntity
  8
0
100
AcDbBlockBegin
  2
_EX_NORM
 70
     0
 10
0.0
 20
0.0
 30
0.0
  3
_EX_NORM
  1

  0
LINE
  5
36
330
27
100
AcDbEntity
  8
0
  6
Continuous
 62
     0
100
AcDbLine
 10
0.0
 20
0.0
 30
0.0
 11
-1.0
 21
0.0
 31
0.0
  0
LINE
  5
37
330
27
100
AcDbEntity
  8
0
  6
Continuous
 62
     0
100
AcDbLine
 10
0.0
 20
0.0
 30
0.0
 11
-1.0
 21
0.166667
 31
0.0
  0
LINE
  5
38
330
27
100
AcDbEntity
  8
0
  6
Continuous
 62
     0
100
AcDbLine
 10
0.0
 20
0.0
 30
0.0
 11
-1.0
 21
-0.166667
 31
0.0
  0
ENDBLK
  5
39
330
27
100
AcDbEntity
  8
0
100
AcDbBlockEnd
  0
BLOCK
  5
3A
330
28
100
AcDbEntity
  8
0
100
AcDbBlockBegin
  2
_EX_BNORM
 70
     0
 10
0.0
 20
0.0
 30
0.0
  3
_EX_BNORM
  1

  0
LINE
  5
3B
330
28
100
AcDbEntity
  8
0
  6
Continuous
 62
     0
100
AcDbLine
 10
0.0
 20
0.0
 30
0.0
 11
-1.0
 21
0.0
 31
0.0
  0
LINE
  5
3C
330
28
100
AcDbEntity
  8
0
  6
Continuous
 62
     0
100
AcDbLine
 10
0.0
 20
0.0
 30
0.0
 11
-1.0
 21
0.166667
 31
0.0
  0
LINE
  5
3D
330
28
100
AcDbEntity
  8
0
  6
Continuous
 62
     0
100
AcDbLine
 10
0.0
 20
0.0
 30
0.0
 11
-1.0
 21
-0.166667
 31
0.0
  0
LINE
  5
3E
330
28
100
AcDbEntity
  8
0
  6
Continuous
 62
     0
100
AcDbLine
 10
0.0
 20
0.0
 30
0.0
 11
-1.0
 21
0.083333
 31
0.0
  0
LINE
  5
3F
330
28
100
AcDbEntity
  8
0
  6
Continuous
 62
     0
100
AcDbLine
 10
0.0
 20
0.0
 30
0.0
 11
-1.0
 21
-0.083333
 31
0.0
  0
LINE
  5
40
330
28
100
AcDbEntity
  8
0
  6
Continuous
 62
     0
100
AcDbLine
 10
-1.0
 20
0.166667
 30
0.0
 11
-1.0
 21
-0.166667
 31
0.0
  0
ENDBLK
  5
41
330
28
100
AcDbEntity
  8
0
100
AcDbBlockEnd
  0
BLOCK
  5
42
330
29
100
AcDbEntity
  8
0
100
AcDbBlockBegin
  2
_EX_BCIR
 70
     0
 10
0.0
 20
0.0
 30
0.0
  3
_EX_BCIR
  1

  0
LINE
  5
43
330
29
100
AcDbEntity
  8
0
  6
Continuous
 62
     0
100
AcDbLine
 10
0.0
 20
0.0
 30
0.0
 11
-1.0
 21
0.0
 31
0.0
  0
CIRCLE
  5
44
330
29
100
AcDbEntity
  8
0
  6
Continuous
 62
     0
100
AcDbCircle
 10
0.0
 20
0.0
 30
0.0
 40
0.5
  0
CIRCLE
  5
45
330
29
100
AcDbEntity
  8
0
  6
Continuous
 62
     0
100
AcDbCircle
 10
0.0
 20
0.0
 30
0.0
 40
0.25
  0
ENDBLK
  5
46
330
29
100
AcDbEntity
  8
0
100
AcDbBlockEnd
  0
BLOCK
  5
47
330
2A
100
AcDbEntity
  8
0
100
AcDbBlockBegin
  2
_EX_RCIVIL
 70
     0
 10
0.0
 20
0.0
 30
0.0
  3
_EX_RCIVIL
  1

  0
LINE
  5
48
330
2A
100
AcDbEntity
  8
0
  6
Continuous
 62
     0
100
AcDbLine
 10
0.0
 20
0.0
 30
0.0
 11
-1.0
 21
0.0
 31
0.0
  0
LINE
  5
49
330
2A
100
AcDbEntity
  8
0
  6
Continuous
 62
     0
100
AcDbLine
 10
-1.0
 20
-0.25
 30
0.0
 11
0.0
 21
-0.25
 31
0.0
  0
LINE
  5
4A
330
2A
100
AcDbEntity
  8
0
  6
Continuous
 62
     0
100
AcDbLine
 10
-1.0
 20
-0.125
 30
0.0
 11
0.0
 21
-0.125
 31
0.0
  0
ENDBLK
  5
4B
330
2A
100
AcDbEntity
  8
0
100
AcDbBlockEnd
  0
BLOCK
  5
4C
330
2B
100
AcDbEntity
  8
0
100
AcDbBlockBegin
  2
_EX_SLANT
 70
     0
 10
0.0
 20
0.0
 30
0.0
  3
_EX_SLANT
  1

  0
LINE
  5
4D
330
2B
100
AcDbEntity
  8
0
  6
Continuous
 62
     0
100
AcDbLine
 10
0.0
 20
0.0
 30
0.0
 11
-1.0
 21
0.0
 31
0.0
  0
LINE
  5
4E
330
2B
100
AcDbEntity
  8
0
  6
Continuous
 62
     0
100
AcDbLine
 10
0.7071069999999999
 20
0.7071069999999999
 30
0.0
 11
-0.7071069999999999
 21
-0.7071069999999999
 31
0.0
  0
ENDBLK
  5
4F
330
2B
100
AcDbEntity
  8
0
100
AcDbBlockEnd
  0
BLOCK
  5
50
330
2C
100
AcDbEntity
  8
0
100
AcDbBlockBegin
  2
_EX_NONE
 70
     0
 10
0.0
 20
0.0
 30
0.0
  3
_EX_NONE
  1

  0
LINE
  5
51
330
2C
100
AcDbEntity
  8
0
  6
Continuous
 62
     0
100
AcDbLine
 10
0.0
 20
0.0
 30
0.0
 11
-1.0
 21
0.0
 31
0.0
  0
ENDBLK
  5
52
330
2C
100
AcDbEntity
  8
0
100
AcDbBlockEnd
  0
BLOCK
  5
53
330
2D
100
AcDbEntity
  8
0
100
AcDbBlockBegin
  2
_EX_CIVIL
 70
     0
 10
0.0
 20
0.0
 30
0.0
  3
_EX_CIVIL
  1

  0
LINE
  5
54
330
2D
100
AcDbEntity
  8
0
  6
Continuous
 62
     0
100
AcDbLine
 10
0.0
 20
0.0
 30
0.0
 11
-1.0
 21
0.0
 31
0.0
  0
LINE
  5
55
330
2D
100
AcDbEntity
  8
0
  6
Continuous
 62
     0
100
AcDbLine
 10
-1.0
 20
0.25
 30
0.0
 11
0.0
 21
0.25
 31
0.0
  0
LINE
  5
56
330
2D
100
AcDbEntity
  8
0
  6
Continuous
 62
     0
100
AcDbLine
 10
-1.0
 20
0.125
 30
0.0
 11
0.0
 21
0.125
 31
0.0
  0
ENDBLK
  5
57
330
2D
100
AcDbEntity
  8
0
100
AcDbBlockEnd
  0
BLOCK
  5
58
330
2E
100
AcDbEntity
  8
0
100
AcDbBlockBegin
  2
_EX_WCIR
 70
     0
 10
0.0
 20
0.0
 30
0.0
  3
_EX_WCIR
  1

  0
LINE
  5
59
330
2E
100
AcDbEntity
  8
0
  6
Continuous
 62
     0
100
AcDbLine
 10
0.0
 20
0.0
 30
0.0
 11
-1.0
 21
0.0
 31
0.0
  0
CIRCLE
  5
5A
330
2E
100
AcDbEntity
  8
0
  6
Continuous
 62
     0
100
AcDbCircle
 10
0.0
 20
0.0
 30
0.0
 40
0.5
  0
ENDBLK
  5
5B
330
2E
100
AcDbEntity
  8
0
100
AcDbBlockEnd
  0
BLOCK
  5
5C
330
2F
100
AcDbEntity
  8
0
100
AcDbBlockBegin
  2
_EX_WCIR2
 70
     0
 10
0.0
 20
0.0
 30
0.0
  3
_EX_WCIR2
  1

  0
LINE
  5
5D
330
2F
100
AcDbEntity
  8
0
  6
Continuous
 62
     0
100
AcDbLine
 10
-0.5
 20
0.0
 30
0.0
 11
-1.0
 21
0.0
 31
0.0
  0
CIRCLE
  5
5E
330
2F
100
AcDbEntity
  8
0
  6
Continuous
 62
     0
100
AcDbCircle
 10
0.0
 20
0.0
 30
0.0
 40
0.5
  0
ENDBLK
  5
5F
330
2F
100
AcDbEntity
  8
0
100
AcDbBlockEnd
  0
BLOCK
  5
60
330
30
100
AcDbEntity
  8
0
100
AcDbBlockBegin
  2
_EX_WNORM
 70
     0
 10
0.0
 20
0.0
 30
0.0
  3
_EX_WNORM
  1

  0
LINE
  5
61
330
30
100
AcDbEntity
  8
0
  6
Continuous
 62
     0
100
AcDbLine
 10
-1.0
 20
0.0
 30
0.0
 11
-1.0
 21
0.0
 31
0.0
  0
LINE
  5
62
330
30
100
AcDbEntity
  8
0
  6
Continuous
 62
     0
100
AcDbLine
 10
0.0
 20
0.0
 30
0.0
 11
-1.0
 21
0.166667
 31
0.0
  0
LINE
  5
63
330
30
100
AcDbEntity
  8
0
  6
Continuous
 62
     0
100
AcDbLine
 10
0.0
 20
0.0
 30
0.0
 11
-1.0
 21
-0.166667
 31
0.0
  0
LINE
  5
64
330
30
100
AcDbEntity
  8
0
  6
Continuous
 62
     0
100
AcDbLine
 10
-1.0
 20
0.166667
 30
0.0
 11
-1.0
 21
-0.166667
 31
0.0
  0
ENDBLK
  5
65
330
30
100
AcDbEntity
  8
0
100
AcDbBlockEnd
  0
BLOCK
  5
66
330
31
100
AcDbEntity
  8
0
100
AcDbBlockBegin
  2
_EX_NNORM
 70
     0
 10
0.0
 20
0.0
 30
0.0
  3
_EX_NNORM
  1

  0
LINE
  5
67
330
31
100
AcDbEntity
  8
0
  6
Continuous
 62
     0
100
AcDbLine
 10
0.0
 20
0.0
 30
0.0
 11
-1.0
 21
0.0
 31
0.0
  0
LINE
  5
68
330
31
100
AcDbEntity
  8
0
  6
Continuous
 62
     0
100
AcDbLine
 10
0.0
 20
0.0
 30
0.0
 11
-1.0
 21
0.166667
 31
0.0
  0
LINE
  5
69
330
31
100
AcDbEntity
  8
0
  6
Continuous
 62
     0
100
AcDbLine
 10
0.0
 20
0.0
 30
0.0
 11
-1.0
 21
-0.166667
 31
0.0
  0
LINE
  5
6A
330
31
100
AcDbEntity
  8
0
  6
Continuous
 62
     0
100
AcDbLine
 10
-1.0
 20
0.166667
 30
0.0
 11
-1.0
 21
-0.166667
 31
0.0
  0
ENDBLK
  5
6B
330
31
100
AcDbEntity
  8
0
100
AcDbBlockEnd
  0
BLOCK
  5
6C
330
32
100
AcDbEntity
  8
0
100
AcDbBlockBegin
  2
_EX_BBOX
 70
     0
 10
0.0
 20
0.0
 30
0.0
  3
_EX_BBOX
  1

  0
LINE
  5
6D
330
32
100
AcDbEntity
  8
0
  6
Continuous
 62
     0
100
AcDbLine
 10
0.0
 20
0.0
 30
0.0
 11
-1.0
 21
0.0
 31
0.0
  0
LINE
  5
6E
330
32
100
AcDbEntity
  8
0
  6
Continuous
 62
     0
100
AcDbLine
 10
-0.5
 20
0.5
 30
0.0
 11
0.5
 21
0.5
 31
0.0
  0
LINE
  5
6F
330
32
100
AcDbEntity
  8
0
  6
Continuous
 62
     0
100
AcDbLine
 10
0.5
 20
0.5
 30
0.0
 11
0.5
 21
-0.5
 31
0.0
  0
LINE
  5
70
330
32
100
AcDbEntity
  8
0
  6
Continuous
 62
     0
100
AcDbLine
 10
0.5
 20
-0.5
 30
0.0
 11
-0.5
 21
-0.5
 31
0.0
  0
LINE
  5
71
330
32
100
AcDbEntity
  8
0
  6
Continuous
 62
     0
100
AcDbLine
 10
-0.5
 20
-0.5
 30
0.0
 11
-0.5
 21
0.5
 31
0.0
  0
LINE
  5
72
330
32
100
AcDbEntity
  8
0
  6
Continuous
 62
     0
100
AcDbLine
 10
-0.25
 20
0.25
 30
0.0
 11
0.25
 21
0.25
 31
0.0
  0
LINE
  5
73
330
32
100
AcDbEntity
  8
0
  6
Continuous
 62
     0
100
AcDbLine
 10
0.25
 20
0.25
 30
0.0
 11
0.25
 21
-0.25
 31
0.0
  0
LINE
  5
74
330
32
100
AcDbEntity
  8
0
  6
Continuous
 62
     0
100
AcDbLine
 10
0.25
 20
-0.25
 30
0.0
 11
-0.25
 21
-0.25
 31
0.0
  0
LINE
  5
75
330
32
100
AcDbEntity
  8
0
  6
Continuous
 62
     0
100
AcDbLine
 10
-0.25
 20
-0.25
 30
0.0
 11
-0.25
 21
0.25
 31
0.0
  0
ENDBLK
  5
76
330
32
100
AcDbEntity
  8
0
100
AcDbBlockEnd
  0
BLOCK
  5
77
330
33
100
AcDbEntity
  8
0
100
AcDbBlockBegin
  2
_EX_WBOX
 70
     0
 10
0.0
 20
0.0
 30
0.0
  3
_EX_WBOX
  1

  0
LINE
  5
78
330
33
100
AcDbEntity
  8
0
  6
Continuous
 62
     0
100
AcDbLine
 10
-0.5
 20
0.0
 30
0.0
 11
-1.0
 21
0.0
 31
0.0
  0
LINE
  5
79
330
33
100
AcDbEntity
  8
0
  6
Continuous
 62
     0
100
AcDbLine
 10
-0.5
 20
0.5
 30
0.0
 11
0.5
 21
0.5
 31
0.0
  0
LINE
  5
7A
330
33
100
AcDbEntity
  8
0
  6
Continuous
 62
     0
100
AcDbLine
 10
0.5
 20
0.5
 30
0.0
 11
0.5
 21
-0.5
 31
0.0
  0
LINE
  5
7B
330
33
100
AcDbEntity
  8
0
  6
Continuous
 62
     0
100
AcDbLine
 10
0.5
 20
-0.5
 30
0.0
 11
-0.5
 21
-0.5
 31
0.0
  0
LINE
  5
7C
330
33
100
AcDbEntity
  8
0
  6
Continuous
 62
     0
100
AcDbLine
 10
-0.5
 20
-0.5
 30
0.0
 11
-0.5
 21
0.5
 31
0.0
  0
ENDBLK
  5
7D
330
33
100
AcDbEntity
  8
0
100
AcDbBlockEnd
  0
BLOCK
  5
7E
330
34
100
AcDbEntity
  8
0
100
AcDbBlockBegin
  2
_EX_INTEGRAL
 70
     0
 10
0.0
 20
0.0
 30
0.0
  3
_EX_INTEGRAL
  1

  0
LINE
  5
7F
330
34
100
AcDbEntity
  8
0
  6
Continuous
 62
     0
100
AcDbLine
 10
0.0
 20
0.0
 30
0.0
 11
-1.0
 21
0.0
 31
0.0
  0
ARC
  5
80
330
34
100
AcDbEntity
  8
0
  6
Continuous
 62
     0
100
AcDbCircle
 10
0.0
 20
0.0
 30
0.0
 40
0.7071069999999999
100
AcDbArc
 50
90.0
 51
180.0
  0
ARC
  5
81
330
34
100
AcDbEntity
  8
0
  6
Continuous
 62
     0
100
AcDbCircle
 10
0.0
 20
0.0
 30
0.0
 40
0.7071069999999999
100
AcDbArc
 50
270.0
 51
0.0
  0
ENDBLK
  5
82
330
34
100
AcDbEntity
  8
0
100
AcDbBlockEnd
  0
BLOCK
  5
3EF
330
3EE
100
AcDbEntity
  8
0
100
AcDbBlockBegin
  2
_OPEN30
 70
     0
 10
0.0
 20
0.0
 30
0.0
  3
_OPEN30
  1

  0
LINE
  5
3F0
330
3EE
100
AcDbEntity
  8
0
  6
ByBlock
 62
     0
380
     1
100
AcDbLine
 10
-1.0
 20
0.26794919
 30
0.0
 11
0.0
 21
0.0
 31
0.0
  0
LINE
  5
3F1
330
3EE
100
AcDbEntity
  8
0
  6
ByBlock
 62
     0
380
     1
100
AcDbLine
 10
0.0
 20
0.0
 30
0.0
 11
-1.0
 21
-0.26794919
 31
0.0
  0
LINE
  5
3F2
330
3EE
100
AcDbEntity
  8
0
  6
ByBlock
 62
     0
380
     1
100
AcDbLine
 10
0.0
 20
0.0
 30
0.0
 11
-1.0
 21
0.0
 31
0.0
  0
ENDBLK
  5
3F3
330
3EE
100
AcDbEntity
  8
0
100
AcDbBlockEnd
  0
BLOCK
  5
455
330
454
100
AcDbEntity
  8
0
100
AcDbBlockBegin
  2
*D17
 70
     1
 10
0.0
 20
0.0
 30
0.0
  3
*D17
  1

  0
LINE
  5
457
330
454
100
AcDbEntity
  8
LAY-1
  6
Continuous
 62
     0
370
    -2
100
AcDbLine
 10
0.8234165000000079
 20
83.87200000000005
 30
0.0
 11
-5.283862828850651
 21
83.87200000000005
 31
0.0
  0
LINE
  5
458
330
454
100
AcDbEntity
  8
LAY-1
  6
Continuous
 62
     0
370
    -2
100
AcDbLine
 10
0.8234165000000079
 20
96.37200000000007
 30
0.0
 11
-5.283862828850653
 21
96.37200000000007
 31
0.0
  0
LINE
  5
459
330
454
100
AcDbEntity
  8
LAY-1
  6
Continuous
 62
     0
370
    -2
100
AcDbLine
 10
-5.103862828850651
 20
84.05200000000005
 30
0.0
 11
-5.103862828850652
 21
89.94200000000004
 31
0.0
  0
LINE
  5
45A
330
454
100
AcDbEntity
  8
LAY-1
  6
Continuous
 62
     0
370
    -2
100
AcDbLine
 10
-5.103862828850654
 20
96.19200000000006
 30
0.0
 11
-5.103862828850653
 21
90.30200000000005
 31
0.0
  0
SOLID
  5
45B
330
454
100
AcDbEntity
  8
LAY-1
  6
Continuous
 62
     0
100
AcDbTrace
 10
-5.133862828850651
 20
84.05200000000005
 30
0.0
 11
-5.073862828850651
 21
84.05200000000005
 31
0.0
 12
-5.103862828850651
 22
83.87200000000005
 32
0.0
 13
-5.103862828850651
 23
83.87200000000005
 33
0.0
  0
SOLID
  5
45C
330
454
100
AcDbEntity
  8
LAY-1
  6
Continuous
 62
     0
100
AcDbTrace
 10
-5.133862828850654
 20
96.19200000000006
 30
0.0
 11
-5.073862828850653
 21
96.19200000000006
 31
0.0
 12
-5.103862828850654
 22
96.37200000000007
 32
0.0
 13
-5.103862828850654
 23
96.37200000000007
 33
0.0
  0
MTEXT
  5
45D
330
454
100
AcDbEntity
  8
LAY-1
  6
Continuous
 62
     0
100
AcDbMText
 10
-5.103862828850626
 20
90.12200000000005
 30
0.0
 40
0.18
 41
0.0
 71
     5
 72
     1
  1
\A1;12.5000
 73
     1
 44
1.0
1001
ACAD
1000
MTEXTBEGIN
1070
    73
1070
     1
1070
    44
1040
1.0
1070
    74
1070
     0
1000
MTEXTEND
  0
POINT
  5
45E
330
454
100
AcDbEntity
  8
Defpoints
  6
Continuous
 62
     0
100
AcDbPoint
 10
0.8859165000000079
 20
83.87200000000005
 30
0.0
  0
POINT
  5
45F
330
454
100
AcDbEntity
  8
Defpoints
  6
Continuous
 62
     0
100
AcDbPoint
 10
0.8859165000000079
 20
96.37200000000007
 30
0.0
  0
POINT
  5
460
330
454
100
AcDbEntity
  8
Defpoints
  6
Continuous
 62
     0
100
AcDbPoint
 10
-5.103862828850654
 20
96.37200000000007
 30
0.0
  0
ENDBLK
  5
456
330
454
100
AcDbEntity
  8
0
100
AcDbBlockEnd
  0
BLOCK
  5
463
330
462
100
AcDbEntity
  8
0
100
AcDbBlockBegin
  2
*D18
 70
     1
 10
0.0
 20
0.0
 30
0.0
  3
*D18
  1

  0
LINE
  5
465
330
462
100
AcDbEntity
  8
LAY-1
  6
Continuous
 62
     0
370
    -2
100
AcDbLine
 10
0.4859165000000161
 20
92.88449999999995
 30
0.0
 11
0.4859165000000166
 21
99.97044902378007
 31
0.0
  0
LINE
  5
466
330
462
100
AcDbEntity
  8
LAY-1
  6
Continuous
 62
     0
370
    -2
100
AcDbLine
 10
10.48591650000001
 20
92.88449999999995
 30
0.0
 11
10.48591650000001
 21
99.97044902378007
 31
0.0
  0
LINE
  5
467
330
462
100
AcDbEntity
  8
LAY-1
  6
Continuous
 62
     0
370
    -2
100
AcDbLine
 10
0.6659165000000165
 20
99.79044902378007
 30
0.0
 11
4.795916500000016
 21
99.79044902378007
 31
0.0
  0
LINE
  5
468
330
462
100
AcDbEntity
  8
LAY-1
  6
Continuous
 62
     0
370
    -2
100
AcDbLine
 10
10.30591650000001
 20
99.79044902378007
 30
0.0
 11
6.175916500000015
 21
99.79044902378007
 31
0.0
  0
SOLID
  5
469
330
462
100
AcDbEntity
  8
LAY-1
  6
Continuous
 62
     0
100
AcDbTrace
 10
0.6659165000000165
 20
99.82044902378007
 30
0.0
 11
0.6659165000000165
 21
99.76044902378006
 31
0.0
 12
0.4859165000000166
 22
99.79044902378007
 32
0.0
 13
0.4859165000000166
 23
99.79044902378007
 33
0.0
  0
SOLID
  5
46A
330
462
100
AcDbEntity
  8
LAY-1
  6
Continuous
 62
     0
100
AcDbTrace
 10
10.30591650000001
 20
99.82044902378007
 30
0.0
 11
10.30591650000001
 21
99.76044902378006
 31
0.0
 12
10.48591650000001
 22
99.79044902378007
 32
0.0
 13
10.48591650000001
 23
99.79044902378007
 33
0.0
  0
MTEXT
  5
46B
330
462
100
AcDbEntity
  8
LAY-1
  6
Continuous
 62
     0
100
AcDbMText
 10
5.485916500000016
 20
99.79044902378007
 30
0.0
 40
0.18
 41
0.0
 71
     5
 72
     1
  1
\A1;10.0000
 73
     1
 44
1.0
1001
ACAD
1000
MTEXTBEGIN
1070
    73
1070
     1
1070
    44
1040
1.0
1070
    74
1070
     0
1000
MTEXTEND
  0
POINT
  5
46C
330
462
100
AcDbEntity
  8
Defpoints
  6
Continuous
 62
     0
100
AcDbPoint
 10
0.4859165000000161
 20
92.82199999999994
 30
0.0
  0
POINT
  5
46D
330
462
100
AcDbEntity
  8
Defpoints
  6
Continuous
 62
     0
100
AcDbPoint
 10
10.48591650000001
 20
92.82199999999994
 30
0.0
  0
POINT
  5
46E
330
462
100
AcDbEntity
  8
Defpoints
  6
Continuous
 62
     0
100
AcDbPoint
 10
10.48591650000001
 20
99.79044902378007
 30
0.0
  0
ENDBLK
  5
464
330
462
100
AcDbEntity
  8
0
100
AcDbBlockEnd
  0
ENDSEC
  0
SECTION
  2
ENTITIES
  0
LINE
  5
83
330
A
100
AcDbEntity
  8
LAY-1
  6
Continuous
 62
     2
100
AcDbLine
 10
89.22262449999999
 20
191.5
 30
0.0
 11
90.67520849999999
 21
191.5
 31
0.0
  0
LINE
  5
84
330
A
100
AcDbEntity
  8
LAY-1
  6
Continuous
 62
     2
100
AcDbLine
 10
88.19107650000001
 20
191.25
 30
0.0
 11
91.70675649999997
 21
191.25
 31
0.0
  0
LINE
  5
85
330
A
100
AcDbEntity
  8
LAY-1
  6
Continuous
 62
     2
100
AcDbLine
 10
87.5978525
 20
191.0
 30
0.0
 11
92.29998049999998
 21
191.0
 31
0.0
  0
LINE
  5
86
330
A
100
AcDbEntity
  8
LAY-1
  6
Continuous
 62
     2
100
AcDbLine
 10
87.1489165
 20
190.75
 30
0.0
 11
92.74891649999998
 21
190.75
 31
0.0
  0
LINE
  5
87
330
A
100
AcDbEntity
  8
LAY-1
  6
Continuous
 62
     2
100
AcDbLine
 10
86.7822935
 20
190.5
 30
0.0
 11
93.1155395
 21
190.5
 31
0.0
  0
LINE
  5
88
330
A
100
AcDbEntity
  8
LAY-1
  6
Continuous
 62
     2
100
AcDbLine
 10
86.4718485
 20
190.25
 30
0.0
 11
93.42598449999998
 21
190.25
 31
0.0
  0
LINE
  5
89
330
A
100
AcDbEntity
  8
LAY-1
  6
Continuous
 62
     2
100
AcDbLine
 10
77.44891649999999
 20
190.0
 30
0.0
 11
85.50467349999999
 21
190.0
 31
0.0
  0
LINE
  5
8A
330
A
100
AcDbEntity
  8
LAY-1
  6
Continuous
 62
     2
100
AcDbLine
 10
86.20358649999998
 20
190.0
 30
0.0
 11
93.69424649999999
 21
190.0
 31
0.0
  0
LINE
  5
8B
330
A
100
AcDbEntity
  8
LAY-1
  6
Continuous
 62
     2
100
AcDbLine
 10
94.39315949999999
 20
190.0
 30
0.0
 11
100.4489165
 21
190.0
 31
0.0
  0
LINE
  5
8C
330
A
100
AcDbEntity
  8
LAY-1
  6
Continuous
 62
     2
100
AcDbLine
 10
101.2989165
 20
190.0
 30
0.0
 11
107.9989165
 21
190.0
 31
0.0
  0
LINE
  5
8D
330
A
100
AcDbEntity
  8
LAY-1
  6
Continuous
 62
     2
100
AcDbLine
 10
108.7489165
 20
190.0
 30
0.0
 11
110.4489165
 21
190.0
 31
0.0
  0
LINE
  5
8E
330
A
100
AcDbEntity
  8
LAY-1
  6
Continuous
 62
     2
100
AcDbLine
 10
113.9489165
 20
190.0
 30
0.0
 11
115.6489165
 21
190.0
 31
0.0
  0
LINE
  5
8F
330
A
100
AcDbEntity
  8
LAY-1
  6
Continuous
 62
     2
100
AcDbLine
 10
77.44891649999999
 20
189.75
 30
0.0
 11
85.30523249999999
 21
189.75
 31
0.0
  0
LINE
  5
90
330
A
100
AcDbEntity
  8
LAY-1
  6
Continuous
 62
     2
100
AcDbLine
 10
85.96896649999999
 20
189.75
 30
0.0
 11
93.92886649999999
 21
189.75
 31
0.0
  0
LINE
  5
91
330
A
100
AcDbEntity
  8
LAY-1
  6
Continuous
 62
     2
100
AcDbLine
 10
94.59260050000001
 20
189.75
 30
0.0
 11
100.4489165
 21
189.75
 31
0.0
  0
LINE
  5
92
330
A
100
AcDbEntity
  8
LAY-1
  6
Continuous
 62
     2
100
AcDbLine
 10
101.2989165
 20
189.75
 30
0.0
 11
107.9989165
 21
189.75
 31
0.0
  0
LINE
  5
93
330
A
100
AcDbEntity
  8
LAY-1
  6
Continuous
 62
     2
100
AcDbLine
 10
108.7489165
 20
189.75
 30
0.0
 11
110.6134385
 21
189.75
 31
0.0
  0
LINE
  5
94
330
A
100
AcDbEntity
  8
LAY-1
  6
Continuous
 62
     2
100
AcDbLine
 10
113.9489165
 20
189.75
 30
0.0
 11
115.6489165
 21
189.75
 31
0.0
  0
LINE
  5
95
330
A
100
AcDbEntity
  8
LAY-1
  6
Continuous
 62
     2
100
AcDbLine
 10
77.44891649999999
 20
189.5
 30
0.0
 11
85.12695649999997
 21
189.5
 31
0.0
  0
LINE
  5
96
330
A
100
AcDbEntity
  8
LAY-1
  6
Continuous
 62
     2
100
AcDbLine
 10
85.76233049999997
 20
189.5
 30
0.0
 11
88.6498785
 21
189.5
 31
0.0
  0
LINE
  5
97
330
A
100
AcDbEntity
  8
LAY-1
  6
Continuous
 62
     2
100
AcDbLine
 10
91.24795449999998
 20
189.5
 30
0.0
 11
94.1355025
 21
189.5
 31
0.0
  0
LINE
  5
98
330
A
100
AcDbEntity
  8
LAY-1
  6
Continuous
 62
     2
100
AcDbLine
 10
94.77087649999999
 20
189.5
 30
0.0
 11
100.4489165
 21
189.5
 31
0.0
  0
LINE
  5
99
330
A
100
AcDbEntity
  8
LAY-1
  6
Continuous
 62
     2
100
AcDbLine
 10
101.2989165
 20
189.5
 30
0.0
 11
107.9989165
 21
189.5
 31
0.0
  0
LINE
  5
9A
330
A
100
AcDbEntity
  8
LAY-1
  6
Continuous
 62
     2
100
AcDbLine
 10
108.7489165
 20
189.5
 30
0.0
 11
110.7779605
 21
189.5
 31
0.0
  0
LINE
  5
9B
330
A
100
AcDbEntity
  8
LAY-1
  6
Continuous
 62
     2
100
AcDbLine
 10
113.9489165
 20
189.5
 30
0.0
 11
115.6489165
 21
189.5
 31
0.0
  0
LINE
  5
9C
330
A
100
AcDbEntity
  8
LAY-1
  6
Continuous
 62
     2
100
AcDbLine
 10
77.44891649999999
 20
189.25
 30
0.0
 11
84.96757149999998
 21
189.25
 31
0.0
  0
LINE
  5
9D
330
A
100
AcDbEntity
  8
LAY-1
  6
Continuous
 62
     2
100
AcDbLine
 10
85.57970649999999
 20
189.25
 30
0.0
 11
88.14614049999999
 21
189.25
 31
0.0
  0
LINE
  5
9E
330
A
100
AcDbEntity
  8
LAY-1
  6
Continuous
 62
     2
100
AcDbLine
 10
91.75169249999999
 20
189.25
 30
0.0
 11
94.31812650000001
 21
189.25
 31
0.0
  0
LINE
  5
9F
330
A
100
AcDbEntity
  8
LAY-1
  6
Continuous
 62
     2
100
AcDbLine
 10
94.93026149999998
 20
189.25
 30
0.0
 11
100.4489165
 21
189.25
 31
0.0
  0
LINE
  5
A0
330
A
100
AcDbEntity
  8
LAY-1
  6
Continuous
 62
     2
100
AcDbLine
 10
101.2989165
 20
189.25
 30
0.0
 11
107.9989165
 21
189.25
 31
0.0
  0
LINE
  5
A1
330
A
100
AcDbEntity
  8
LAY-1
  6
Continuous
 62
     2
100
AcDbLine
 10
108.7489165
 20
189.25
 30
0.0
 11
110.9424825
 21
189.25
 31
0.0
  0
LINE
  5
A2
330
A
100
AcDbEntity
  8
LAY-1
  6
Continuous
 62
     2
100
AcDbLine
 10
113.9489165
 20
189.25
 30
0.0
 11
115.6489165
 21
189.25
 31
0.0
  0
LINE
  5
A3
330
A
100
AcDbEntity
  8
LAY-1
  6
Continuous
 62
     2
100
AcDbLine
 10
77.44891649999999
 20
189.0
 30
0.0
 11
84.82531449999999
 21
189.0
 31
0.0
  0
LINE
  5
A4
330
A
100
AcDbEntity
  8
LAY-1
  6
Continuous
 62
     2
100
AcDbLine
 10
85.41818849999998
 20
189.0
 30
0.0
 11
87.78385250000001
 21
189.0
 31
0.0
  0
LINE
  5
A5
330
A
100
AcDbEntity
  8
LAY-1
  6
Continuous
 62
     2
100
AcDbLine
 10
92.11398049999997
 20
189.0
 30
0.0
 11
94.47964449999998
 21
189.0
 31
0.0
  0
LINE
  5
A6
330
A
100
AcDbEntity
  8
LAY-1
  6
Continuous
 62
     2
100
AcDbLine
 10
95.07251850000001
 20
189.0
 30
0.0
 11
100.4489165
 21
189.0
 31
0.0
  0
LINE
  5
A7
330
A
100
AcDbEntity
  8
LAY-1
  6
Continuous
 62
     2
100
AcDbLine
 10
101.2989165
 20
189.0
 30
0.0
 11
107.9989165
 21
189.0
 31
0.0
  0
LINE
  5
A8
330
A
100
AcDbEntity
  8
LAY-1
  6
Continuous
 62
     2
100
AcDbLine
 10
108.7489165
 20
189.0
 30
0.0
 11
111.1070044999999
 21
189.0
 31
0.0
  0
LINE
  5
A9
330
A
100
AcDbEntity
  8
LAY-1
  6
Continuous
 62
     2
100
AcDbLine
 10
113.9489165
 20
189.0
 30
0.0
 11
115.6489165
 21
189.0
 31
0.0
  0
LINE
  5
AA
330
A
100
AcDbEntity
  8
LAY-1
  6
Continuous
 62
     2
100
AcDbLine
 10
77.44891649999999
 20
188.75
 30
0.0
 11
84.69879249999999
 21
188.75
 31
0.0
  0
LINE
  5
AB
330
A
100
AcDbEntity
  8
LAY-1
  6
Continuous
 62
     2
100
AcDbLine
 10
85.27558749999998
 20
188.75
 30
0.0
 11
87.49942649999999
 21
188.75
 31
0.0
  0
LINE
  5
AC
330
A
100
AcDbEntity
  8
LAY-1
  6
Continuous
 62
     2
100
AcDbLine
 10
89.06999650000001
 20
188.75
 30
0.0
 11
90.82783649999999
 21
188.75
 31
0.0
  0
LINE
  5
AD
330
A
100
AcDbEntity
  8
LAY-1
  6
Continuous
 62
     2
100
AcDbLine
 10
92.39840649999997
 20
188.75
 30
0.0
 11
94.6222455
 21
188.75
 31
0.0
  0
LINE
  5
AE
330
A
100
AcDbEntity
  8
LAY-1
  6
Continuous
 62
     2
100
AcDbLine
 10
95.19904049999999
 20
188.75
 30
0.0
 11
100.4489165
 21
188.75
 31
0.0
  0
LINE
  5
AF
330
A
100
AcDbEntity
  8
LAY-1
  6
Continuous
 62
     2
100
AcDbLine
 10
101.2989165
 20
188.75
 30
0.0
 11
107.9989165
 21
188.75
 31
0.0
  0
LINE
  5
B0
330
A
100
AcDbEntity
  8
LAY-1
  6
Continuous
 62
     2
100
AcDbLine
 10
108.7489165
 20
188.75
 30
0.0
 11
111.2715265
 21
188.75
 31
0.0
  0
LINE
  5
B1
330
A
100
AcDbEntity
  8
LAY-1
  6
Continuous
 62
     2
100
AcDbLine
 10
113.9489165
 20
188.75
 30
0.0
 11
115.6489165
 21
188.75
 31
0.0
  0
LINE
  5
B2
330
A
100
AcDbEntity
  8
LAY-1
  6
Continuous
 62
     2
100
AcDbLine
 10
77.44891649999999
 20
188.5
 30
0.0
 11
84.58689249999999
 21
188.5
 31
0.0
  0
LINE
  5
B3
330
A
100
AcDbEntity
  8
LAY-1
  6
Continuous
 62
     2
100
AcDbLine
 10
85.1502185
 20
188.5
 30
0.0
 11
87.26796549999999
 21
188.5
 31
0.0
  0
LINE
  5
B4
330
A
100
AcDbEntity
  8
LAY-1
  6
Continuous
 62
     2
100
AcDbLine
 10
88.54891649999999
 20
188.5
 30
0.0
 11
91.34891649999998
 21
188.5
 31
0.0
  0
LINE
  5
B5
330
A
100
AcDbEntity
  8
LAY-1
  6
Continuous
 62
     2
100
AcDbLine
 10
92.62986749999999
 20
188.5
 30
0.0
 11
94.7476145
 21
188.5
 31
0.0
  0
LINE
  5
B6
330
A
100
AcDbEntity
  8
LAY-1
  6
Continuous
 62
     2
100
AcDbLine
 10
95.31094049999998
 20
188.5
 30
0.0
 11
100.4489165
 21
188.5
 31
0.0
  0
LINE
  5
B7
330
A
100
AcDbEntity
  8
LAY-1
  6
Continuous
 62
     2
100
AcDbLine
 10
101.2989165
 20
188.5
 30
0.0
 11
107.9989165
 21
188.5
 31
0.0
  0
LINE
  5
B8
330
A
100
AcDbEntity
  8
LAY-1
  6
Continuous
 62
     2
100
AcDbLine
 10
108.7489165
 20
188.5
 30
0.0
 11
111.4360485
 21
188.5
 31
0.0
  0
LINE
  5
B9
330
A
100
AcDbEntity
  8
LAY-1
  6
Continuous
 62
     2
100
AcDbLine
 10
113.9489165
 20
188.5
 30
0.0
 11
115.6489165
 21
188.5
 31
0.0
  0
LINE
  5
BA
330
A
100
AcDbEntity
  8
LAY-1
  6
Continuous
 62
     2
100
AcDbLine
 10
80.94891649999999
 20
188.25
 30
0.0
 11
82.69891649999999
 21
188.25
 31
0.0
  0
LINE
  5
BB
330
A
100
AcDbEntity
  8
LAY-1
  6
Continuous
 62
     2
100
AcDbLine
 10
85.0407605
 20
188.25
 30
0.0
 11
87.07663549999997
 21
188.25
 31
0.0
  0
LINE
  5
BC
330
A
100
AcDbEntity
  8
LAY-1
  6
Continuous
 62
     2
100
AcDbLine
 10
88.21038249999999
 20
188.25
 30
0.0
 11
91.6874505
 21
188.25
 31
0.0
  0
LINE
  5
BD
330
A
100
AcDbEntity
  8
LAY-1
  6
Continuous
 62
     2
100
AcDbLine
 10
92.82119749999999
 20
188.25
 30
0.0
 11
94.8570725
 21
188.25
 31
0.0
  0
LINE
  5
BE
330
A
100
AcDbEntity
  8
LAY-1
  6
Continuous
 62
     2
100
AcDbLine
 10
98.52043649999998
 20
188.25
 30
0.0
 11
100.4489165
 21
188.25
 31
0.0
  0
LINE
  5
BF
330
A
100
AcDbEntity
  8
LAY-1
  6
Continuous
 62
     2
100
AcDbLine
 10
101.2989165
 20
188.25
 30
0.0
 11
103.0489165
 21
188.25
 31
0.0
  0
LINE
  5
C0
330
A
100
AcDbEntity
  8
LAY-1
  6
Continuous
 62
     2
100
AcDbLine
 10
108.7489165
 20
188.25
 30
0.0
 11
111.6005705
 21
188.25
 31
0.0
  0
LINE
  5
C1
330
A
100
AcDbEntity
  8
LAY-1
  6
Continuous
 62
     2
100
AcDbLine
 10
113.9489165
 20
188.25
 30
0.0
 11
115.6489165
 21
188.25
 31
0.0
  0
LINE
  5
C2
330
A
100
AcDbEntity
  8
LAY-1
  6
Continuous
 62
     2
100
AcDbLine
 10
80.94891649999999
 20
188.0
 30
0.0
 11
82.69891649999999
 21
188.0
 31
0.0
  0
LINE
  5
C3
330
A
100
AcDbEntity
  8
LAY-1
  6
Continuous
 62
     2
100
AcDbLine
 10
84.94616749999998
 20
188.0
 30
0.0
 11
86.91782749999999
 21
188.0
 31
0.0
  0
LINE
  5
C4
330
A
100
AcDbEntity
  8
LAY-1
  6
Continuous
 62
     2
100
AcDbLine
 10
87.9589415
 20
188.0
 30
0.0
 11
91.9388915
 21
188.0
 31
0.0
  0
LINE
  5
C5
330
A
100
AcDbEntity
  8
LAY-1
  6
Continuous
 62
     2
100
AcDbLine
 10
92.98000549999997
 20
188.0
 30
0.0
 11
94.95166549999998
 21
188.0
 31
0.0
  0
LINE
  5
C6
330
A
100
AcDbEntity
  8
LAY-1
  6
Continuous
 62
     2
100
AcDbLine
 10
98.29506249999999
 20
188.0
 30
0.0
 11
100.2235415
 21
188.0
 31
0.0
  0
LINE
  5
C7
330
A
100
AcDbEntity
  8
LAY-1
  6
Continuous
 62
     2
100
AcDbLine
 10
101.2989165
 20
188.0
 30
0.0
 11
103.0489165
 21
188.0
 31
0.0
  0
LINE
  5
C8
330
A
100
AcDbEntity
  8
LAY-1
  6
Continuous
 62
     2
100
AcDbLine
 10
108.7489165
 20
188.0
 30
0.0
 11
111.7650925
 21
188.0
 31
0.0
  0
LINE
  5
C9
330
A
100
AcDbEntity
  8
LAY-1
  6
Continuous
 62
     2
100
AcDbLine
 10
113.9489165
 20
188.0
 30
0.0
 11
115.6489165
 21
188.0
 31
0.0
  0
LINE
  5
CA
330
A
100
AcDbEntity
  8
LAY-1
  6
Continuous
 62
     2
100
AcDbLine
 10
80.94891649999999
 20
187.75
 30
0.0
 11
82.69891649999999
 21
187.75
 31
0.0
  0
LINE
  5
CB
330
A
100
AcDbEntity
  8
LAY-1
  6
Continuous
 62
     2
100
AcDbLine
 10
84.86561049999998
 20
187.75
 30
0.0
 11
86.78663849999999
 21
187.75
 31
0.0
  0
LINE
  5
CC
330
A
100
AcDbEntity
  8
LAY-1
  6
Continuous
 62
     2
100
AcDbLine
 10
87.76431149999998
 20
187.75
 30
0.0
 11
92.1335215
 21
187.75
 31
0.0
  0
LINE
  5
CD
330
A
100
AcDbEntity
  8
LAY-1
  6
Continuous
 62
     2
100
AcDbLine
 10
93.11119449999999
 20
187.75
 30
0.0
 11
95.0322225
 21
187.75
 31
0.0
  0
LINE
  5
CE
330
A
100
AcDbEntity
  8
LAY-1
  6
Continuous
 62
     2
100
AcDbLine
 10
98.06968749999999
 20
187.75
 30
0.0
 11
99.9981675
 21
187.75
 31
0.0
  0
LINE
  5
CF
330
A
100
AcDbEntity
  8
LAY-1
  6
Continuous
 62
     2
100
AcDbLine
 10
101.2989165
 20
187.75
 30
0.0
 11
103.0489165
 21
187.75
 31
0.0
  0
LINE
  5
D0
330
A
100
AcDbEntity
  8
LAY-1
  6
Continuous
 62
     2
100
AcDbLine
 10
108.7489165
 20
187.75
 30
0.0
 11
110.4489165
 21
187.75
 31
0.0
  0
LINE
  5
D1
330
A
100
AcDbEntity
  8
LAY-1
  6
Continuous
 62
     2
100
AcDbLine
 10
110.4939535
 20
187.75
 30
0.0
 11
111.9296155
 21
187.75
 31
0.0
  0
LINE
  5
D2
330
A
100
AcDbEntity
  8
LAY-1
  6
Continuous
 62
     2
100
AcDbLine
 10
113.9489165
 20
187.75
 30
0.0
 11
115.6489165
 21
187.75
 31
0.0
  0
LINE
  5
D3
330
A
100
AcDbEntity
  8
LAY-1
  6
Continuous
 62
     2
100
AcDbLine
 10
80.94891649999999
 20
187.5
 30
0.0
 11
82.69891649999999
 21
187.5
 31
0.0
  0
LINE
  5
D4
330
A
100
AcDbEntity
  8
LAY-1
  6
Continuous
 62
     2
100
AcDbLine
 10
84.79843149999998
 20
187.5
 30
0.0
 11
86.67974249999998
 21
187.5
 31
0.0
  0
LINE
  5
D5
330
A
100
AcDbEntity
  8
LAY-1
  6
Continuous
 62
     2
100
AcDbLine
 10
87.6122525
 20
187.5
 30
0.0
 11
92.28558049999998
 21
187.5
 31
0.0
  0
LINE
  5
D6
330
A
100
AcDbEntity
  8
LAY-1
  6
Continuous
 62
     2
100
AcDbLine
 10
93.21809049999998
 20
187.5
 30
0.0
 11
95.0994015
 21
187.5
 31
0.0
  0
LINE
  5
D7
330
A
100
AcDbEntity
  8
LAY-1
  6
Continuous
 62
     2
100
AcDbLine
 10
97.84431249999999
 20
187.5
 30
0.0
 11
99.7727925
 21
187.5
 31
0.0
  0
LINE
  5
D8
330
A
100
AcDbEntity
  8
LAY-1
  6
Continuous
 62
     2
100
AcDbLine
 10
101.2989165
 20
187.5
 30
0.0
 11
103.0489165
 21
187.5
 31
0.0
  0
LINE
  5
D9
330
A
100
AcDbEntity
  8
LAY-1
  6
Continuous
 62
     2
100
AcDbLine
 10
108.7489165
 20
187.5
 30
0.0
 11
110.4489165
 21
187.5
 31
0.0
  0
LINE
  5
DA
330
A
100
AcDbEntity
  8
LAY-1
  6
Continuous
 62
     2
100
AcDbLine
 10
110.6584755
 20
187.5
 30
0.0
 11
112.0941375
 21
187.5
 31
0.0
  0
LINE
  5
DB
330
A
100
AcDbEntity
  8
LAY-1
  6
Continuous
 62
     2
100
AcDbLine
 10
113.9489165
 20
187.5
 30
0.0
 11
115.6489165
 21
187.5
 31
0.0
  0
LINE
  5
DC
330
A
100
AcDbEntity
  8
LAY-1
  6
Continuous
 62
     2
100
AcDbLine
 10
80.94891649999999
 20
187.25
 30
0.0
 11
82.69891649999999
 21
187.25
 31
0.0
  0
LINE
  5
DD
330
A
100
AcDbEntity
  8
LAY-1
  6
Continuous
 62
     2
100
AcDbLine
 10
84.74411149999999
 20
187.25
 30
0.0
 11
86.59481449999999
 21
187.25
 31
0.0
  0
LINE
  5
DE
330
A
100
AcDbEntity
  8
LAY-1
  6
Continuous
 62
     2
100
AcDbLine
 10
87.49483849999998
 20
187.25
 30
0.0
 11
92.4029945
 21
187.25
 31
0.0
  0
LINE
  5
DF
330
A
100
AcDbEntity
  8
LAY-1
  6
Continuous
 62
     2
100
AcDbLine
 10
93.30301849999999
 20
187.25
 30
0.0
 11
95.15372150000001
 21
187.25
 31
0.0
  0
LINE
  5
E0
330
A
100
AcDbEntity
  8
LAY-1
  6
Continuous
 62
     2
100
AcDbLine
 10
97.61893749999998
 20
187.25
 30
0.0
 11
99.5474175
 21
187.25
 31
0.0
  0
LINE
  5
E1
330
A
100
AcDbEntity
  8
LAY-1
  6
Continuous
 62
     2
100
AcDbLine
 10
101.2989165
 20
187.25
 30
0.0
 11
103.0489165
 21
187.25
 31
0.0
  0
LINE
  5
E2
330
A
100
AcDbEntity
  8
LAY-1
  6
Continuous
 62
     2
100
AcDbLine
 10
108.7489165
 20
187.25
 30
0.0
 11
110.4489165
 21
187.25
 31
0.0
  0
LINE
  5
E3
330
A
100
AcDbEntity
  8
LAY-1
  6
Continuous
 62
     2
100
AcDbLine
 10
110.8229975
 20
187.25
 30
0.0
 11
112.2586595
 21
187.25
 31
0.0
  0
LINE
  5
E4
330
A
100
AcDbEntity
  8
LAY-1
  6
Continuous
 62
     2
100
AcDbLine
 10
113.9489165
 20
187.25
 30
0.0
 11
115.6489165
 21
187.25
 31
0.0
  0
LINE
  5
E5
330
A
100
AcDbEntity
  8
LAY-1
  6
Continuous
 62
     2
100
AcDbLine
 10
80.94891649999999
 20
187.0
 30
0.0
 11
82.69891649999999
 21
187.0
 31
0.0
  0
LINE
  5
E6
330
A
100
AcDbEntity
  8
LAY-1
  6
Continuous
 62
     2
100
AcDbLine
 10
84.70225050000001
 20
187.0
 30
0.0
 11
86.53021749999998
 21
187.0
 31
0.0
  0
LINE
  5
E7
330
A
100
AcDbEntity
  8
LAY-1
  6
Continuous
 62
     2
100
AcDbLine
 10
87.40726349999999
 20
187.0
 30
0.0
 11
92.49056949999999
 21
187.0
 31
0.0
  0
LINE
  5
E8
330
A
100
AcDbEntity
  8
LAY-1
  6
Continuous
 62
     2
100
AcDbLine
 10
93.36761549999998
 20
187.0
 30
0.0
 11
95.19558249999999
 21
187.0
 31
0.0
  0
LINE
  5
E9
330
A
100
AcDbEntity
  8
LAY-1
  6
Continuous
 62
     2
100
AcDbLine
 10
97.39356349999999
 20
187.0
 30
0.0
 11
99.32204249999999
 21
187.0
 31
0.0
  0
LINE
  5
EA
330
A
100
AcDbEntity
  8
LAY-1
  6
Continuous
 62
     2
100
AcDbLine
 10
101.2989165
 20
187.0
 30
0.0
 11
107.9989165
 21
187.0
 31
0.0
  0
LINE
  5
EB
330
A
100
AcDbEntity
  8
LAY-1
  6
Continuous
 62
     2
100
AcDbLine
 10
108.7489165
 20
187.0
 30
0.0
 11
110.4489165
 21
187.0
 31
0.0
  0
LINE
  5
EC
330
A
100
AcDbEntity
  8
LAY-1
  6
Continuous
 62
     2
100
AcDbLine
 10
110.9875195
 20
187.0
 30
0.0
 11
112.4231815
 21
187.0
 31
0.0
  0
LINE
  5
ED
330
A
100
AcDbEntity
  8
LAY-1
  6
Continuous
 62
     2
100
AcDbLine
 10
113.9489165
 20
187.0
 30
0.0
 11
115.6489165
 21
187.0
 31
0.0
  0
LINE
  5
EE
330
A
100
AcDbEntity
  8
LAY-1
  6
Continuous
 62
     2
100
AcDbLine
 10
80.94891649999999
 20
186.75
 30
0.0
 11
82.69891649999999
 21
186.75
 31
0.0
  0
LINE
  5
EF
330
A
100
AcDbEntity
  8
LAY-1
  6
Continuous
 62
     2
100
AcDbLine
 10
84.67255449999997
 20
186.75
 30
0.0
 11
86.48481449999998
 21
186.75
 31
0.0
  0
LINE
  5
F0
330
A
100
AcDbEntity
  8
LAY-1
  6
Continuous
 62
     2
100
AcDbLine
 10
87.34651349999998
 20
186.75
 30
0.0
 11
92.55131949999999
 21
186.75
 31
0.0
  0
LINE
  5
F1
330
A
100
AcDbEntity
  8
LAY-1
  6
Continuous
 62
     2
100
AcDbLine
 10
93.41301849999998
 20
186.75
 30
0.0
 11
95.22527850000001
 21
186.75
 31
0.0
  0
LINE
  5
F2
330
A
100
AcDbEntity
  8
LAY-1
  6
Continuous
 62
     2
100
AcDbLine
 10
97.16818849999999
 20
186.75
 30
0.0
 11
99.0966685
 21
186.75
 31
0.0
  0
LINE
  5
F3
330
A
100
AcDbEntity
  8
LAY-1
  6
Continuous
 62
     2
100
AcDbLine
 10
101.2989165
 20
186.75
 30
0.0
 11
107.9989165
 21
186.75
 31
0.0
  0
LINE
  5
F4
330
A
100
AcDbEntity
  8
LAY-1
  6
Continuous
 62
     2
100
AcDbLine
 10
108.7489165
 20
186.75
 30
0.0
 11
110.4489165
 21
186.75
 31
0.0
  0
LINE
  5
F5
330
A
100
AcDbEntity
  8
LAY-1
  6
Continuous
 62
     2
100
AcDbLine
 10
111.1520414999999
 20
186.75
 30
0.0
 11
112.5877035
 21
186.75
 31
0.0
  0
LINE
  5
F6
330
A
100
AcDbEntity
  8
LAY-1
  6
Continuous
 62
     2
100
AcDbLine
 10
113.9489165
 20
186.75
 30
0.0
 11
115.6489165
 21
186.75
 31
0.0
  0
LINE
  5
F7
330
A
100
AcDbEntity
  8
LAY-1
  6
Continuous
 62
     2
100
AcDbLine
 10
80.94891649999999
 20
186.5
 30
0.0
 11
82.69891649999999
 21
186.5
 31
0.0
  0
LINE
  5
F8
330
A
100
AcDbEntity
  8
LAY-1
  6
Continuous
 62
     2
100
AcDbLine
 10
84.65481649999999
 20
186.5
 30
0.0
 11
86.45785649999998
 21
186.5
 31
0.0
  0
LINE
  5
F9
330
A
100
AcDbEntity
  8
LAY-1
  6
Continuous
 62
     2
100
AcDbLine
 10
87.31073549999999
 20
186.5
 30
0.0
 11
92.58709749999999
 21
186.5
 31
0.0
  0
LINE
  5
FA
330
A
100
AcDbEntity
  8
LAY-1
  6
Continuous
 62
     2
100
AcDbLine
 10
93.4399765
 20
186.5
 30
0.0
 11
95.24301649999999
 21
186.5
 31
0.0
  0
LINE
  5
FB
330
A
100
AcDbEntity
  8
LAY-1
  6
Continuous
 62
     2
100
AcDbLine
 10
96.94281349999998
 20
186.5
 30
0.0
 11
98.8712935
 21
186.5
 31
0.0
  0
LINE
  5
FC
330
A
100
AcDbEntity
  8
LAY-1
  6
Continuous
 62
     2
100
AcDbLine
 10
101.2989165
 20
186.5
 30
0.0
 11
107.9989165
 21
186.5
 31
0.0
  0
LINE
  5
FD
330
A
100
AcDbEntity
  8
LAY-1
  6
Continuous
 62
     2
100
AcDbLine
 10
108.7489165
 20
186.5
 30
0.0
 11
110.4489165
 21
186.5
 31
0.0
  0
LINE
  5
FE
330
A
100
AcDbEntity
  8
LAY-1
  6
Continuous
 62
     2
100
AcDbLine
 10
111.3165635
 20
186.5
 30
0.0
 11
112.7522255
 21
186.5
 31
0.0
  0
LINE
  5
FF
330
A
100
AcDbEntity
  8
LAY-1
  6
Continuous
 62
     2
100
AcDbLine
 10
113.9489165
 20
186.5
 30
0.0
 11
115.6489165
 21
186.5
 31
0.0
  0
LINE
  5
100
330
A
100
AcDbEntity
  8
LAY-1
  6
Continuous
 62
     2
100
AcDbLine
 10
80.94891649999999
 20
186.25
 30
0.0
 11
82.69891649999999
 21
186.25
 31
0.0
  0
LINE
  5
101
330
A
100
AcDbEntity
  8
LAY-1
  6
Continuous
 62
     2
100
AcDbLine
 10
84.6489165
 20
186.25
 30
0.0
 11
86.44891649999999
 21
186.25
 31
0.0
  0
LINE
  5
102
330
A
100
AcDbEntity
  8
LAY-1
  6
Continuous
 62
     2
100
AcDbLine
 10
87.29891649999999
 20
186.25
 30
0.0
 11
92.59891649999998
 21
186.25
 31
0.0
  0
LINE
  5
103
330
A
100
AcDbEntity
  8
LAY-1
  6
Continuous
 62
     2
100
AcDbLine
 10
93.44891649999999
 20
186.25
 30
0.0
 11
95.24891649999998
 21
186.25
 31
0.0
  0
LINE
  5
104
330
A
100
AcDbEntity
  8
LAY-1
  6
Continuous
 62
     2
100
AcDbLine
 10
96.71743849999998
 20
186.25
 30
0.0
 11
98.6459185
 21
186.25
 31
0.0
  0
LINE
  5
105
330
A
100
AcDbEntity
  8
LAY-1
  6
Continuous
 62
     2
100
AcDbLine
 10
101.2989165
 20
186.25
 30
0.0
 11
107.9989165
 21
186.25
 31
0.0
  0
LINE
  5
106
330
A
100
AcDbEntity
  8
LAY-1
  6
Continuous
 62
     2
100
AcDbLine
 10
108.7489165
 20
186.25
 30
0.0
 11
110.4489165
 21
186.25
 31
0.0
  0
LINE
  5
107
330
A
100
AcDbEntity
  8
LAY-1
  6
Continuous
 62
     2
100
AcDbLine
 10
111.4810855
 20
186.25
 30
0.0
 11
112.9167475
 21
186.25
 31
0.0
  0
LINE
  5
108
330
A
100
AcDbEntity
  8
LAY-1
  6
Continuous
 62
     2
100
AcDbLine
 10
113.9489165
 20
186.25
 30
0.0
 11
115.6489165
 21
186.25
 31
0.0
  0
LINE
  5
109
330
A
100
AcDbEntity
  8
LAY-1
  6
Continuous
 62
     2
100
AcDbLine
 10
80.94891649999999
 20
186.0
 30
0.0
 11
82.69891649999999
 21
186.0
 31
0.0
  0
LINE
  5
10A
330
A
100
AcDbEntity
  8
LAY-1
  6
Continuous
 62
     2
100
AcDbLine
 10
84.65481649999999
 20
186.0
 30
0.0
 11
86.45785649999998
 21
186.0
 31
0.0
  0
LINE
  5
10B
330
A
100
AcDbEntity
  8
LAY-1
  6
Continuous
 62
     2
100
AcDbLine
 10
87.31073549999999
 20
186.0
 30
0.0
 11
92.58709749999999
 21
186.0
 31
0.0
  0
LINE
  5
10C
330
A
100
AcDbEntity
  8
LAY-1
  6
Continuous
 62
     2
100
AcDbLine
 10
93.4399765
 20
186.0
 30
0.0
 11
95.24301649999999
 21
186.0
 31
0.0
  0
LINE
  5
10D
330
A
100
AcDbEntity
  8
LAY-1
  6
Continuous
 62
     2
100
AcDbLine
 10
96.49206450000001
 20
186.0
 30
0.0
 11
98.42054349999999
 21
186.0
 31
0.0
  0
LINE
  5
10E
330
A
100
AcDbEntity
  8
LAY-1
  6
Continuous
 62
     2
100
AcDbLine
 10
101.2989165
 20
186.0
 30
0.0
 11
107.9989165
 21
186.0
 31
0.0
  0
LINE
  5
10F
330
A
100
AcDbEntity
  8
LAY-1
  6
Continuous
 62
     2
100
AcDbLine
 10
108.7489165
 20
186.0
 30
0.0
 11
110.4489165
 21
186.0
 31
0.0
  0
LINE
  5
110
330
A
100
AcDbEntity
  8
LAY-1
  6
Continuous
 62
     2
100
AcDbLine
 10
111.6456075
 20
186.0
 30
0.0
 11
113.0812695
 21
186.0
 31
0.0
  0
LINE
  5
111
330
A
100
AcDbEntity
  8
LAY-1
  6
Continuous
 62
     2
100
AcDbLine
 10
113.9489165
 20
186.0
 30
0.0
 11
115.6489165
 21
186.0
 31
0.0
  0
LINE
  5
112
330
A
100
AcDbEntity
  8
LAY-1
  6
Continuous
 62
     2
100
AcDbLine
 10
80.94891649999999
 20
185.75
 30
0.0
 11
82.69891649999999
 21
185.75
 31
0.0
  0
LINE
  5
113
330
A
100
AcDbEntity
  8
LAY-1
  6
Continuous
 62
     2
100
AcDbLine
 10
84.67255449999997
 20
185.75
 30
0.0
 11
86.48481449999998
 21
185.75
 31
0.0
  0
LINE
  5
114
330
A
100
AcDbEntity
  8
LAY-1
  6
Continuous
 62
     2
100
AcDbLine
 10
87.34651349999998
 20
185.75
 30
0.0
 11
92.55131949999999
 21
185.75
 31
0.0
  0
LINE
  5
115
330
A
100
AcDbEntity
  8
LAY-1
  6
Continuous
 62
     2
100
AcDbLine
 10
93.41301849999998
 20
185.75
 30
0.0
 11
95.22527850000001
 21
185.75
 31
0.0
  0
LINE
  5
116
330
A
100
AcDbEntity
  8
LAY-1
  6
Continuous
 62
     2
100
AcDbLine
 10
96.26668949999999
 20
185.75
 30
0.0
 11
98.1951695
 21
185.75
 31
0.0
  0
LINE
  5
117
330
A
100
AcDbEntity
  8
LAY-1
  6
Continuous
 62
     2
100
AcDbLine
 10
101.2989165
 20
185.75
 30
0.0
 11
107.9989165
 21
185.75
 31
0.0
  0
LINE
  5
118
330
A
100
AcDbEntity
  8
LAY-1
  6
Continuous
 62
     2
100
AcDbLine
 10
108.7489165
 20
185.75
 30
0.0
 11
110.4489165
 21
185.75
 31
0.0
  0
LINE
  5
119
330
A
100
AcDbEntity
  8
LAY-1
  6
Continuous
 62
     2
100
AcDbLine
 10
111.8101294999999
 20
185.75
 30
0.0
 11
113.2457915
 21
185.75
 31
0.0
  0
LINE
  5
11A
330
A
100
AcDbEntity
  8
LAY-1
  6
Continuous
 62
     2
100
AcDbLine
 10
113.9489165
 20
185.75
 30
0.0
 11
115.6489165
 21
185.75
 31
0.0
  0
LINE
  5
11B
330
A
100
AcDbEntity
  8
LAY-1
  6
Continuous
 62
     2
100
AcDbLine
 10
80.94891649999999
 20
185.5
 30
0.0
 11
82.69891649999999
 21
185.5
 31
0.0
  0
LINE
  5
11C
330
A
100
AcDbEntity
  8
LAY-1
  6
Continuous
 62
     2
100
AcDbLine
 10
84.70225050000001
 20
185.5
 30
0.0
 11
86.53021749999998
 21
185.5
 31
0.0
  0
LINE
  5
11D
330
A
100
AcDbEntity
  8
LAY-1
  6
Continuous
 62
     2
100
AcDbLine
 10
87.40726349999999
 20
185.5
 30
0.0
 11
92.49056949999999
 21
185.5
 31
0.0
  0
LINE
  5
11E
330
A
100
AcDbEntity
  8
LAY-1
  6
Continuous
 62
     2
100
AcDbLine
 10
93.36761549999998
 20
185.5
 30
0.0
 11
95.19558249999999
 21
185.5
 31
0.0
  0
LINE
  5
11F
330
A
100
AcDbEntity
  8
LAY-1
  6
Continuous
 62
     2
100
AcDbLine
 10
96.04131449999998
 20
185.5
 30
0.0
 11
97.9697945
 21
185.5
 31
0.0
  0
LINE
  5
120
330
A
100
AcDbEntity
  8
LAY-1
  6
Continuous
 62
     2
100
AcDbLine
 10
101.2989165
 20
185.5
 30
0.0
 11
103.0489165
 21
185.5
 31
0.0
  0
LINE
  5
121
330
A
100
AcDbEntity
  8
LAY-1
  6
Continuous
 62
     2
100
AcDbLine
 10
108.7489165
 20
185.5
 30
0.0
 11
110.4489165
 21
185.5
 31
0.0
  0
LINE
  5
122
330
A
100
AcDbEntity
  8
LAY-1
  6
Continuous
 62
     2
100
AcDbLine
 10
111.9746515
 20
185.5
 30
0.0
 11
113.4103135
 21
185.5
 31
0.0
  0
LINE
  5
123
330
A
100
AcDbEntity
  8
LAY-1
  6
Continuous
 62
     2
100
AcDbLine
 10
113.9489165
 20
185.5
 30
0.0
 11
115.6489165
 21
185.5
 31
0.0
  0
LINE
  5
124
330
A
100
AcDbEntity
  8
LAY-1
  6
Continuous
 62
     2
100
AcDbLine
 10
80.94891649999999
 20
185.25
 30
0.0
 11
82.69891649999999
 21
185.25
 31
0.0
  0
LINE
  5
125
330
A
100
AcDbEntity
  8
LAY-1
  6
Continuous
 62
     2
100
AcDbLine
 10
84.74411149999999
 20
185.25
 30
0.0
 11
86.59481449999999
 21
185.25
 31
0.0
  0
LINE
  5
126
330
A
100
AcDbEntity
  8
LAY-1
  6
Continuous
 62
     2
100
AcDbLine
 10
87.49483849999998
 20
185.25
 30
0.0
 11
92.4029945
 21
185.25
 31
0.0
  0
LINE
  5
127
330
A
100
AcDbEntity
  8
LAY-1
  6
Continuous
 62
     2
100
AcDbLine
 10
93.30301849999999
 20
185.25
 30
0.0
 11
95.15372150000001
 21
185.25
 31
0.0
  0
LINE
  5
128
330
A
100
AcDbEntity
  8
LAY-1
  6
Continuous
 62
     2
100
AcDbLine
 10
95.81594049999999
 20
185.25
 30
0.0
 11
97.74441949999999
 21
185.25
 31
0.0
  0
LINE
  5
129
330
A
100
AcDbEntity
  8
LAY-1
  6
Continuous
 62
     2
100
AcDbLine
 10
101.2989165
 20
185.25
 30
0.0
 11
103.0489165
 21
185.25
 31
0.0
  0
LINE
  5
12A
330
A
100
AcDbEntity
  8
LAY-1
  6
Continuous
 62
     2
100
AcDbLine
 10
108.7489165
 20
185.25
 30
0.0
 11
110.4489165
 21
185.25
 31
0.0
  0
LINE
  5
12B
330
A
100
AcDbEntity
  8
LAY-1
  6
Continuous
 62
     2
100
AcDbLine
 10
112.1391735
 20
185.25
 30
0.0
 11
113.5748355
 21
185.25
 31
0.0
  0
LINE
  5
12C
330
A
100
AcDbEntity
  8
LAY-1
  6
Continuous
 62
     2
100
AcDbLine
 10
113.9489165
 20
185.25
 30
0.0
 11
115.6489165
 21
185.25
 31
0.0
  0
LINE
  5
12D
330
A
100
AcDbEntity
  8
LAY-1
  6
Continuous
 62
     2
100
AcDbLine
 10
80.94891649999999
 20
185.0
 30
0.0
 11
82.69891649999999
 21
185.0
 31
0.0
  0
LINE
  5
12E
330
A
100
AcDbEntity
  8
LAY-1
  6
Continuous
 62
     2
100
AcDbLine
 10
84.79843149999998
 20
185.0
 30
0.0
 11
86.67974249999998
 21
185.0
 31
0.0
  0
LINE
  5
12F
330
A
100
AcDbEntity
  8
LAY-1
  6
Continuous
 62
     2
100
AcDbLine
 10
87.6122525
 20
185.0
 30
0.0
 11
92.28558049999998
 21
185.0
 31
0.0
  0
LINE
  5
130
330
A
100
AcDbEntity
  8
LAY-1
  6
Continuous
 62
     2
100
AcDbLine
 10
93.21809049999998
 20
185.0
 30
0.0
 11
95.0994015
 21
185.0
 31
0.0
  0
LINE
  5
131
330
A
100
AcDbEntity
  8
LAY-1
  6
Continuous
 62
     2
100
AcDbLine
 10
95.62793949999999
 20
185.0
 30
0.0
 11
97.51904449999999
 21
185.0
 31
0.0
  0
LINE
  5
132
330
A
100
AcDbEntity
  8
LAY-1
  6
Continuous
 62
     2
100
AcDbLine
 10
101.2989165
 20
185.0
 30
0.0
 11
103.0489165
 21
185.0
 31
0.0
  0
LINE
  5
133
330
A
100
AcDbEntity
  8
LAY-1
  6
Continuous
 62
     2
100
AcDbLine
 10
108.7489165
 20
185.0
 30
0.0
 11
110.4489165
 21
185.0
 31
0.0
  0
LINE
  5
134
330
A
100
AcDbEntity
  8
LAY-1
  6
Continuous
 62
     2
100
AcDbLine
 10
112.3036955
 20
185.0
 30
0.0
 11
113.7393575
 21
185.0
 31
0.0
  0
LINE
  5
135
330
A
100
AcDbEntity
  8
LAY-1
  6
Continuous
 62
     2
100
AcDbLine
 10
113.9489165
 20
185.0
 30
0.0
 11
115.6489165
 21
185.0
 31
0.0
  0
LINE
  5
136
330
A
100
AcDbEntity
  8
LAY-1
  6
Continuous
 62
     2
100
AcDbLine
 10
80.94891649999999
 20
184.75
 30
0.0
 11
82.69891649999999
 21
184.75
 31
0.0
  0
LINE
  5
137
330
A
100
AcDbEntity
  8
LAY-1
  6
Continuous
 62
     2
100
AcDbLine
 10
84.86561049999998
 20
184.75
 30
0.0
 11
86.78663849999999
 21
184.75
 31
0.0
  0
LINE
  5
138
330
A
100
AcDbEntity
  8
LAY-1
  6
Continuous
 62
     2
100
AcDbLine
 10
87.76431149999998
 20
184.75
 30
0.0
 11
92.1335215
 21
184.75
 31
0.0
  0
LINE
  5
139
330
A
100
AcDbEntity
  8
LAY-1
  6
Continuous
 62
     2
100
AcDbLine
 10
93.11119449999999
 20
184.75
 30
0.0
 11
95.0322225
 21
184.75
 31
0.0
  0
LINE
  5
13A
330
A
100
AcDbEntity
  8
LAY-1
  6
Continuous
 62
     2
100
AcDbLine
 10
95.56708349999999
 20
184.75
 30
0.0
 11
97.2936705
 21
184.75
 31
0.0
  0
LINE
  5
13B
330
A
100
AcDbEntity
  8
LAY-1
  6
Continuous
 62
     2
100
AcDbLine
 10
101.2989165
 20
184.75
 30
0.0
 11
103.0489165
 21
184.75
 31
0.0
  0
LINE
  5
13C
330
A
100
AcDbEntity
  8
LAY-1
  6
Continuous
 62
     2
100
AcDbLine
 10
108.7489165
 20
184.75
 30
0.0
 11
110.4489165
 21
184.75
 31
0.0
  0
LINE
  5
13D
330
A
100
AcDbEntity
  8
LAY-1
  6
Continuous
 62
     2
100
AcDbLine
 10
112.4682175
 20
184.75
 30
0.0
 11
113.9038795
 21
184.75
 31
0.0
  0
LINE
  5
13E
330
A
100
AcDbEntity
  8
LAY-1
  6
Continuous
 62
     2
100
AcDbLine
 10
113.9489165
 20
184.75
 30
0.0
 11
115.6489165
 21
184.75
 31
0.0
  0
LINE
  5
13F
330
A
100
AcDbEntity
  8
LAY-1
  6
Continuous
 62
     2
100
AcDbLine
 10
80.94891649999999
 20
184.5
 30
0.0
 11
82.69891649999999
 21
184.5
 31
0.0
  0
LINE
  5
140
330
A
100
AcDbEntity
  8
LAY-1
  6
Continuous
 62
     2
100
AcDbLine
 10
84.94616749999998
 20
184.5
 30
0.0
 11
86.91782749999999
 21
184.5
 31
0.0
  0
LINE
  5
141
330
A
100
AcDbEntity
  8
LAY-1
  6
Continuous
 62
     2
100
AcDbLine
 10
87.9589415
 20
184.5
 30
0.0
 11
91.9388915
 21
184.5
 31
0.0
  0
LINE
  5
142
330
A
100
AcDbEntity
  8
LAY-1
  6
Continuous
 62
     2
100
AcDbLine
 10
92.98000549999997
 20
184.5
 30
0.0
 11
94.95166549999998
 21
184.5
 31
0.0
  0
LINE
  5
143
330
A
100
AcDbEntity
  8
LAY-1
  6
Continuous
 62
     2
100
AcDbLine
 10
95.4943015
 20
184.5
 30
0.0
 11
97.0682955
 21
184.5
 31
0.0
  0
LINE
  5
144
330
A
100
AcDbEntity
  8
LAY-1
  6
Continuous
 62
     2
100
AcDbLine
 10
101.2989165
 20
184.5
 30
0.0
 11
103.0489165
 21
184.5
 31
0.0
  0
LINE
  5
145
330
A
100
AcDbEntity
  8
LAY-1
  6
Continuous
 62
     2
100
AcDbLine
 10
108.7489165
 20
184.5
 30
0.0
 11
110.4489165
 21
184.5
 31
0.0
  0
LINE
  5
146
330
A
100
AcDbEntity
  8
LAY-1
  6
Continuous
 62
     2
100
AcDbLine
 10
112.6327405
 20
184.5
 30
0.0
 11
115.6489165
 21
184.5
 31
0.0
  0
LINE
  5
147
330
A
100
AcDbEntity
  8
LAY-1
  6
Continuous
 62
     2
100
AcDbLine
 10
80.94891649999999
 20
184.25
 30
0.0
 11
82.69891649999999
 21
184.25
 31
0.0
  0
LINE
  5
148
330
A
100
AcDbEntity
  8
LAY-1
  6
Continuous
 62
     2
100
AcDbLine
 10
85.0407605
 20
184.25
 30
0.0
 11
87.07663549999997
 21
184.25
 31
0.0
  0
LINE
  5
149
330
A
100
AcDbEntity
  8
LAY-1
  6
Continuous
 62
     2
100
AcDbLine
 10
88.21038249999999
 20
184.25
 30
0.0
 11
91.6874505
 21
184.25
 31
0.0
  0
LINE
  5
14A
330
A
100
AcDbEntity
  8
LAY-1
  6
Continuous
 62
     2
100
AcDbLine
 10
92.82119749999999
 20
184.25
 30
0.0
 11
94.8570725
 21
184.25
 31
0.0
  0
LINE
  5
14B
330
A
100
AcDbEntity
  8
LAY-1
  6
Continuous
 62
     2
100
AcDbLine
 10
95.40911749999999
 20
184.25
 30
0.0
 11
100.4489165
 21
184.25
 31
0.0
  0
LINE
  5
14C
330
A
100
AcDbEntity
  8
LAY-1
  6
Continuous
 62
     2
100
AcDbLine
 10
101.2989165
 20
184.25
 30
0.0
 11
107.9989165
 21
184.25
 31
0.0
  0
LINE
  5
14D
330
A
100
AcDbEntity
  8
LAY-1
  6
Continuous
 62
     2
100
AcDbLine
 10
108.7489165
 20
184.25
 30
0.0
 11
110.4489165
 21
184.25
 31
0.0
  0
LINE
  5
14E
330
A
100
AcDbEntity
  8
LAY-1
  6
Continuous
 62
     2
100
AcDbLine
 10
112.7972625
 20
184.25
 30
0.0
 11
115.6489165
 21
184.25
 31
0.0
  0
LINE
  5
14F
330
A
100
AcDbEntity
  8
LAY-1
  6
Continuous
 62
     2
100
AcDbLine
 10
80.94891649999999
 20
184.0
 30
0.0
 11
82.69891649999999
 21
184.0
 31
0.0
  0
LINE
  5
150
330
A
100
AcDbEntity
  8
LAY-1
  6
Continuous
 62
     2
100
AcDbLine
 10
85.1502185
 20
184.0
 30
0.0
 11
87.26796549999999
 21
184.0
 31
0.0
  0
LINE
  5
151
330
A
100
AcDbEntity
  8
LAY-1
  6
Continuous
 62
     2
100
AcDbLine
 10
88.54891649999999
 20
184.0
 30
0.0
 11
91.34891649999998
 21
184.0
 31
0.0
  0
LINE
  5
152
330
A
100
AcDbEntity
  8
LAY-1
  6
Continuous
 62
     2
100
AcDbLine
 10
92.62986749999999
 20
184.0
 30
0.0
 11
94.7476145
 21
184.0
 31
0.0
  0
LINE
  5
153
330
A
100
AcDbEntity
  8
LAY-1
  6
Continuous
 62
     2
100
AcDbLine
 10
95.31094049999998
 20
184.0
 30
0.0
 11
100.4489165
 21
184.0
 31
0.0
  0
LINE
  5
154
330
A
100
AcDbEntity
  8
LAY-1
  6
Continuous
 62
     2
100
AcDbLine
 10
101.2989165
 20
184.0
 30
0.0
 11
107.9989165
 21
184.0
 31
0.0
  0
LINE
  5
155
330
A
100
AcDbEntity
  8
LAY-1
  6
Continuous
 62
     2
100
AcDbLine
 10
108.7489165
 20
184.0
 30
0.0
 11
110.4489165
 21
184.0
 31
0.0
  0
LINE
  5
156
330
A
100
AcDbEntity
  8
LAY-1
  6
Continuous
 62
     2
100
AcDbLine
 10
112.9617845
 20
184.0
 30
0.0
 11
115.6489165
 21
184.0
 31
0.0
  0
LINE
  5
157
330
A
100
AcDbEntity
  8
LAY-1
  6
Continuous
 62
     2
100
AcDbLine
 10
80.94891649999999
 20
183.75
 30
0.0
 11
82.69891649999999
 21
183.75
 31
0.0
  0
LINE
  5
158
330
A
100
AcDbEntity
  8
LAY-1
  6
Continuous
 62
     2
100
AcDbLine
 10
85.27558749999998
 20
183.75
 30
0.0
 11
87.49942649999999
 21
183.75
 31
0.0
  0
LINE
  5
159
330
A
100
AcDbEntity
  8
LAY-1
  6
Continuous
 62
     2
100
AcDbLine
 10
89.06999650000001
 20
183.75
 30
0.0
 11
90.82783649999999
 21
183.75
 31
0.0
  0
LINE
  5
15A
330
A
100
AcDbEntity
  8
LAY-1
  6
Continuous
 62
     2
100
AcDbLine
 10
92.39840649999997
 20
183.75
 30
0.0
 11
94.6222455
 21
183.75
 31
0.0
  0
LINE
  5
15B
330
A
100
AcDbEntity
  8
LAY-1
  6
Continuous
 62
     2
100
AcDbLine
 10
95.19904049999999
 20
183.75
 30
0.0
 11
100.4489165
 21
183.75
 31
0.0
  0
LINE
  5
15C
330
A
100
AcDbEntity
  8
LAY-1
  6
Continuous
 62
     2
100
AcDbLine
 10
101.2989165
 20
183.75
 30
0.0
 11
107.9989165
 21
183.75
 31
0.0
  0
LINE
  5
15D
330
A
100
AcDbEntity
  8
LAY-1
  6
Continuous
 62
     2
100
AcDbLine
 10
108.7489165
 20
183.75
 30
0.0
 11
110.4489165
 21
183.75
 31
0.0
  0
LINE
  5
15E
330
A
100
AcDbEntity
  8
LAY-1
  6
Continuous
 62
     2
100
AcDbLine
 10
113.1263065
 20
183.75
 30
0.0
 11
115.6489165
 21
183.75
 31
0.0
  0
LINE
  5
15F
330
A
100
AcDbEntity
  8
LAY-1
  6
Continuous
 62
     2
100
AcDbLine
 10
80.94891649999999
 20
183.5
 30
0.0
 11
82.69891649999999
 21
183.5
 31
0.0
  0
LINE
  5
160
330
A
100
AcDbEntity
  8
LAY-1
  6
Continuous
 62
     2
100
AcDbLine
 10
85.41818849999998
 20
183.5
 30
0.0
 11
87.78385250000001
 21
183.5
 31
0.0
  0
LINE
  5
161
330
A
100
AcDbEntity
  8
LAY-1
  6
Continuous
 62
     2
100
AcDbLine
 10
92.11398049999997
 20
183.5
 30
0.0
 11
94.47964449999998
 21
183.5
 31
0.0
  0
LINE
  5
162
330
A
100
AcDbEntity
  8
LAY-1
  6
Continuous
 62
     2
100
AcDbLine
 10
95.07251850000001
 20
183.5
 30
0.0
 11
100.4489165
 21
183.5
 31
0.0
  0
LINE
  5
163
330
A
100
AcDbEntity
  8
LAY-1
  6
Continuous
 62
     2
100
AcDbLine
 10
101.2989165
 20
183.5
 30
0.0
 11
107.9989165
 21
183.5
 31
0.0
  0
LINE
  5
164
330
A
100
AcDbEntity
  8
LAY-1
  6
Continuous
 62
     2
100
AcDbLine
 10
108.7489165
 20
183.5
 30
0.0
 11
110.4489165
 21
183.5
 31
0.0
  0
LINE
  5
165
330
A
100
AcDbEntity
  8
LAY-1
  6
Continuous
 62
     2
100
AcDbLine
 10
113.2908285
 20
183.5
 30
0.0
 11
115.6489165
 21
183.5
 31
0.0
  0
LINE
  5
166
330
A
100
AcDbEntity
  8
LAY-1
  6
Continuous
 62
     2
100
AcDbLine
 10
80.94891649999999
 20
183.25
 30
0.0
 11
82.69891649999999
 21
183.25
 31
0.0
  0
LINE
  5
167
330
A
100
AcDbEntity
  8
LAY-1
  6
Continuous
 62
     2
100
AcDbLine
 10
85.57970649999999
 20
183.25
 30
0.0
 11
88.14614049999999
 21
183.25
 31
0.0
  0
LINE
  5
168
330
A
100
AcDbEntity
  8
LAY-1
  6
Continuous
 62
     2
100
AcDbLine
 10
91.75169249999999
 20
183.25
 30
0.0
 11
94.31812650000001
 21
183.25
 31
0.0
  0
LINE
  5
169
330
A
100
AcDbEntity
  8
LAY-1
  6
Continuous
 62
     2
100
AcDbLine
 10
94.93026149999998
 20
183.25
 30
0.0
 11
100.4489165
 21
183.25
 31
0.0
  0
LINE
  5
16A
330
A
100
AcDbEntity
  8
LAY-1
  6
Continuous
 62
     2
100
AcDbLine
 10
101.2989165
 20
183.25
 30
0.0
 11
107.9989165
 21
183.25
 31
0.0
  0
LINE
  5
16B
330
A
100
AcDbEntity
  8
LAY-1
  6
Continuous
 62
     2
100
AcDbLine
 10
108.7489165
 20
183.25
 30
0.0
 11
110.4489165
 21
183.25
 31
0.0
  0
LINE
  5
16C
330
A
100
AcDbEntity
  8
LAY-1
  6
Continuous
 62
     2
100
AcDbLine
 10
113.4553505
 20
183.25
 30
0.0
 11
115.6489165
 21
183.25
 31
0.0
  0
LINE
  5
16D
330
A
100
AcDbEntity
  8
LAY-1
  6
Continuous
 62
     2
100
AcDbLine
 10
80.94891649999999
 20
183.0
 30
0.0
 11
82.69891649999999
 21
183.0
 31
0.0
  0
LINE
  5
16E
330
A
100
AcDbEntity
  8
LAY-1
  6
Continuous
 62
     2
100
AcDbLine
 10
85.76233049999997
 20
183.0
 30
0.0
 11
88.6498785
 21
183.0
 31
0.0
  0
LINE
  5
16F
330
A
100
AcDbEntity
  8
LAY-1
  6
Continuous
 62
     2
100
AcDbLine
 10
91.24795449999998
 20
183.0
 30
0.0
 11
94.1355025
 21
183.0
 31
0.0
  0
LINE
  5
170
330
A
100
AcDbEntity
  8
LAY-1
  6
Continuous
 62
     2
100
AcDbLine
 10
94.77087649999999
 20
183.0
 30
0.0
 11
100.4489165
 21
183.0
 31
0.0
  0
LINE
  5
171
330
A
100
AcDbEntity
  8
LAY-1
  6
Continuous
 62
     2
100
AcDbLine
 10
101.2989165
 20
183.0
 30
0.0
 11
107.9989165
 21
183.0
 31
0.0
  0
LINE
  5
172
330
A
100
AcDbEntity
  8
LAY-1
  6
Continuous
 62
     2
100
AcDbLine
 10
108.7489165
 20
183.0
 30
0.0
 11
110.4489165
 21
183.0
 31
0.0
  0
LINE
  5
173
330
A
100
AcDbEntity
  8
LAY-1
  6
Continuous
 62
     2
100
AcDbLine
 10
113.6198725
 20
183.0
 30
0.0
 11
115.6489165
 21
183.0
 31
0.0
  0
LINE
  5
174
330
A
100
AcDbEntity
  8
LAY-1
  6
Continuous
 62
     2
100
AcDbLine
 10
80.94891649999999
 20
182.75
 30
0.0
 11
82.69891649999999
 21
182.75
 31
0.0
  0
LINE
  5
175
330
A
100
AcDbEntity
  8
LAY-1
  6
Continuous
 62
     2
100
AcDbLine
 10
85.96896649999999
 20
182.75
 30
0.0
 11
93.92886649999999
 21
182.75
 31
0.0
  0
LINE
  5
176
330
A
100
AcDbEntity
  8
LAY-1
  6
Continuous
 62
     2
100
AcDbLine
 10
94.59260050000001
 20
182.75
 30
0.0
 11
100.4489165
 21
182.75
 31
0.0
  0
LINE
  5
177
330
A
100
AcDbEntity
  8
LAY-1
  6
Continuous
 62
     2
100
AcDbLine
 10
101.2989165
 20
182.75
 30
0.0
 11
107.9989165
 21
182.75
 31
0.0
  0
LINE
  5
178
330
A
100
AcDbEntity
  8
LAY-1
  6
Continuous
 62
     2
100
AcDbLine
 10
108.7489165
 20
182.75
 30
0.0
 11
110.4489165
 21
182.75
 31
0.0
  0
LINE
  5
179
330
A
100
AcDbEntity
  8
LAY-1
  6
Continuous
 62
     2
100
AcDbLine
 10
113.7843945
 20
182.75
 30
0.0
 11
115.6489165
 21
182.75
 31
0.0
  0
LINE
  5
17A
330
A
100
AcDbEntity
  8
LAY-1
  6
Continuous
 62
     2
100
AcDbLine
 10
86.20358649999998
 20
182.5
 30
0.0
 11
93.69424649999999
 21
182.5
 31
0.0
  0
LINE
  5
17B
330
A
100
AcDbEntity
  8
LAY-1
  6
Continuous
 62
     2
100
AcDbLine
 10
86.4718485
 20
182.25
 30
0.0
 11
93.42598449999998
 21
182.25
 31
0.0
  0
LINE
  5
17C
330
A
100
AcDbEntity
  8
LAY-1
  6
Continuous
 62
     2
100
AcDbLine
 10
86.7822935
 20
182.0
 30
0.0
 11
93.1155395
 21
182.0
 31
0.0
  0
LINE
  5
17D
330
A
100
AcDbEntity
  8
LAY-1
  6
Continuous
 62
     2
100
AcDbLine
 10
87.1489165
 20
181.75
 30
0.0
 11
92.74891649999998
 21
181.75
 31
0.0
  0
LINE
  5
17E
330
A
100
AcDbEntity
  8
LAY-1
  6
Continuous
 62
     2
100
AcDbLine
 10
87.5978525
 20
181.5
 30
0.0
 11
92.29998049999998
 21
181.5
 31
0.0
  0
LINE
  5
17F
330
A
100
AcDbEntity
  8
LAY-1
  6
Continuous
 62
     2
100
AcDbLine
 10
88.19107650000001
 20
181.25
 30
0.0
 11
91.70675649999997
 21
181.25
 31
0.0
  0
LINE
  5
180
330
A
100
AcDbEntity
  8
LAY-1
  6
Continuous
 62
     2
100
AcDbLine
 10
89.22262449999999
 20
181.0
 30
0.0
 11
90.67520849999999
 21
181.0
 31
0.0
  0
LINE
  5
181
330
A
100
AcDbEntity
  8
LAY-1
  6
Continuous
 62
     2
100
AcDbLine
 10
27.987
 20
165.622
 30
0.0
 11
27.987
 21
26.222
 31
0.0
  0
LINE
  5
182
330
A
100
AcDbEntity
  8
LAY-1
  6
Continuous
 62
     2
100
AcDbLine
 10
-17.01516700000001
 20
205.0
 30
0.0
 11
298.0
 21
205.0
 31
0.0
  0
LINE
  5
183
330
A
100
AcDbEntity
  8
LAY-1
  6
Continuous
 62
     2
100
AcDbLine
 10
-17.01516700000001
 20
26.222
 30
0.0
 11
298.0
 21
26.222
 31
0.0
  0
LINE
  5
184
330
A
100
AcDbEntity
  8
LAY-1
  6
Continuous
 62
     2
100
AcDbLine
 10
298.0
 20
205.0
 30
0.0
 11
298.0
 21
26.222
 31
0.0
  0
LINE
  5
185
330
A
100
AcDbEntity
  8
LAY-1
  6
Continuous
 62
     2
100
AcDbLine
 10
252.997833
 20
26.222
 30
0.0
 11
252.997833
 21
165.622
 31
0.0
  0
LINE
  5
186
330
A
100
AcDbEntity
  8
LAY-1
  6
Continuous
 62
     2
100
AcDbLine
 10
207.995667
 20
26.222
 30
0.0
 11
207.995667
 21
165.622
 31
0.0
  0
LINE
  5
187
330
A
100
AcDbEntity
  8
LAY-1
  6
Continuous
 62
     2
100
AcDbLine
 10
-17.01516700000001
 20
165.622
 30
0.0
 11
298.0
 21
165.622
 31
0.0
  0
LINE
  5
188
330
A
100
AcDbEntity
  8
LAY-1
  6
Continuous
 62
     2
100
AcDbLine
 10
-17.01516700000001
 20
158.522
 30
0.0
 11
298.0
 21
158.522
 31
0.0
  0
LINE
  5
189
330
A
100
AcDbEntity
  8
LAY-1
  6
Continuous
 62
     2
100
AcDbLine
 10
162.9935
 20
26.222
 30
0.0
 11
162.9935
 21
165.622
 31
0.0
  0
LINE
  5
18A
330
A
100
AcDbEntity
  8
LAY-1
  6
Continuous
 62
     2
100
AcDbLine
 10
117.991333
 20
26.222
 30
0.0
 11
117.991333
 21
165.622
 31
0.0
  0
LINE
  5
18B
330
A
100
AcDbEntity
  8
LAY-1
  6
Continuous
 62
     2
100
AcDbLine
 10
72.98916700000001
 20
26.222
 30
0.0
 11
72.98916700000001
 21
165.622
 31
0.0
  0
LINE
  5
18C
330
A
100
AcDbEntity
  8
LAY-1
  6
Continuous
 62
     3
100
AcDbLine
 10
101.402143
 20
90.12200000000001
 30
0.0
 11
101.402143
 21
93.822057
 31
0.0
  0
LINE
  5
18D
330
A
100
AcDbEntity
  8
LAY-1
  6
Continuous
 62
     3
100
AcDbLine
 10
101.402143
 20
93.822057
 30
0.0
 11
101.002101
 21
94.22200000000001
 31
0.0
  0
LINE
  5
18E
330
A
100
AcDbEntity
  8
LAY-1
  6
Continuous
 62
     3
100
AcDbLine
 10
101.002101
 20
94.22200000000001
 30
0.0
 11
101.002101
 21
90.12200000000001
 31
0.0
  0
LINE
  5
18F
330
A
100
AcDbEntity
  8
LAY-1
  6
Continuous
 62
     3
100
AcDbLine
 10
101.402143
 20
90.12200000000001
 30
0.0
 11
101.402143
 21
86.42194299999999
 31
0.0
  0
LINE
  5
190
330
A
100
AcDbEntity
  8
LAY-1
  6
Continuous
 62
     3
100
AcDbLine
 10
101.402143
 20
86.42194299999999
 30
0.0
 11
101.002101
 21
86.02200000000001
 31
0.0
  0
LINE
  5
191
330
A
100
AcDbEntity
  8
LAY-1
  6
Continuous
 62
     3
100
AcDbLine
 10
101.002101
 20
86.02200000000001
 30
0.0
 11
101.002101
 21
90.12200000000001
 31
0.0
  0
LINE
  5
192
330
A
100
AcDbEntity
  8
LAY-1
  6
Continuous
 62
     3
100
AcDbLine
 10
146.40431
 20
90.12200000000001
 30
0.0
 11
146.40431
 21
94.322057
 31
0.0
  0
LINE
  5
193
330
A
100
AcDbEntity
  8
LAY-1
  6
Continuous
 62
     3
100
AcDbLine
 10
146.40431
 20
94.322057
 30
0.0
 11
146.004268
 21
94.722
 31
0.0
  0
LINE
  5
194
330
A
100
AcDbEntity
  8
LAY-1
  6
Continuous
 62
     3
100
AcDbLine
 10
146.004268
 20
94.722
 30
0.0
 11
146.004268
 21
90.12200000000001
 31
0.0
  0
LINE
  5
195
330
A
100
AcDbEntity
  8
LAY-1
  6
Continuous
 62
     3
100
AcDbLine
 10
146.40431
 20
90.12200000000001
 30
0.0
 11
146.40431
 21
85.921943
 31
0.0
  0
LINE
  5
196
330
A
100
AcDbEntity
  8
LAY-1
  6
Continuous
 62
     3
100
AcDbLine
 10
146.40431
 20
85.921943
 30
0.0
 11
146.004268
 21
85.522
 31
0.0
  0
LINE
  5
197
330
A
100
AcDbEntity
  8
LAY-1
  6
Continuous
 62
     3
100
AcDbLine
 10
146.004268
 20
85.522
 30
0.0
 11
146.004268
 21
90.12200000000001
 31
0.0
  0
LINE
  5
198
330
A
100
AcDbEntity
  8
LAY-1
  6
Continuous
 62
     3
100
AcDbLine
 10
192.156476
 20
90.12200000000001
 30
0.0
 11
192.156476
 21
95.22205699999998
 31
0.0
  0
LINE
  5
199
330
A
100
AcDbEntity
  8
LAY-1
  6
Continuous
 62
     3
100
AcDbLine
 10
192.156476
 20
95.22205699999998
 30
0.0
 11
191.756434
 21
95.62200000000002
 31
0.0
  0
LINE
  5
19A
330
A
100
AcDbEntity
  8
LAY-1
  6
Continuous
 62
     3
100
AcDbLine
 10
191.756434
 20
95.62200000000002
 30
0.0
 11
191.756434
 21
90.12200000000001
 31
0.0
  0
LINE
  5
19B
330
A
100
AcDbEntity
  8
LAY-1
  6
Continuous
 62
     3
100
AcDbLine
 10
192.156476
 20
90.12200000000001
 30
0.0
 11
192.156476
 21
85.02194300000001
 31
0.0
  0
LINE
  5
19C
330
A
100
AcDbEntity
  8
LAY-1
  6
Continuous
 62
     3
100
AcDbLine
 10
192.156476
 20
85.02194300000001
 30
0.0
 11
191.756434
 21
84.62200000000001
 31
0.0
  0
LINE
  5
19D
330
A
100
AcDbEntity
  8
LAY-1
  6
Continuous
 62
     3
100
AcDbLine
 10
191.756434
 20
84.62200000000001
 30
0.0
 11
191.756434
 21
90.12200000000001
 31
0.0
  0
LINE
  5
19E
330
A
100
AcDbEntity
  8
LAY-1
  6
Continuous
 62
     3
100
AcDbLine
 10
237.158643
 20
90.12200000000001
 30
0.0
 11
237.158643
 21
95.97205699999999
 31
0.0
  0
LINE
  5
19F
330
A
100
AcDbEntity
  8
LAY-1
  6
Continuous
 62
     3
100
AcDbLine
 10
237.158643
 20
95.97205699999999
 30
0.0
 11
236.758601
 21
96.37200000000001
 31
0.0
  0
LINE
  5
1A0
330
A
100
AcDbEntity
  8
LAY-1
  6
Continuous
 62
     3
100
AcDbLine
 10
236.758601
 20
96.37200000000001
 30
0.0
 11
236.758601
 21
90.12200000000001
 31
0.0
  0
LINE
  5
1A1
330
A
100
AcDbEntity
  8
LAY-1
  6
Continuous
 62
     3
100
AcDbLine
 10
237.158643
 20
90.12200000000001
 30
0.0
 11
237.158643
 21
84.27194300000001
 31
0.0
  0
LINE
  5
1A2
330
A
100
AcDbEntity
  8
LAY-1
  6
Continuous
 62
     3
100
AcDbLine
 10
237.158643
 20
84.27194300000001
 30
0.0
 11
236.758601
 21
83.87200000000001
 31
0.0
  0
LINE
  5
1A3
330
A
100
AcDbEntity
  8
LAY-1
  6
Continuous
 62
     3
100
AcDbLine
 10
236.758601
 20
83.87200000000001
 30
0.0
 11
236.758601
 21
90.12200000000001
 31
0.0
  0
LINE
  5
1A4
330
A
100
AcDbEntity
  8
LAY-1
  6
Continuous
 62
     3
100
AcDbLine
 10
55.99993399999999
 20
94.022
 30
0.0
 11
55.99993399999999
 21
90.12200000000001
 31
0.0
  0
LINE
  5
1A5
330
A
100
AcDbEntity
  8
LAY-1
  6
Continuous
 62
     3
100
AcDbLine
 10
56.399976
 20
93.622057
 30
0.0
 11
55.99993399999999
 21
94.022
 31
0.0
  0
LINE
  5
1A6
330
A
100
AcDbEntity
  8
LAY-1
  6
Continuous
 62
     3
100
AcDbLine
 10
56.399976
 20
90.12200000000001
 30
0.0
 11
56.399976
 21
93.622057
 31
0.0
  0
LINE
  5
1A7
330
A
100
AcDbEntity
  8
LAY-1
  6
Continuous
 62
     3
100
AcDbLine
 10
56.399976
 20
90.12200000000001
 30
0.0
 11
56.399976
 21
86.62194300000001
 31
0.0
  0
LINE
  5
1A8
330
A
100
AcDbEntity
  8
LAY-1
  6
Continuous
 62
     3
100
AcDbLine
 10
55.99993399999999
 20
86.22200000000001
 30
0.0
 11
55.99993399999999
 21
90.12200000000001
 31
0.0
  0
LINE
  5
1A9
330
A
100
AcDbEntity
  8
LAY-1
  6
Continuous
 62
     3
100
AcDbLine
 10
56.399976
 20
86.62194300000001
 30
0.0
 11
55.99993399999999
 21
86.22200000000001
 31
0.0
  0
LINE
  5
1AA
330
A
100
AcDbEntity
  8
LAY-1
  6
Continuous
 62
     3
100
AcDbLine
 10
55.99993399999999
 20
86.22200000000001
 30
0.0
 11
55.700018
 21
86.22200000000001
 31
0.0
  0
LINE
  5
1AB
330
A
100
AcDbEntity
  8
LAY-1
  6
Continuous
 62
     3
100
AcDbLine
 10
55.700018
 20
90.12200000000001
 30
0.0
 11
55.700018
 21
83.472
 31
0.0
  0
LINE
  5
1AC
330
A
100
AcDbEntity
  8
LAY-1
  6
Continuous
 62
     3
100
AcDbLine
 10
55.99993399999999
 20
94.022
 30
0.0
 11
55.700018
 21
94.022
 31
0.0
  0
LINE
  5
1AD
330
A
100
AcDbEntity
  8
LAY-1
  6
Continuous
 62
     3
100
AcDbLine
 10
55.700018
 20
90.12200000000001
 30
0.0
 11
55.700018
 21
96.772
 31
0.0
  0
LINE
  5
1AE
330
A
100
AcDbEntity
  8
LAY-1
  6
Continuous
 62
     3
100
AcDbLine
 10
54.100018
 20
90.12200000000001
 30
0.0
 11
54.100018
 21
96.772
 31
0.0
  0
LINE
  5
1AF
330
A
100
AcDbEntity
  8
LAY-1
  6
Continuous
 62
     3
100
AcDbLine
 10
55.60001800000001
 20
96.87200000000002
 30
0.0
 11
55.700018
 21
96.772
 31
0.0
  0
LINE
  5
1B0
330
A
100
AcDbEntity
  8
LAY-1
  6
Continuous
 62
     3
100
AcDbLine
 10
54.100018
 20
96.772
 30
0.0
 11
54.20001800000001
 21
96.87200000000002
 31
0.0
  0
LINE
  5
1B1
330
A
100
AcDbEntity
  8
LAY-1
  6
Continuous
 62
     3
100
AcDbLine
 10
54.20001800000001
 20
96.87200000000002
 30
0.0
 11
55.60001800000001
 21
96.87200000000002
 31
0.0
  0
LINE
  5
1B2
330
A
100
AcDbEntity
  8
LAY-1
  6
Continuous
 62
     3
100
AcDbLine
 10
55.60001800000001
 20
83.37200000000001
 30
0.0
 11
55.700018
 21
83.472
 31
0.0
  0
LINE
  5
1B3
330
A
100
AcDbEntity
  8
LAY-1
  6
Continuous
 62
     3
100
AcDbLine
 10
54.100018
 20
83.472
 30
0.0
 11
54.20001800000001
 21
83.37200000000001
 31
0.0
  0
LINE
  5
1B4
330
A
100
AcDbEntity
  8
LAY-1
  6
Continuous
 62
     3
100
AcDbLine
 10
54.20001800000001
 20
83.37200000000001
 30
0.0
 11
55.60001800000001
 21
83.37200000000001
 31
0.0
  0
LINE
  5
1B5
330
A
100
AcDbEntity
  8
LAY-1
  6
Continuous
 62
     3
100
AcDbLine
 10
54.100018
 20
90.12200000000001
 30
0.0
 11
54.100018
 21
83.472
 31
0.0
  0
LINE
  5
1B6
330
A
100
AcDbEntity
  8
LAY-1
  6
Continuous
 62
     3
100
AcDbLine
 10
53.711446
 20
93.18492799999999
 30
0.0
 11
54.100018
 21
93.18492799999999
 31
0.0
  0
LINE
  5
1B7
330
A
100
AcDbEntity
  8
LAY-1
  6
Continuous
 62
     3
100
AcDbLine
 10
53.711446
 20
87.059072
 30
0.0
 11
54.100018
 21
87.059072
 31
0.0
  0
LINE
  5
1B8
330
A
100
AcDbEntity
  8
LAY-1
  6
Continuous
 62
     3
100
AcDbLine
 10
101.002101
 20
94.22200000000001
 30
0.0
 11
100.702185
 21
94.22200000000001
 31
0.0
  0
LINE
  5
1B9
330
A
100
AcDbEntity
  8
LAY-1
  6
Continuous
 62
     3
100
AcDbLine
 10
100.702185
 20
90.12200000000001
 30
0.0
 11
100.702185
 21
97.02200000000001
 31
0.0
  0
LINE
  5
1BA
330
A
100
AcDbEntity
  8
LAY-1
  6
Continuous
 62
     3
100
AcDbLine
 10
100.602185
 20
97.12200000000002
 30
0.0
 11
100.702185
 21
97.02200000000001
 31
0.0
  0
LINE
  5
1BB
330
A
100
AcDbEntity
  8
LAY-1
  6
Continuous
 62
     3
100
AcDbLine
 10
99.10218499999999
 20
90.12200000000001
 30
0.0
 11
99.10218499999999
 21
97.02200000000001
 31
0.0
  0
LINE
  5
1BC
330
A
100
AcDbEntity
  8
LAY-1
  6
Continuous
 62
     3
100
AcDbLine
 10
99.10218499999999
 20
97.02200000000001
 30
0.0
 11
99.202185
 21
97.12200000000002
 31
0.0
  0
LINE
  5
1BD
330
A
100
AcDbEntity
  8
LAY-1
  6
Continuous
 62
     3
100
AcDbLine
 10
99.202185
 20
97.12200000000002
 30
0.0
 11
100.602185
 21
97.12200000000002
 31
0.0
  0
LINE
  5
1BE
330
A
100
AcDbEntity
  8
LAY-1
  6
Continuous
 62
     3
100
AcDbLine
 10
98.713612
 20
93.43492799999999
 30
0.0
 11
99.10218499999999
 21
93.43492799999999
 31
0.0
  0
LINE
  5
1BF
330
A
100
AcDbEntity
  8
LAY-1
  6
Continuous
 62
     3
100
AcDbLine
 10
101.002101
 20
86.02200000000001
 30
0.0
 11
100.702185
 21
86.02200000000001
 31
0.0
  0
LINE
  5
1C0
330
A
100
AcDbEntity
  8
LAY-1
  6
Continuous
 62
     3
100
AcDbLine
 10
98.713612
 20
86.809072
 30
0.0
 11
99.10218499999999
 21
86.809072
 31
0.0
  0
LINE
  5
1C1
330
A
100
AcDbEntity
  8
LAY-1
  6
Continuous
 62
     3
100
AcDbLine
 10
100.602185
 20
83.12200000000002
 30
0.0
 11
100.702185
 21
83.222
 31
0.0
  0
LINE
  5
1C2
330
A
100
AcDbEntity
  8
LAY-1
  6
Continuous
 62
     3
100
AcDbLine
 10
99.10218499999999
 20
83.222
 30
0.0
 11
99.202185
 21
83.12200000000002
 31
0.0
  0
LINE
  5
1C3
330
A
100
AcDbEntity
  8
LAY-1
  6
Continuous
 62
     3
100
AcDbLine
 10
99.202185
 20
83.12200000000002
 30
0.0
 11
100.602185
 21
83.12200000000002
 31
0.0
  0
LINE
  5
1C4
330
A
100
AcDbEntity
  8
LAY-1
  6
Continuous
 62
     3
100
AcDbLine
 10
100.702185
 20
90.12200000000001
 30
0.0
 11
100.702185
 21
83.222
 31
0.0
  0
LINE
  5
1C5
330
A
100
AcDbEntity
  8
LAY-1
  6
Continuous
 62
     3
100
AcDbLine
 10
99.10218499999999
 20
90.12200000000001
 30
0.0
 11
99.10218499999999
 21
83.222
 31
0.0
  0
LINE
  5
1C6
330
A
100
AcDbEntity
  8
LAY-1
  6
Continuous
 62
     3
100
AcDbLine
 10
146.004268
 20
94.722
 30
0.0
 11
145.704351
 21
94.722
 31
0.0
  0
LINE
  5
1C7
330
A
100
AcDbEntity
  8
LAY-1
  6
Continuous
 62
     3
100
AcDbLine
 10
143.715779
 20
93.934928
 30
0.0
 11
144.104351
 21
93.934928
 31
0.0
  0
LINE
  5
1C8
330
A
100
AcDbEntity
  8
LAY-1
  6
Continuous
 62
     3
100
AcDbLine
 10
145.604351
 20
97.87200000000002
 30
0.0
 11
145.704351
 21
97.772
 31
0.0
  0
LINE
  5
1C9
330
A
100
AcDbEntity
  8
LAY-1
  6
Continuous
 62
     3
100
AcDbLine
 10
144.104351
 20
97.772
 30
0.0
 11
144.204351
 21
97.87200000000002
 31
0.0
  0
LINE
  5
1CA
330
A
100
AcDbEntity
  8
LAY-1
  6
Continuous
 62
     3
100
AcDbLine
 10
144.204351
 20
97.87200000000002
 30
0.0
 11
145.604351
 21
97.87200000000002
 31
0.0
  0
LINE
  5
1CB
330
A
100
AcDbEntity
  8
LAY-1
  6
Continuous
 62
     3
100
AcDbLine
 10
145.704351
 20
90.12200000000001
 30
0.0
 11
145.704351
 21
97.772
 31
0.0
  0
LINE
  5
1CC
330
A
100
AcDbEntity
  8
LAY-1
  6
Continuous
 62
     3
100
AcDbLine
 10
144.104351
 20
90.12200000000001
 30
0.0
 11
144.104351
 21
97.772
 31
0.0
  0
LINE
  5
1CD
330
A
100
AcDbEntity
  8
LAY-1
  6
Continuous
 62
     3
100
AcDbLine
 10
146.004268
 20
85.522
 30
0.0
 11
145.704351
 21
85.522
 31
0.0
  0
LINE
  5
1CE
330
A
100
AcDbEntity
  8
LAY-1
  6
Continuous
 62
     3
100
AcDbLine
 10
143.715779
 20
86.30907200000001
 30
0.0
 11
144.104351
 21
86.30907200000001
 31
0.0
  0
LINE
  5
1CF
330
A
100
AcDbEntity
  8
LAY-1
  6
Continuous
 62
     3
100
AcDbLine
 10
145.604351
 20
82.37200000000001
 30
0.0
 11
145.704351
 21
82.47200000000001
 31
0.0
  0
LINE
  5
1D0
330
A
100
AcDbEntity
  8
LAY-1
  6
Continuous
 62
     3
100
AcDbLine
 10
144.104351
 20
82.47200000000001
 30
0.0
 11
144.204351
 21
82.37200000000001
 31
0.0
  0
LINE
  5
1D1
330
A
100
AcDbEntity
  8
LAY-1
  6
Continuous
 62
     3
100
AcDbLine
 10
144.204351
 20
82.37200000000001
 30
0.0
 11
145.604351
 21
82.37200000000001
 31
0.0
  0
LINE
  5
1D2
330
A
100
AcDbEntity
  8
LAY-1
  6
Continuous
 62
     3
100
AcDbLine
 10
145.704351
 20
90.12200000000001
 30
0.0
 11
145.704351
 21
82.47200000000001
 31
0.0
  0
LINE
  5
1D3
330
A
100
AcDbEntity
  8
LAY-1
  6
Continuous
 62
     3
100
AcDbLine
 10
144.104351
 20
90.12200000000001
 30
0.0
 11
144.104351
 21
82.47200000000001
 31
0.0
  0
LINE
  5
1D4
330
A
100
AcDbEntity
  8
LAY-1
  6
Continuous
 62
     3
100
AcDbLine
 10
191.756434
 20
95.62200000000002
 30
0.0
 11
191.356518
 21
95.62200000000002
 31
0.0
  0
LINE
  5
1D5
330
A
100
AcDbEntity
  8
LAY-1
  6
Continuous
 62
     3
100
AcDbLine
 10
191.256518
 20
98.87200000000001
 30
0.0
 11
191.356518
 21
98.77200000000001
 31
0.0
  0
LINE
  5
1D6
330
A
100
AcDbEntity
  8
LAY-1
  6
Continuous
 62
     3
100
AcDbLine
 10
191.356518
 20
90.12200000000001
 30
0.0
 11
191.356518
 21
98.77200000000001
 31
0.0
  0
LINE
  5
1D7
330
A
100
AcDbEntity
  8
LAY-1
  6
Continuous
 62
     3
100
AcDbLine
 10
189.556518
 20
98.77200000000001
 30
0.0
 11
189.656518
 21
98.87200000000001
 31
0.0
  0
LINE
  5
1D8
330
A
100
AcDbEntity
  8
LAY-1
  6
Continuous
 62
     3
100
AcDbLine
 10
189.656518
 20
98.87200000000001
 30
0.0
 11
191.256518
 21
98.87200000000001
 31
0.0
  0
LINE
  5
1D9
330
A
100
AcDbEntity
  8
LAY-1
  6
Continuous
 62
     3
100
AcDbLine
 10
189.556518
 20
90.12200000000001
 30
0.0
 11
189.556518
 21
98.77200000000001
 31
0.0
  0
LINE
  5
1DA
330
A
100
AcDbEntity
  8
LAY-1
  6
Continuous
 62
     3
100
AcDbLine
 10
189.34364
 20
93.934928
 30
0.0
 11
189.556518
 21
93.934928
 31
0.0
  0
LINE
  5
1DB
330
A
100
AcDbEntity
  8
LAY-1
  6
Continuous
 62
     3
100
AcDbLine
 10
191.756434
 20
84.62200000000001
 30
0.0
 11
191.356518
 21
84.62200000000001
 31
0.0
  0
LINE
  5
1DC
330
A
100
AcDbEntity
  8
LAY-1
  6
Continuous
 62
     3
100
AcDbLine
 10
191.256518
 20
81.37199999999999
 30
0.0
 11
191.356518
 21
81.47199999999999
 31
0.0
  0
LINE
  5
1DD
330
A
100
AcDbEntity
  8
LAY-1
  6
Continuous
 62
     3
100
AcDbLine
 10
191.356518
 20
90.12200000000001
 30
0.0
 11
191.356518
 21
81.47199999999999
 31
0.0
  0
LINE
  5
1DE
330
A
100
AcDbEntity
  8
LAY-1
  6
Continuous
 62
     3
100
AcDbLine
 10
189.556518
 20
81.47199999999999
 30
0.0
 11
189.656518
 21
81.37199999999999
 31
0.0
  0
LINE
  5
1DF
330
A
100
AcDbEntity
  8
LAY-1
  6
Continuous
 62
     3
100
AcDbLine
 10
189.656518
 20
81.37199999999999
 30
0.0
 11
191.256518
 21
81.37199999999999
 31
0.0
  0
LINE
  5
1E0
330
A
100
AcDbEntity
  8
LAY-1
  6
Continuous
 62
     3
100
AcDbLine
 10
189.556518
 20
90.12200000000001
 30
0.0
 11
189.556518
 21
81.47199999999999
 31
0.0
  0
LINE
  5
1E1
330
A
100
AcDbEntity
  8
LAY-1
  6
Continuous
 62
     3
100
AcDbLine
 10
189.34364
 20
86.30907200000001
 30
0.0
 11
189.556518
 21
86.30907200000001
 31
0.0
  0
LINE
  5
1E2
330
A
100
AcDbEntity
  8
LAY-1
  6
Continuous
 62
     3
100
AcDbLine
 10
236.758601
 20
96.37200000000001
 30
0.0
 11
236.258685
 21
96.37200000000001
 31
0.0
  0
LINE
  5
1E3
330
A
100
AcDbEntity
  8
LAY-1
  6
Continuous
 62
     3
100
AcDbLine
 10
234.345807
 20
94.68492799999999
 30
0.0
 11
234.458685
 21
94.68492799999999
 31
0.0
  0
LINE
  5
1E4
330
A
100
AcDbEntity
  8
LAY-1
  6
Continuous
 62
     3
100
AcDbLine
 10
236.158685
 20
99.37200000000002
 30
0.0
 11
236.258685
 21
99.272
 31
0.0
  0
LINE
  5
1E5
330
A
100
AcDbEntity
  8
LAY-1
  6
Continuous
 62
     3
100
AcDbLine
 10
234.458685
 20
99.272
 30
0.0
 11
234.558685
 21
99.37200000000002
 31
0.0
  0
LINE
  5
1E6
330
A
100
AcDbEntity
  8
LAY-1
  6
Continuous
 62
     3
100
AcDbLine
 10
234.558685
 20
99.37200000000002
 30
0.0
 11
236.158685
 21
99.37200000000002
 31
0.0
  0
LINE
  5
1E7
330
A
100
AcDbEntity
  8
LAY-1
  6
Continuous
 62
     3
100
AcDbLine
 10
236.258685
 20
90.12200000000001
 30
0.0
 11
236.258685
 21
99.272
 31
0.0
  0
LINE
  5
1E8
330
A
100
AcDbEntity
  8
LAY-1
  6
Continuous
 62
     3
100
AcDbLine
 10
234.458685
 20
90.12200000000001
 30
0.0
 11
234.458685
 21
99.272
 31
0.0
  0
LINE
  5
1E9
330
A
100
AcDbEntity
  8
LAY-1
  6
Continuous
 62
     3
100
AcDbLine
 10
236.758601
 20
83.87200000000001
 30
0.0
 11
236.258685
 21
83.87200000000001
 31
0.0
  0
LINE
  5
1EA
330
A
100
AcDbEntity
  8
LAY-1
  6
Continuous
 62
     3
100
AcDbLine
 10
234.345807
 20
85.559072
 30
0.0
 11
234.458685
 21
85.559072
 31
0.0
  0
LINE
  5
1EB
330
A
100
AcDbEntity
  8
LAY-1
  6
Continuous
 62
     3
100
AcDbLine
 10
236.158685
 20
80.87200000000001
 30
0.0
 11
236.258685
 21
80.97199999999999
 31
0.0
  0
LINE
  5
1EC
330
A
100
AcDbEntity
  8
LAY-1
  6
Continuous
 62
     3
100
AcDbLine
 10
234.458685
 20
80.97199999999999
 30
0.0
 11
234.558685
 21
80.87200000000001
 31
0.0
  0
LINE
  5
1ED
330
A
100
AcDbEntity
  8
LAY-1
  6
Continuous
 62
     3
100
AcDbLine
 10
234.558685
 20
80.87200000000001
 30
0.0
 11
236.158685
 21
80.87200000000001
 31
0.0
  0
LINE
  5
1EE
330
A
100
AcDbEntity
  8
LAY-1
  6
Continuous
 62
     3
100
AcDbLine
 10
236.258685
 20
90.12200000000001
 30
0.0
 11
236.258685
 21
80.97199999999999
 31
0.0
  0
LINE
  5
1EF
330
A
100
AcDbEntity
  8
LAY-1
  6
Continuous
 62
     3
100
AcDbLine
 10
234.458685
 20
90.12200000000001
 30
0.0
 11
234.458685
 21
80.97199999999999
 31
0.0
  0
LINE
  5
1F0
330
A
100
AcDbEntity
  8
LAY-1
  6
Continuous
 62
     3
100
AcDbLine
 10
282.16081
 20
90.12200000000001
 30
0.0
 11
282.16081
 21
97.32205700000001
 31
0.0
  0
LINE
  5
1F1
330
A
100
AcDbEntity
  8
LAY-1
  6
Continuous
 62
     3
100
AcDbLine
 10
282.16081
 20
97.32205700000001
 30
0.0
 11
281.760768
 21
97.72200000000001
 31
0.0
  0
LINE
  5
1F2
330
A
100
AcDbEntity
  8
LAY-1
  6
Continuous
 62
     3
100
AcDbLine
 10
281.760768
 20
97.72200000000001
 30
0.0
 11
281.760768
 21
90.12200000000001
 31
0.0
  0
LINE
  5
1F3
330
A
100
AcDbEntity
  8
LAY-1
  6
Continuous
 62
     3
100
AcDbLine
 10
282.16081
 20
90.12200000000001
 30
0.0
 11
282.16081
 21
82.921943
 31
0.0
  0
LINE
  5
1F4
330
A
100
AcDbEntity
  8
LAY-1
  6
Continuous
 62
     3
100
AcDbLine
 10
282.16081
 20
82.921943
 30
0.0
 11
281.760768
 21
82.522
 31
0.0
  0
LINE
  5
1F5
330
A
100
AcDbEntity
  8
LAY-1
  6
Continuous
 62
     3
100
AcDbLine
 10
281.760768
 20
82.522
 30
0.0
 11
281.760768
 21
90.12200000000001
 31
0.0
  0
LINE
  5
1F6
330
A
100
AcDbEntity
  8
LAY-1
  6
Continuous
 62
     3
100
AcDbLine
 10
279.347974
 20
95.734928
 30
0.0
 11
279.460851
 21
95.734928
 31
0.0
  0
LINE
  5
1F7
330
A
100
AcDbEntity
  8
LAY-1
  6
Continuous
 62
     3
100
AcDbLine
 10
281.160851
 20
100.622
 30
0.0
 11
281.260851
 21
100.522
 31
0.0
  0
LINE
  5
1F8
330
A
100
AcDbEntity
  8
LAY-1
  6
Continuous
 62
     3
100
AcDbLine
 10
279.460851
 20
100.522
 30
0.0
 11
279.560851
 21
100.622
 31
0.0
  0
LINE
  5
1F9
330
A
100
AcDbEntity
  8
LAY-1
  6
Continuous
 62
     3
100
AcDbLine
 10
279.560851
 20
100.622
 30
0.0
 11
281.160851
 21
100.622
 31
0.0
  0
LINE
  5
1FA
330
A
100
AcDbEntity
  8
LAY-1
  6
Continuous
 62
     3
100
AcDbLine
 10
279.347974
 20
84.50907200000001
 30
0.0
 11
279.460851
 21
84.50907200000001
 31
0.0
  0
LINE
  5
1FB
330
A
100
AcDbEntity
  8
LAY-1
  6
Continuous
 62
     3
100
AcDbLine
 10
281.160851
 20
79.622
 30
0.0
 11
281.260851
 21
79.72199999999999
 31
0.0
  0
LINE
  5
1FC
330
A
100
AcDbEntity
  8
LAY-1
  6
Continuous
 62
     3
100
AcDbLine
 10
279.460851
 20
79.72199999999999
 30
0.0
 11
279.560851
 21
79.622
 31
0.0
  0
LINE
  5
1FD
330
A
100
AcDbEntity
  8
LAY-1
  6
Continuous
 62
     3
100
AcDbLine
 10
279.560851
 20
79.622
 30
0.0
 11
281.160851
 21
79.622
 31
0.0
  0
LINE
  5
1FE
330
A
100
AcDbEntity
  8
LAY-1
  6
Continuous
 62
     3
100
AcDbLine
 10
281.760768
 20
97.72200000000001
 30
0.0
 11
281.260851
 21
97.72200000000001
 31
0.0
  0
LINE
  5
1FF
330
A
100
AcDbEntity
  8
LAY-1
  6
Continuous
 62
     3
100
AcDbLine
 10
281.260851
 20
90.12200000000001
 30
0.0
 11
281.260851
 21
100.522
 31
0.0
  0
LINE
  5
200
330
A
100
AcDbEntity
  8
LAY-1
  6
Continuous
 62
     3
100
AcDbLine
 10
279.460851
 20
90.12200000000001
 30
0.0
 11
279.460851
 21
100.522
 31
0.0
  0
LINE
  5
201
330
A
100
AcDbEntity
  8
LAY-1
  6
Continuous
 62
     3
100
AcDbLine
 10
281.760768
 20
82.522
 30
0.0
 11
281.260851
 21
82.522
 31
0.0
  0
LINE
  5
202
330
A
100
AcDbEntity
  8
LAY-1
  6
Continuous
 62
     3
100
AcDbLine
 10
281.260851
 20
90.12200000000001
 30
0.0
 11
281.260851
 21
79.72199999999999
 31
0.0
  0
LINE
  5
203
330
A
100
AcDbEntity
  8
LAY-1
  6
Continuous
 62
     3
100
AcDbLine
 10
279.460851
 20
90.12200000000001
 30
0.0
 11
279.460851
 21
79.72199999999999
 31
0.0
  0
TEXT
  5
204
330
A
100
AcDbEntity
  8
LAY-1
  6
Continuous
 62
     7
100
AcDbText
 10
128.4989165
 20
180.0
 30
0.0
 40
12.0
  1
ＢＦコネクタ
 41
0.8823529411764704
  7
EXCADSTD
 72
     5
 11
200.4989165
 21
180.0
 31
0.0
100
AcDbText
  0
LINE
  5
205
330
A
100
AcDbEntity
  8
LAY-1
  6
Continuous
 62
     2
100
AcDbLine
 10
80.94891649999999
 20
188.25
 30
0.0
 11
80.94891649999999
 21
182.5
 31
0.0
  0
LINE
  5
206
330
A
100
AcDbEntity
  8
LAY-1
  6
Continuous
 62
     2
100
AcDbLine
 10
82.69891649999999
 20
188.25
 30
0.0
 11
82.69891649999999
 21
182.5
 31
0.0
  0
CIRCLE
  5
207
330
A
100
AcDbEntity
  8
LAY-1
  6
Continuous
 62
     2
100
AcDbCircle
 10
89.94891649999999
 20
186.25
 30
0.0
 40
2.649999999999999
  0
CIRCLE
  5
208
330
A
100
AcDbEntity
  8
LAY-1
  6
Continuous
 62
     2
100
AcDbCircle
 10
89.94891649999999
 20
186.25
 30
0.0
 40
3.5
  0
CIRCLE
  5
209
330
A
100
AcDbEntity
  8
LAY-1
  6
Continuous
 62
     2
100
AcDbCircle
 10
89.94891649999999
 20
186.25
 30
0.0
 40
5.299999999999999
  0
LINE
  5
20A
330
A
100
AcDbEntity
  8
LAY-1
  6
Continuous
 62
     2
100
AcDbLine
 10
77.44891649999999
 20
190.0
 30
0.0
 11
77.44891649999999
 21
188.25
 31
0.0
  0
LINE
  5
20B
330
A
100
AcDbEntity
  8
LAY-1
  6
Continuous
 62
     2
100
AcDbLine
 10
80.94891649999999
 20
182.5
 30
0.0
 11
82.69891649999999
 21
182.5
 31
0.0
  0
ARC
  5
20C
330
A
100
AcDbEntity
  8
LAY-1
  6
Continuous
 62
     2
100
AcDbCircle
 10
89.94891649999999
 20
186.25
 30
0.0
 40
5.814962999999999
100
AcDbArc
 50
139.8427229999999
 51
159.882882
  0
ARC
  5
20D
330
A
100
AcDbEntity
  8
LAY-1
  6
Continuous
 62
     2
100
AcDbCircle
 10
89.94891649999999
 20
186.25
 30
0.0
 40
5.814962999999999
100
AcDbArc
 50
20.117118
 51
40.15727700000003
  0
LINE
  5
20E
330
A
100
AcDbEntity
  8
LAY-1
  6
Continuous
 62
     2
100
AcDbLine
 10
100.4489165
 20
184.25
 30
0.0
 11
100.4489165
 21
182.5
 31
0.0
  0
LINE
  5
20F
330
A
100
AcDbEntity
  8
LAY-1
  6
Continuous
 62
     2
100
AcDbLine
 10
100.4489165
 20
190.0
 30
0.0
 11
100.4489165
 21
188.25
 31
0.0
  0
ARC
  5
210
330
A
100
AcDbEntity
  8
LAY-1
  6
Continuous
 62
     2
100
AcDbCircle
 10
89.94891649999999
 20
186.25
 30
0.0
 40
5.814962999999999
100
AcDbArc
 50
319.842723
 51
348.135428
  0
LINE
  5
211
330
A
100
AcDbEntity
  8
LAY-1
  6
Continuous
 62
     2
100
AcDbLine
 10
100.4489165
 20
188.25
 30
0.0
 11
96.84292049999999
 21
184.25
 31
0.0
  0
LINE
  5
212
330
A
100
AcDbEntity
  8
LAY-1
  6
Continuous
 62
     2
100
AcDbLine
 10
98.52043649999998
 20
188.25
 30
0.0
 11
95.6396505
 21
185.054449
 31
0.0
  0
LINE
  5
213
330
A
100
AcDbEntity
  8
LAY-1
  6
Continuous
 62
     2
100
AcDbLine
 10
101.2989165
 20
190.0
 30
0.0
 11
101.2989165
 21
182.5
 31
0.0
  0
LINE
  5
214
330
A
100
AcDbEntity
  8
LAY-1
  6
Continuous
 62
     2
100
AcDbLine
 10
103.0489165
 20
187.0
 30
0.0
 11
107.9989165
 21
187.0
 31
0.0
  0
LINE
  5
215
330
A
100
AcDbEntity
  8
LAY-1
  6
Continuous
 62
     2
100
AcDbLine
 10
103.0489165
 20
185.5
 30
0.0
 11
107.9989165
 21
185.5
 31
0.0
  0
LINE
  5
216
330
A
100
AcDbEntity
  8
LAY-1
  6
Continuous
 62
     2
100
AcDbLine
 10
108.7489165
 20
190.0
 30
0.0
 11
108.7489165
 21
182.5
 31
0.0
  0
LINE
  5
217
330
A
100
AcDbEntity
  8
LAY-1
  6
Continuous
 62
     2
100
AcDbLine
 10
115.6489165
 20
190.0
 30
0.0
 11
115.6489165
 21
182.5
 31
0.0
  0
LINE
  5
218
330
A
100
AcDbEntity
  8
LAY-1
  6
Continuous
 62
     2
100
AcDbLine
 10
113.9489165
 20
182.5
 30
0.0
 11
110.4489165
 21
187.818436
 31
0.0
  0
LINE
  5
219
330
A
100
AcDbEntity
  8
LAY-1
  6
Continuous
 62
     2
100
AcDbLine
 10
110.4489165
 20
190.0
 30
0.0
 11
113.9489165
 21
184.6815639999999
 31
0.0
  0
LINE
  5
21A
330
A
100
AcDbEntity
  8
LAY-1
  6
Continuous
 62
     2
100
AcDbLine
 10
107.9989165
 20
190.0
 30
0.0
 11
107.9989165
 21
188.25
 31
0.0
  0
LINE
  5
21B
330
A
100
AcDbEntity
  8
LAY-1
  6
Continuous
 62
     2
100
AcDbLine
 10
107.9989165
 20
187.0
 30
0.0
 11
107.9989165
 21
185.5
 31
0.0
  0
LINE
  5
21C
330
A
100
AcDbEntity
  8
LAY-1
  6
Continuous
 62
     2
100
AcDbLine
 10
107.9989165
 20
184.25
 30
0.0
 11
107.9989165
 21
182.5
 31
0.0
  0
LINE
  5
21D
330
A
100
AcDbEntity
  8
LAY-1
  6
Continuous
 62
     2
100
AcDbLine
 10
103.0489165
 20
188.25
 30
0.0
 11
107.9989165
 21
188.25
 31
0.0
  0
LINE
  5
21E
330
A
100
AcDbEntity
  8
LAY-1
  6
Continuous
 62
     2
100
AcDbLine
 10
101.2989165
 20
190.0
 30
0.0
 11
107.9989165
 21
190.0
 31
0.0
  0
LINE
  5
21F
330
A
100
AcDbEntity
  8
LAY-1
  6
Continuous
 62
     2
100
AcDbLine
 10
103.0489165
 20
185.5
 30
0.0
 11
103.0489165
 21
184.25
 31
0.0
  0
LINE
  5
220
330
A
100
AcDbEntity
  8
LAY-1
  6
Continuous
 62
     2
100
AcDbLine
 10
101.2989165
 20
182.5
 30
0.0
 11
107.9989165
 21
182.5
 31
0.0
  0
LINE
  5
221
330
A
100
AcDbEntity
  8
LAY-1
  6
Continuous
 62
     2
100
AcDbLine
 10
103.0489165
 20
184.25
 30
0.0
 11
107.9989165
 21
184.25
 31
0.0
  0
LINE
  5
222
330
A
100
AcDbEntity
  8
LAY-1
  6
Continuous
 62
     2
100
AcDbLine
 10
110.4489165
 20
187.818436
 30
0.0
 11
110.4489165
 21
182.5
 31
0.0
  0
LINE
  5
223
330
A
100
AcDbEntity
  8
LAY-1
  6
Continuous
 62
     2
100
AcDbLine
 10
108.7489165
 20
190.0
 30
0.0
 11
110.4489165
 21
190.0
 31
0.0
  0
LINE
  5
224
330
A
100
AcDbEntity
  8
LAY-1
  6
Continuous
 62
     2
100
AcDbLine
 10
113.9489165
 20
190.0
 30
0.0
 11
115.6489165
 21
190.0
 31
0.0
  0
LINE
  5
225
330
A
100
AcDbEntity
  8
LAY-1
  6
Continuous
 62
     2
100
AcDbLine
 10
108.7489165
 20
182.5
 30
0.0
 11
110.4489165
 21
182.5
 31
0.0
  0
LINE
  5
226
330
A
100
AcDbEntity
  8
LAY-1
  6
Continuous
 62
     2
100
AcDbLine
 10
113.9489165
 20
182.5
 30
0.0
 11
115.6489165
 21
182.5
 31
0.0
  0
LINE
  5
227
330
A
100
AcDbEntity
  8
LAY-1
  6
Continuous
 62
     2
100
AcDbLine
 10
113.9489165
 20
190.0
 30
0.0
 11
113.9489165
 21
184.6815639999999
 31
0.0
  0
LINE
  5
228
330
A
100
AcDbEntity
  8
LAY-1
  6
Continuous
 62
     2
100
AcDbLine
 10
77.44891649999999
 20
188.25
 30
0.0
 11
80.94891649999999
 21
188.25
 31
0.0
  0
LINE
  5
229
330
A
100
AcDbEntity
  8
LAY-1
  6
Continuous
 62
     2
100
AcDbLine
 10
82.69891649999999
 20
188.25
 30
0.0
 11
84.48871549999999
 21
188.25
 31
0.0
  0
LINE
  5
22A
330
A
100
AcDbEntity
  8
LAY-1
  6
Continuous
 62
     2
100
AcDbLine
 10
77.44891649999999
 20
190.0
 30
0.0
 11
85.50467349999999
 21
190.0
 31
0.0
  0
LINE
  5
22B
330
A
100
AcDbEntity
  8
LAY-1
  6
Continuous
 62
     2
100
AcDbLine
 10
94.39315949999999
 20
190.0
 30
0.0
 11
100.4489165
 21
190.0
 31
0.0
  0
LINE
  5
22C
330
A
100
AcDbEntity
  8
LAY-1
  6
Continuous
 62
     2
100
AcDbLine
 10
95.40911749999999
 20
188.25
 30
0.0
 11
98.52043649999998
 21
188.25
 31
0.0
  0
LINE
  5
22D
330
A
100
AcDbEntity
  8
LAY-1
  6
Continuous
 62
     2
100
AcDbLine
 10
94.39315949999999
 20
182.5
 30
0.0
 11
100.4489165
 21
182.5
 31
0.0
  0
LINE
  5
22E
330
A
100
AcDbEntity
  8
LAY-1
  6
Continuous
 62
     2
100
AcDbLine
 10
96.84292049999999
 20
184.25
 30
0.0
 11
100.4489165
 21
184.25
 31
0.0
  0
LINE
  5
22F
330
A
100
AcDbEntity
  8
LAY-1
  6
Continuous
 62
     2
100
AcDbLine
 10
103.0489165
 20
188.25
 30
0.0
 11
103.0489165
 21
187.0
 31
0.0
  0
LINE
  5
230
330
A
100
AcDbEntity
  8
LAY-1
  6
Continuous
 62
     3
100
AcDbLine
 10
46.800018
 20
94.022
 30
0.0
 11
46.800018
 21
90.12200000000001
 31
0.0
  0
LINE
  5
231
330
A
100
AcDbEntity
  8
LAY-1
  6
Continuous
 62
     3
100
AcDbLine
 10
46.399976
 20
93.622057
 30
0.0
 11
46.800018
 21
94.022
 31
0.0
  0
LINE
  5
232
330
A
100
AcDbEntity
  8
LAY-1
  6
Continuous
 62
     3
100
AcDbLine
 10
46.399976
 20
90.12200000000001
 30
0.0
 11
46.399976
 21
93.622057
 31
0.0
  0
LINE
  5
233
330
A
100
AcDbEntity
  8
LAY-1
  6
Continuous
 62
     3
100
AcDbLine
 10
46.399976
 20
86.62194300000001
 30
0.0
 11
46.800018
 21
86.22200000000001
 31
0.0
  0
LINE
  5
234
330
A
100
AcDbEntity
  8
LAY-1
  6
Continuous
 62
     3
100
AcDbLine
 10
46.800018
 20
86.22200000000001
 30
0.0
 11
46.800018
 21
90.12200000000001
 31
0.0
  0
LINE
  5
235
330
A
100
AcDbEntity
  8
LAY-1
  6
Continuous
 62
     3
100
AcDbLine
 10
46.399976
 20
90.12200000000001
 30
0.0
 11
46.399976
 21
86.62194300000001
 31
0.0
  0
LINE
  5
236
330
A
100
AcDbEntity
  8
LAY-1
  6
Continuous
 62
     3
100
AcDbLine
 10
49.088507
 20
87.059072
 30
0.0
 11
48.69993400000001
 21
87.059072
 31
0.0
  0
LINE
  5
237
330
A
100
AcDbEntity
  8
LAY-1
  6
Continuous
 62
     3
100
AcDbLine
 10
49.088507
 20
93.18492799999999
 30
0.0
 11
48.69993400000001
 21
93.18492799999999
 31
0.0
  0
LINE
  5
238
330
A
100
AcDbEntity
  8
LAY-1
  6
Continuous
 62
     3
100
AcDbLine
 10
48.599934
 20
83.37200000000001
 30
0.0
 11
47.199934
 21
83.37200000000001
 31
0.0
  0
LINE
  5
239
330
A
100
AcDbEntity
  8
LAY-1
  6
Continuous
 62
     3
100
AcDbLine
 10
48.69993400000001
 20
83.472
 30
0.0
 11
48.599934
 21
83.37200000000001
 31
0.0
  0
LINE
  5
23A
330
A
100
AcDbEntity
  8
LAY-1
  6
Continuous
 62
     3
100
AcDbLine
 10
47.199934
 20
83.37200000000001
 30
0.0
 11
47.099934
 21
83.472
 31
0.0
  0
LINE
  5
23B
330
A
100
AcDbEntity
  8
LAY-1
  6
Continuous
 62
     3
100
AcDbLine
 10
48.599934
 20
96.87200000000002
 30
0.0
 11
47.199934
 21
96.87200000000002
 31
0.0
  0
LINE
  5
23C
330
A
100
AcDbEntity
  8
LAY-1
  6
Continuous
 62
     3
100
AcDbLine
 10
48.69993400000001
 20
90.12200000000001
 30
0.0
 11
48.69993400000001
 21
96.772
 31
0.0
  0
LINE
  5
23D
330
A
100
AcDbEntity
  8
LAY-1
  6
Continuous
 62
     3
100
AcDbLine
 10
48.69993400000001
 20
96.772
 30
0.0
 11
48.599934
 21
96.87200000000002
 31
0.0
  0
LINE
  5
23E
330
A
100
AcDbEntity
  8
LAY-1
  6
Continuous
 62
     3
100
AcDbLine
 10
47.199934
 20
96.87200000000002
 30
0.0
 11
47.099934
 21
96.772
 31
0.0
  0
LINE
  5
23F
330
A
100
AcDbEntity
  8
LAY-1
  6
Continuous
 62
     3
100
AcDbLine
 10
48.69993400000001
 20
90.12200000000001
 30
0.0
 11
48.69993400000001
 21
83.472
 31
0.0
  0
LINE
  5
240
330
A
100
AcDbEntity
  8
LAY-1
  6
Continuous
 62
     3
100
AcDbLine
 10
47.099934
 20
90.12200000000001
 30
0.0
 11
47.099934
 21
96.772
 31
0.0
  0
LINE
  5
241
330
A
100
AcDbEntity
  8
LAY-1
  6
Continuous
 62
     3
100
AcDbLine
 10
46.800018
 20
94.022
 30
0.0
 11
47.099934
 21
94.022
 31
0.0
  0
LINE
  5
242
330
A
100
AcDbEntity
  8
LAY-1
  6
Continuous
 62
     3
100
AcDbLine
 10
46.800018
 20
86.22200000000001
 30
0.0
 11
47.099934
 21
86.22200000000001
 31
0.0
  0
LINE
  5
243
330
A
100
AcDbEntity
  8
LAY-1
  6
Continuous
 62
     3
100
AcDbLine
 10
47.099934
 20
90.12200000000001
 30
0.0
 11
47.099934
 21
83.472
 31
0.0
  0
LWPOLYLINE
  5
244
330
A
100
AcDbEntity
  8
LAY-1
  6
Continuous
 62
     3
100
AcDbPolyline
 90
       15
 70
   128
 43
0.0
 10
53.711446
 20
93.18492799999999
 10
53.43541899999999
 20
93.376754
 10
53.133225
 20
93.543064
 10
52.808748
 20
93.68171999999999
 10
52.466159
 20
93.79093799999999
 10
52.109863
 20
93.86931500000001
 10
51.74444000000001
 20
93.91584300000001
 10
51.374589
 20
93.92992300000001
 10
51.005064
 20
93.911376
 10
50.64061599999999
 20
93.86043800000001
 10
50.285931
 20
93.777766
 10
49.945569
 20
93.66442199999999
 10
49.623904
 20
93.52186299999999
 10
49.325074
 20
93.35192199999999
 10
49.088507
 20
93.18492799999999
  0
LINE
  5
255
330
A
100
AcDbEntity
  8
LAY-1
  6
EXLTYPE3
 62
     1
100
AcDbLine
 10
42.42250799999999
 20
90.12200000000001
 30
0.0
 11
61.522508
 21
90.12200000000001
 31
0.0
  0
LWPOLYLINE
  5
256
330
A
100
AcDbEntity
  8
LAY-1
  6
Continuous
 62
     3
100
AcDbPolyline
 90
       15
 70
   128
 43
0.0
 10
49.088507
 20
87.059072
 10
49.364533
 20
86.86724599999999
 10
49.666727
 20
86.70093599999999
 10
49.991205
 20
86.56228
 10
50.333794
 20
86.453062
 10
50.69009000000001
 20
86.374685
 10
51.055512
 20
86.328157
 10
51.425364
 20
86.314077
 10
51.794888
 20
86.33262399999999
 10
52.15933599999999
 20
86.383562
 10
52.51402099999999
 20
86.46623400000001
 10
52.854384
 20
86.579578
 10
53.176048
 20
86.722137
 10
53.474879
 20
86.892078
 10
53.711446
 20
87.059072
  0
LINE
  5
267
330
A
100
AcDbEntity
  8
LAY-1
  6
Continuous
 62
     3
100
AcDbLine
 10
91.40214300000002
 20
90.12200000000001
 30
0.0
 11
91.40214300000002
 21
93.822057
 31
0.0
  0
LINE
  5
268
330
A
100
AcDbEntity
  8
LAY-1
  6
Continuous
 62
     3
100
AcDbLine
 10
91.40214300000002
 20
93.822057
 30
0.0
 11
91.802185
 21
94.22200000000001
 31
0.0
  0
LINE
  5
269
330
A
100
AcDbEntity
  8
LAY-1
  6
Continuous
 62
     3
100
AcDbLine
 10
91.802185
 20
94.22200000000001
 30
0.0
 11
91.802185
 21
90.12200000000001
 31
0.0
  0
LINE
  5
26A
330
A
100
AcDbEntity
  8
LAY-1
  6
Continuous
 62
     3
100
AcDbLine
 10
91.40214300000002
 20
90.12200000000001
 30
0.0
 11
91.40214300000002
 21
86.42194299999999
 31
0.0
  0
LINE
  5
26B
330
A
100
AcDbEntity
  8
LAY-1
  6
Continuous
 62
     3
100
AcDbLine
 10
91.40214300000002
 20
86.42194299999999
 30
0.0
 11
91.802185
 21
86.02200000000001
 31
0.0
  0
LINE
  5
26C
330
A
100
AcDbEntity
  8
LAY-1
  6
Continuous
 62
     3
100
AcDbLine
 10
91.802185
 20
86.02200000000001
 30
0.0
 11
91.802185
 21
90.12200000000001
 31
0.0
  0
LINE
  5
26D
330
A
100
AcDbEntity
  8
LAY-1
  6
Continuous
 62
     3
100
AcDbLine
 10
91.802185
 20
94.22200000000001
 30
0.0
 11
92.10210100000001
 21
94.22200000000001
 31
0.0
  0
LINE
  5
26E
330
A
100
AcDbEntity
  8
LAY-1
  6
Continuous
 62
     3
100
AcDbLine
 10
92.10210100000001
 20
90.12200000000001
 30
0.0
 11
92.10210100000001
 21
97.02200000000001
 31
0.0
  0
LINE
  5
26F
330
A
100
AcDbEntity
  8
LAY-1
  6
Continuous
 62
     3
100
AcDbLine
 10
92.202101
 20
97.12200000000002
 30
0.0
 11
92.10210100000001
 21
97.02200000000001
 31
0.0
  0
LINE
  5
270
330
A
100
AcDbEntity
  8
LAY-1
  6
Continuous
 62
     3
100
AcDbLine
 10
93.70210099999999
 20
90.12200000000001
 30
0.0
 11
93.70210099999999
 21
97.02200000000001
 31
0.0
  0
LINE
  5
271
330
A
100
AcDbEntity
  8
LAY-1
  6
Continuous
 62
     3
100
AcDbLine
 10
93.70210099999999
 20
97.02200000000001
 30
0.0
 11
93.60210100000001
 21
97.12200000000002
 31
0.0
  0
LINE
  5
272
330
A
100
AcDbEntity
  8
LAY-1
  6
Continuous
 62
     3
100
AcDbLine
 10
93.60210100000001
 20
97.12200000000002
 30
0.0
 11
92.202101
 21
97.12200000000002
 31
0.0
  0
LINE
  5
273
330
A
100
AcDbEntity
  8
LAY-1
  6
Continuous
 62
     3
100
AcDbLine
 10
94.09067399999999
 20
93.43492799999999
 30
0.0
 11
93.70210099999999
 21
93.43492799999999
 31
0.0
  0
LINE
  5
274
330
A
100
AcDbEntity
  8
LAY-1
  6
Continuous
 62
     3
100
AcDbLine
 10
91.802185
 20
86.02200000000001
 30
0.0
 11
92.10210100000001
 21
86.02200000000001
 31
0.0
  0
LINE
  5
275
330
A
100
AcDbEntity
  8
LAY-1
  6
Continuous
 62
     3
100
AcDbLine
 10
94.09067399999999
 20
86.809072
 30
0.0
 11
93.70210099999999
 21
86.809072
 31
0.0
  0
LINE
  5
276
330
A
100
AcDbEntity
  8
LAY-1
  6
Continuous
 62
     3
100
AcDbLine
 10
92.202101
 20
83.12200000000002
 30
0.0
 11
92.10210100000001
 21
83.222
 31
0.0
  0
LINE
  5
277
330
A
100
AcDbEntity
  8
LAY-1
  6
Continuous
 62
     3
100
AcDbLine
 10
93.70210099999999
 20
83.222
 30
0.0
 11
93.60210100000001
 21
83.12200000000002
 31
0.0
  0
LINE
  5
278
330
A
100
AcDbEntity
  8
LAY-1
  6
Continuous
 62
     3
100
AcDbLine
 10
93.60210100000001
 20
83.12200000000002
 30
0.0
 11
92.202101
 21
83.12200000000002
 31
0.0
  0
LINE
  5
279
330
A
100
AcDbEntity
  8
LAY-1
  6
Continuous
 62
     3
100
AcDbLine
 10
92.10210100000001
 20
90.12200000000001
 30
0.0
 11
92.10210100000001
 21
83.222
 31
0.0
  0
LINE
  5
27A
330
A
100
AcDbEntity
  8
LAY-1
  6
Continuous
 62
     3
100
AcDbLine
 10
93.70210099999999
 20
90.12200000000001
 30
0.0
 11
93.70210099999999
 21
83.222
 31
0.0
  0
LINE
  5
27B
330
A
100
AcDbEntity
  8
LAY-1
  6
EXLTYPE3
 62
     1
100
AcDbLine
 10
87.424675
 20
90.12200000000001
 30
0.0
 11
106.524675
 21
90.12200000000001
 31
0.0
  0
LWPOLYLINE
  5
27C
330
A
100
AcDbEntity
  8
LAY-1
  6
Continuous
 62
     3
100
AcDbPolyline
 90
       15
 70
   128
 43
0.0
 10
98.713612
 20
93.43492799999999
 10
98.43758600000001
 20
93.626754
 10
98.13539200000001
 20
93.793064
 10
97.81091400000001
 20
93.93171999999999
 10
97.46832600000001
 20
94.040938
 10
97.11202900000001
 20
94.11931499999999
 10
96.746607
 20
94.16584300000002
 10
96.37675600000001
 20
94.17992299999999
 10
96.00723100000001
 20
94.161376
 10
95.64278299999999
 20
94.11043799999999
 10
95.28809800000001
 20
94.02776600000001
 10
94.94773499999999
 20
93.914422
 10
94.62607099999999
 20
93.77186299999999
 10
94.32724
 20
93.601922
 10
94.09067399999999
 20
93.43492799999999
  0
LWPOLYLINE
  5
28D
330
A
100
AcDbEntity
  8
LAY-1
  6
Continuous
 62
     3
100
AcDbPolyline
 90
       15
 70
   128
 43
0.0
 10
94.09067399999999
 20
86.809072
 10
94.36669999999999
 20
86.61724599999999
 10
94.66889399999999
 20
86.450936
 10
94.99337099999999
 20
86.31228
 10
95.33596000000001
 20
86.20306199999999
 10
95.69225600000001
 20
86.124685
 10
96.05767900000001
 20
86.07815699999999
 10
96.42753
 20
86.064077
 10
96.797055
 20
86.08262399999999
 10
97.161503
 20
86.133562
 10
97.51618800000001
 20
86.216234
 10
97.85655
 20
86.32957799999999
 10
98.178215
 20
86.472137
 10
98.477046
 20
86.64207799999999
 10
98.713612
 20
86.809072
  0
LINE
  5
29E
330
A
100
AcDbEntity
  8
LAY-1
  6
Continuous
 62
     3
100
AcDbLine
 10
136.40431
 20
90.12200000000001
 30
0.0
 11
136.40431
 21
94.322057
 31
0.0
  0
LINE
  5
29F
330
A
100
AcDbEntity
  8
LAY-1
  6
Continuous
 62
     3
100
AcDbLine
 10
136.40431
 20
94.322057
 30
0.0
 11
136.804351
 21
94.722
 31
0.0
  0
LINE
  5
2A0
330
A
100
AcDbEntity
  8
LAY-1
  6
Continuous
 62
     3
100
AcDbLine
 10
136.804351
 20
94.722
 30
0.0
 11
136.804351
 21
90.12200000000001
 31
0.0
  0
LINE
  5
2A1
330
A
100
AcDbEntity
  8
LAY-1
  6
Continuous
 62
     3
100
AcDbLine
 10
136.40431
 20
90.12200000000001
 30
0.0
 11
136.40431
 21
85.921943
 31
0.0
  0
LINE
  5
2A2
330
A
100
AcDbEntity
  8
LAY-1
  6
Continuous
 62
     3
100
AcDbLine
 10
136.40431
 20
85.921943
 30
0.0
 11
136.804351
 21
85.522
 31
0.0
  0
LINE
  5
2A3
330
A
100
AcDbEntity
  8
LAY-1
  6
Continuous
 62
     3
100
AcDbLine
 10
136.804351
 20
85.522
 30
0.0
 11
136.804351
 21
90.12200000000001
 31
0.0
  0
LINE
  5
2A4
330
A
100
AcDbEntity
  8
LAY-1
  6
Continuous
 62
     3
100
AcDbLine
 10
136.804351
 20
94.722
 30
0.0
 11
137.104268
 21
94.722
 31
0.0
  0
LINE
  5
2A5
330
A
100
AcDbEntity
  8
LAY-1
  6
Continuous
 62
     3
100
AcDbLine
 10
139.09284
 20
93.934928
 30
0.0
 11
138.704268
 21
93.934928
 31
0.0
  0
LINE
  5
2A6
330
A
100
AcDbEntity
  8
LAY-1
  6
Continuous
 62
     3
100
AcDbLine
 10
137.204268
 20
97.87200000000002
 30
0.0
 11
137.104268
 21
97.772
 31
0.0
  0
LINE
  5
2A7
330
A
100
AcDbEntity
  8
LAY-1
  6
Continuous
 62
     3
100
AcDbLine
 10
138.704268
 20
97.772
 30
0.0
 11
138.604268
 21
97.87200000000002
 31
0.0
  0
LINE
  5
2A8
330
A
100
AcDbEntity
  8
LAY-1
  6
Continuous
 62
     3
100
AcDbLine
 10
138.604268
 20
97.87200000000002
 30
0.0
 11
137.204268
 21
97.87200000000002
 31
0.0
  0
LINE
  5
2A9
330
A
100
AcDbEntity
  8
LAY-1
  6
Continuous
 62
     3
100
AcDbLine
 10
137.104268
 20
90.12200000000001
 30
0.0
 11
137.104268
 21
97.772
 31
0.0
  0
LINE
  5
2AA
330
A
100
AcDbEntity
  8
LAY-1
  6
Continuous
 62
     3
100
AcDbLine
 10
138.704268
 20
90.12200000000001
 30
0.0
 11
138.704268
 21
97.772
 31
0.0
  0
LINE
  5
2AB
330
A
100
AcDbEntity
  8
LAY-1
  6
Continuous
 62
     3
100
AcDbLine
 10
136.804351
 20
85.522
 30
0.0
 11
137.104268
 21
85.522
 31
0.0
  0
LINE
  5
2AC
330
A
100
AcDbEntity
  8
LAY-1
  6
Continuous
 62
     3
100
AcDbLine
 10
139.09284
 20
86.30907200000001
 30
0.0
 11
138.704268
 21
86.30907200000001
 31
0.0
  0
LINE
  5
2AD
330
A
100
AcDbEntity
  8
LAY-1
  6
Continuous
 62
     3
100
AcDbLine
 10
137.204268
 20
82.37200000000001
 30
0.0
 11
137.104268
 21
82.47200000000001
 31
0.0
  0
LINE
  5
2AE
330
A
100
AcDbEntity
  8
LAY-1
  6
Continuous
 62
     3
100
AcDbLine
 10
138.704268
 20
82.47200000000001
 30
0.0
 11
138.604268
 21
82.37200000000001
 31
0.0
  0
LINE
  5
2AF
330
A
100
AcDbEntity
  8
LAY-1
  6
Continuous
 62
     3
100
AcDbLine
 10
138.604268
 20
82.37200000000001
 30
0.0
 11
137.204268
 21
82.37200000000001
 31
0.0
  0
LINE
  5
2B0
330
A
100
AcDbEntity
  8
LAY-1
  6
Continuous
 62
     3
100
AcDbLine
 10
137.104268
 20
90.12200000000001
 30
0.0
 11
137.104268
 21
82.47200000000001
 31
0.0
  0
LINE
  5
2B1
330
A
100
AcDbEntity
  8
LAY-1
  6
Continuous
 62
     3
100
AcDbLine
 10
138.704268
 20
90.12200000000001
 30
0.0
 11
138.704268
 21
82.47200000000001
 31
0.0
  0
LINE
  5
2B2
330
A
100
AcDbEntity
  8
LAY-1
  6
EXLTYPE3
 62
     1
100
AcDbLine
 10
132.426842
 20
90.12200000000001
 30
0.0
 11
151.526842
 21
90.12200000000001
 31
0.0
  0
LWPOLYLINE
  5
2B3
330
A
100
AcDbEntity
  8
LAY-1
  6
Continuous
 62
     3
100
AcDbPolyline
 90
       15
 70
   128
 43
0.0
 10
143.715779
 20
93.934928
 10
143.439753
 20
94.12675400000001
 10
143.137559
 20
94.29306399999999
 10
142.813081
 20
94.43172
 10
142.4704919999999
 20
94.540938
 10
142.114196
 20
94.619315
 10
141.748773
 20
94.665843
 10
141.378922
 20
94.679923
 10
141.009397
 20
94.66137600000001
 10
140.64495
 20
94.610438
 10
140.2902649999999
 20
94.52776599999999
 10
139.949902
 20
94.414422
 10
139.628238
 20
94.271863
 10
139.329407
 20
94.101922
 10
139.09284
 20
93.934928
  0
LWPOLYLINE
  5
2C4
330
A
100
AcDbEntity
  8
LAY-1
  6
Continuous
 62
     3
100
AcDbPolyline
 90
       15
 70
   128
 43
0.0
 10
139.09284
 20
86.30907200000001
 10
139.368866
 20
86.117246
 10
139.671061
 20
85.950936
 10
139.9955379999999
 20
85.81228000000001
 10
140.338127
 20
85.703062
 10
140.694423
 20
85.62468499999999
 10
141.059846
 20
85.57815699999999
 10
141.429697
 20
85.56407699999999
 10
141.799222
 20
85.582624
 10
142.163669
 20
85.63356199999999
 10
142.518355
 20
85.716234
 10
142.858717
 20
85.829578
 10
143.180382
 20
85.97213700000001
 10
143.479212
 20
86.142078
 10
143.715779
 20
86.30907200000001
  0
LINE
  5
2D5
330
A
100
AcDbEntity
  8
LAY-1
  6
Continuous
 62
     3
100
AcDbLine
 10
181.156476
 20
90.12200000000001
 30
0.0
 11
181.156476
 21
95.22205699999998
 31
0.0
  0
LINE
  5
2D6
330
A
100
AcDbEntity
  8
LAY-1
  6
Continuous
 62
     3
100
AcDbLine
 10
181.156476
 20
95.22205699999998
 30
0.0
 11
181.556518
 21
95.62200000000002
 31
0.0
  0
LINE
  5
2D7
330
A
100
AcDbEntity
  8
LAY-1
  6
Continuous
 62
     3
100
AcDbLine
 10
181.556518
 20
95.62200000000002
 30
0.0
 11
181.556518
 21
90.12200000000001
 31
0.0
  0
LINE
  5
2D8
330
A
100
AcDbEntity
  8
LAY-1
  6
Continuous
 62
     3
100
AcDbLine
 10
181.156476
 20
90.12200000000001
 30
0.0
 11
181.156476
 21
85.02194300000001
 31
0.0
  0
LINE
  5
2D9
330
A
100
AcDbEntity
  8
LAY-1
  6
Continuous
 62
     3
100
AcDbLine
 10
181.156476
 20
85.02194300000001
 30
0.0
 11
181.556518
 21
84.62200000000001
 31
0.0
  0
LINE
  5
2DA
330
A
100
AcDbEntity
  8
LAY-1
  6
Continuous
 62
     3
100
AcDbLine
 10
181.556518
 20
84.62200000000001
 30
0.0
 11
181.556518
 21
90.12200000000001
 31
0.0
  0
LINE
  5
2DB
330
A
100
AcDbEntity
  8
LAY-1
  6
Continuous
 62
     3
100
AcDbLine
 10
181.556518
 20
95.62200000000002
 30
0.0
 11
181.956434
 21
95.62200000000002
 31
0.0
  0
LINE
  5
2DC
330
A
100
AcDbEntity
  8
LAY-1
  6
Continuous
 62
     3
100
AcDbLine
 10
183.969312
 20
93.934928
 30
0.0
 11
183.756434
 21
93.934928
 31
0.0
  0
LINE
  5
2DD
330
A
100
AcDbEntity
  8
LAY-1
  6
Continuous
 62
     3
100
AcDbLine
 10
182.056434
 20
98.87200000000001
 30
0.0
 11
181.956434
 21
98.77200000000001
 31
0.0
  0
LINE
  5
2DE
330
A
100
AcDbEntity
  8
LAY-1
  6
Continuous
 62
     3
100
AcDbLine
 10
183.756434
 20
98.77200000000001
 30
0.0
 11
183.656434
 21
98.87200000000001
 31
0.0
  0
LINE
  5
2DF
330
A
100
AcDbEntity
  8
LAY-1
  6
Continuous
 62
     3
100
AcDbLine
 10
183.656434
 20
98.87200000000001
 30
0.0
 11
182.056434
 21
98.87200000000001
 31
0.0
  0
LINE
  5
2E0
330
A
100
AcDbEntity
  8
LAY-1
  6
Continuous
 62
     3
100
AcDbLine
 10
181.956434
 20
90.12200000000001
 30
0.0
 11
181.956434
 21
98.77200000000001
 31
0.0
  0
LINE
  5
2E1
330
A
100
AcDbEntity
  8
LAY-1
  6
Continuous
 62
     3
100
AcDbLine
 10
183.756434
 20
90.12200000000001
 30
0.0
 11
183.756434
 21
98.77200000000001
 31
0.0
  0
LINE
  5
2E2
330
A
100
AcDbEntity
  8
LAY-1
  6
Continuous
 62
     3
100
AcDbLine
 10
181.556518
 20
84.62200000000001
 30
0.0
 11
181.956434
 21
84.62200000000001
 31
0.0
  0
LINE
  5
2E3
330
A
100
AcDbEntity
  8
LAY-1
  6
Continuous
 62
     3
100
AcDbLine
 10
182.056434
 20
81.37199999999999
 30
0.0
 11
181.956434
 21
81.47199999999999
 31
0.0
  0
LINE
  5
2E4
330
A
100
AcDbEntity
  8
LAY-1
  6
Continuous
 62
     3
100
AcDbLine
 10
181.956434
 20
90.12200000000001
 30
0.0
 11
181.956434
 21
81.47199999999999
 31
0.0
  0
LINE
  5
2E5
330
A
100
AcDbEntity
  8
LAY-1
  6
Continuous
 62
     3
100
AcDbLine
 10
183.756434
 20
81.47199999999999
 30
0.0
 11
183.656434
 21
81.37199999999999
 31
0.0
  0
LINE
  5
2E6
330
A
100
AcDbEntity
  8
LAY-1
  6
Continuous
 62
     3
100
AcDbLine
 10
183.656434
 20
81.37199999999999
 30
0.0
 11
182.056434
 21
81.37199999999999
 31
0.0
  0
LINE
  5
2E7
330
A
100
AcDbEntity
  8
LAY-1
  6
Continuous
 62
     3
100
AcDbLine
 10
183.756434
 20
90.12200000000001
 30
0.0
 11
183.756434
 21
81.47199999999999
 31
0.0
  0
LINE
  5
2E8
330
A
100
AcDbEntity
  8
LAY-1
  6
Continuous
 62
     3
100
AcDbLine
 10
183.969312
 20
86.30907200000001
 30
0.0
 11
183.756434
 21
86.30907200000001
 31
0.0
  0
LINE
  5
2E9
330
A
100
AcDbEntity
  8
LAY-1
  6
EXLTYPE3
 62
     1
100
AcDbLine
 10
177.929008
 20
90.12200000000001
 30
0.0
 11
196.529008
 21
90.12200000000001
 31
0.0
  0
LWPOLYLINE
  5
2EA
330
A
100
AcDbEntity
  8
LAY-1
  6
Continuous
 62
     3
100
AcDbPolyline
 90
       17
 70
   128
 43
0.0
 10
189.34364
 20
93.934928
 10
189.077412
 20
94.193525
 10
188.780059
 20
94.42359000000001
 10
188.455404
 20
94.62216600000001
 10
188.107622
 20
94.786701
 10
187.741184
 20
94.915078
 10
187.360801
 20
95.00564799999999
 10
186.971362
 20
95.05724499999999
 10
186.577875
 20
95.069207
 10
186.185399
 20
95.04137900000001
 10
185.798979
 20
94.974121
 10
185.423583
 20
94.86829499999998
 10
185.0640379999999
 20
94.725263
 10
184.724965
 20
94.54686399999999
 10
184.410725
 20
94.335391
 10
184.125357
 20
94.09356200000001
 10
183.969312
 20
93.934928
  0
LWPOLYLINE
  5
2FD
330
A
100
AcDbEntity
  8
LAY-1
  6
Continuous
 62
     3
100
AcDbPolyline
 90
       17
 70
   128
 43
0.0
 10
183.969312
 20
86.30907200000001
 10
184.235541
 20
86.05047500000001
 10
184.532894
 20
85.82041
 10
184.857548
 20
85.621834
 10
185.20533
 20
85.45729900000001
 10
185.571768
 20
85.32892199999999
 10
185.952152
 20
85.238352
 10
186.34159
 20
85.186755
 10
186.735077
 20
85.17479300000001
 10
187.127554
 20
85.202621
 10
187.513973
 20
85.26987899999999
 10
187.889369
 20
85.37570500000001
 10
188.2489149999999
 20
85.51873699999999
 10
188.587987
 20
85.697136
 10
188.902227
 20
85.908609
 10
189.187596
 20
86.150438
 10
189.34364
 20
86.30907200000001
  0
LINE
  5
310
330
A
100
AcDbEntity
  8
LAY-1
  6
Continuous
 62
     3
100
AcDbLine
 10
226.158643
 20
90.12200000000001
 30
0.0
 11
226.158643
 21
95.97205699999999
 31
0.0
  0
LINE
  5
311
330
A
100
AcDbEntity
  8
LAY-1
  6
Continuous
 62
     3
100
AcDbLine
 10
226.158643
 20
95.97205699999999
 30
0.0
 11
226.558685
 21
96.37200000000001
 31
0.0
  0
LINE
  5
312
330
A
100
AcDbEntity
  8
LAY-1
  6
Continuous
 62
     3
100
AcDbLine
 10
226.558685
 20
96.37200000000001
 30
0.0
 11
226.558685
 21
90.12200000000001
 31
0.0
  0
LINE
  5
313
330
A
100
AcDbEntity
  8
LAY-1
  6
Continuous
 62
     3
100
AcDbLine
 10
226.158643
 20
90.12200000000001
 30
0.0
 11
226.158643
 21
84.27194300000001
 31
0.0
  0
LINE
  5
314
330
A
100
AcDbEntity
  8
LAY-1
  6
Continuous
 62
     3
100
AcDbLine
 10
226.158643
 20
84.27194300000001
 30
0.0
 11
226.558685
 21
83.87200000000001
 31
0.0
  0
LINE
  5
315
330
A
100
AcDbEntity
  8
LAY-1
  6
Continuous
 62
     3
100
AcDbLine
 10
226.558685
 20
83.87200000000001
 30
0.0
 11
226.558685
 21
90.12200000000001
 31
0.0
  0
LINE
  5
316
330
A
100
AcDbEntity
  8
LAY-1
  6
Continuous
 62
     3
100
AcDbLine
 10
226.558685
 20
96.37200000000001
 30
0.0
 11
227.058601
 21
96.37200000000001
 31
0.0
  0
LINE
  5
317
330
A
100
AcDbEntity
  8
LAY-1
  6
Continuous
 62
     3
100
AcDbLine
 10
227.158601
 20
99.37200000000002
 30
0.0
 11
227.058601
 21
99.272
 31
0.0
  0
LINE
  5
318
330
A
100
AcDbEntity
  8
LAY-1
  6
Continuous
 62
     3
100
AcDbLine
 10
227.058601
 20
90.12200000000001
 30
0.0
 11
227.058601
 21
99.272
 31
0.0
  0
LINE
  5
319
330
A
100
AcDbEntity
  8
LAY-1
  6
Continuous
 62
     3
100
AcDbLine
 10
228.8586009999999
 20
99.272
 30
0.0
 11
228.758601
 21
99.37200000000002
 31
0.0
  0
LINE
  5
31A
330
A
100
AcDbEntity
  8
LAY-1
  6
Continuous
 62
     3
100
AcDbLine
 10
228.758601
 20
99.37200000000002
 30
0.0
 11
227.158601
 21
99.37200000000002
 31
0.0
  0
LINE
  5
31B
330
A
100
AcDbEntity
  8
LAY-1
  6
Continuous
 62
     3
100
AcDbLine
 10
228.8586009999999
 20
90.12200000000001
 30
0.0
 11
228.8586009999999
 21
99.272
 31
0.0
  0
LINE
  5
31C
330
A
100
AcDbEntity
  8
LAY-1
  6
Continuous
 62
     3
100
AcDbLine
 10
228.971479
 20
94.68492799999999
 30
0.0
 11
228.8586009999999
 21
94.68492799999999
 31
0.0
  0
LINE
  5
31D
330
A
100
AcDbEntity
  8
LAY-1
  6
Continuous
 62
     3
100
AcDbLine
 10
226.558685
 20
83.87200000000001
 30
0.0
 11
227.058601
 21
83.87200000000001
 31
0.0
  0
LINE
  5
31E
330
A
100
AcDbEntity
  8
LAY-1
  6
Continuous
 62
     3
100
AcDbLine
 10
228.971479
 20
85.559072
 30
0.0
 11
228.8586009999999
 21
85.559072
 31
0.0
  0
LINE
  5
31F
330
A
100
AcDbEntity
  8
LAY-1
  6
Continuous
 62
     3
100
AcDbLine
 10
227.158601
 20
80.87200000000001
 30
0.0
 11
227.058601
 21
80.97199999999999
 31
0.0
  0
LINE
  5
320
330
A
100
AcDbEntity
  8
LAY-1
  6
Continuous
 62
     3
100
AcDbLine
 10
228.8586009999999
 20
80.97199999999999
 30
0.0
 11
228.758601
 21
80.87200000000001
 31
0.0
  0
LINE
  5
321
330
A
100
AcDbEntity
  8
LAY-1
  6
Continuous
 62
     3
100
AcDbLine
 10
228.758601
 20
80.87200000000001
 30
0.0
 11
227.158601
 21
80.87200000000001
 31
0.0
  0
LINE
  5
322
330
A
100
AcDbEntity
  8
LAY-1
  6
Continuous
 62
     3
100
AcDbLine
 10
227.058601
 20
90.12200000000001
 30
0.0
 11
227.058601
 21
80.97199999999999
 31
0.0
  0
LINE
  5
323
330
A
100
AcDbEntity
  8
LAY-1
  6
Continuous
 62
     3
100
AcDbLine
 10
228.8586009999999
 20
90.12200000000001
 30
0.0
 11
228.8586009999999
 21
80.97199999999999
 31
0.0
  0
LINE
  5
324
330
A
100
AcDbEntity
  8
LAY-1
  6
EXLTYPE3
 62
     1
100
AcDbLine
 10
222.931175
 20
90.12200000000001
 30
0.0
 11
241.531175
 21
90.12200000000001
 31
0.0
  0
LWPOLYLINE
  5
325
330
A
100
AcDbEntity
  8
LAY-1
  6
Continuous
 62
     3
100
AcDbPolyline
 90
       17
 70
   128
 43
0.0
 10
234.345807
 20
94.68492799999999
 10
234.079578
 20
94.94352499999999
 10
233.782225
 20
95.17359
 10
233.457571
 20
95.372166
 10
233.109789
 20
95.53670100000001
 10
232.743351
 20
95.66507800000001
 10
232.362967
 20
95.755648
 10
231.973529
 20
95.807245
 10
231.580042
 20
95.81920699999999
 10
231.187566
 20
95.791379
 10
230.801146
 20
95.72412099999999
 10
230.42575
 20
95.61829499999999
 10
230.066205
 20
95.47526299999999
 10
229.727132
 20
95.29686400000001
 10
229.412892
 20
95.085391
 10
229.127523
 20
94.843562
 10
228.971479
 20
94.68492799999999
  0
LWPOLYLINE
  5
338
330
A
100
AcDbEntity
  8
LAY-1
  6
Continuous
 62
     3
100
AcDbPolyline
 90
       17
 70
   128
 43
0.0
 10
228.971479
 20
85.559072
 10
229.237708
 20
85.300475
 10
229.535061
 20
85.07040999999999
 10
229.859715
 20
84.87183399999999
 10
230.207497
 20
84.707299
 10
230.573935
 20
84.57892199999999
 10
230.954319
 20
84.48835200000001
 10
231.343757
 20
84.43675500000001
 10
231.737244
 20
84.424793
 10
232.12972
 20
84.45262099999998
 10
232.51614
 20
84.519879
 10
232.891536
 20
84.62570500000001
 10
233.251081
 20
84.768737
 10
233.590154
 20
84.947136
 10
233.904394
 20
85.15860899999999
 10
234.189762
 20
85.40043799999999
 10
234.345807
 20
85.559072
  0
LINE
  5
34B
330
A
100
AcDbEntity
  8
LAY-1
  6
Continuous
 62
     3
100
AcDbLine
 10
271.16081
 20
90.12200000000001
 30
0.0
 11
271.16081
 21
97.32205700000001
 31
0.0
  0
LINE
  5
34C
330
A
100
AcDbEntity
  8
LAY-1
  6
Continuous
 62
     3
100
AcDbLine
 10
271.16081
 20
97.32205700000001
 30
0.0
 11
271.560851
 21
97.72200000000001
 31
0.0
  0
LINE
  5
34D
330
A
100
AcDbEntity
  8
LAY-1
  6
Continuous
 62
     3
100
AcDbLine
 10
271.560851
 20
97.72200000000001
 30
0.0
 11
271.560851
 21
90.12200000000001
 31
0.0
  0
LINE
  5
34E
330
A
100
AcDbEntity
  8
LAY-1
  6
Continuous
 62
     3
100
AcDbLine
 10
271.16081
 20
90.12200000000001
 30
0.0
 11
271.16081
 21
82.921943
 31
0.0
  0
LINE
  5
34F
330
A
100
AcDbEntity
  8
LAY-1
  6
Continuous
 62
     3
100
AcDbLine
 10
271.16081
 20
82.921943
 30
0.0
 11
271.560851
 21
82.522
 31
0.0
  0
LINE
  5
350
330
A
100
AcDbEntity
  8
LAY-1
  6
Continuous
 62
     3
100
AcDbLine
 10
271.560851
 20
82.522
 30
0.0
 11
271.560851
 21
90.12200000000001
 31
0.0
  0
LWPOLYLINE
  5
351
330
A
100
AcDbEntity
  8
LAY-1
  6
Continuous
 62
     3
100
AcDbPolyline
 90
       17
 70
   128
 43
0.0
 10
273.973646
 20
84.50907200000001
 10
274.239874
 20
84.25047499999999
 10
274.537227
 20
84.02041
 10
274.861882
 20
83.821834
 10
275.209663
 20
83.65729899999999
 10
275.576102
 20
83.52892199999999
 10
275.956485
 20
83.438352
 10
276.345924
 20
83.386755
 10
276.739411
 20
83.37479300000001
 10
277.131887
 20
83.402621
 10
277.518307
 20
83.469879
 10
277.893703
 20
83.57570499999999
 10
278.253248
 20
83.718737
 10
278.59232
 20
83.897136
 10
278.906561
 20
84.10860900000001
 10
279.191929
 20
84.350438
 10
279.347974
 20
84.50907200000001
  0
LWPOLYLINE
  5
364
330
A
100
AcDbEntity
  8
LAY-1
  6
Continuous
 62
     3
100
AcDbPolyline
 90
       17
 70
   128
 43
0.0
 10
279.347974
 20
95.734928
 10
279.081745
 20
95.993525
 10
278.784392
 20
96.22359000000001
 10
278.459738
 20
96.42216600000001
 10
278.111956
 20
96.58670100000001
 10
277.745517
 20
96.715078
 10
277.365134
 20
96.805648
 10
276.975695
 20
96.85724499999999
 10
276.582209
 20
96.86920699999999
 10
276.189732
 20
96.84137900000001
 10
275.803312
 20
96.77412099999999
 10
275.427917
 20
96.668295
 10
275.068371
 20
96.52526299999999
 10
274.729299
 20
96.34686399999999
 10
274.415058
 20
96.135391
 10
274.12969
 20
95.893562
 10
273.973646
 20
95.734928
  0
LINE
  5
377
330
A
100
AcDbEntity
  8
LAY-1
  6
EXLTYPE3
 62
     1
100
AcDbLine
 10
267.933342
 20
90.12200000000001
 30
0.0
 11
286.533342
 21
90.12200000000001
 31
0.0
  0
LINE
  5
378
330
A
100
AcDbEntity
  8
LAY-1
  6
Continuous
 62
     3
100
AcDbLine
 10
273.860768
 20
90.12200000000001
 30
0.0
 11
273.860768
 21
79.72199999999999
 31
0.0
  0
LINE
  5
379
330
A
100
AcDbEntity
  8
LAY-1
  6
Continuous
 62
     3
100
AcDbLine
 10
272.060768
 20
90.12200000000001
 30
0.0
 11
272.060768
 21
79.72199999999999
 31
0.0
  0
LINE
  5
37A
330
A
100
AcDbEntity
  8
LAY-1
  6
Continuous
 62
     3
100
AcDbLine
 10
271.560851
 20
82.522
 30
0.0
 11
272.060768
 21
82.522
 31
0.0
  0
LINE
  5
37B
330
A
100
AcDbEntity
  8
LAY-1
  6
Continuous
 62
     3
100
AcDbLine
 10
273.860768
 20
90.12200000000001
 30
0.0
 11
273.860768
 21
100.522
 31
0.0
  0
LINE
  5
37C
330
A
100
AcDbEntity
  8
LAY-1
  6
Continuous
 62
     3
100
AcDbLine
 10
272.060768
 20
90.12200000000001
 30
0.0
 11
272.060768
 21
100.522
 31
0.0
  0
LINE
  5
37D
330
A
100
AcDbEntity
  8
LAY-1
  6
Continuous
 62
     3
100
AcDbLine
 10
271.560851
 20
97.72200000000001
 30
0.0
 11
272.060768
 21
97.72200000000001
 31
0.0
  0
LINE
  5
37E
330
A
100
AcDbEntity
  8
LAY-1
  6
Continuous
 62
     3
100
AcDbLine
 10
273.760768
 20
79.622
 30
0.0
 11
272.160768
 21
79.622
 31
0.0
  0
LINE
  5
37F
330
A
100
AcDbEntity
  8
LAY-1
  6
Continuous
 62
     3
100
AcDbLine
 10
273.860768
 20
79.72199999999999
 30
0.0
 11
273.760768
 21
79.622
 31
0.0
  0
LINE
  5
380
330
A
100
AcDbEntity
  8
LAY-1
  6
Continuous
 62
     3
100
AcDbLine
 10
272.160768
 20
79.622
 30
0.0
 11
272.060768
 21
79.72199999999999
 31
0.0
  0
LINE
  5
381
330
A
100
AcDbEntity
  8
LAY-1
  6
Continuous
 62
     3
100
AcDbLine
 10
273.973646
 20
84.50907200000001
 30
0.0
 11
273.860768
 21
84.50907200000001
 31
0.0
  0
LINE
  5
382
330
A
100
AcDbEntity
  8
LAY-1
  6
Continuous
 62
     3
100
AcDbLine
 10
273.760768
 20
100.622
 30
0.0
 11
272.160768
 21
100.622
 31
0.0
  0
LINE
  5
383
330
A
100
AcDbEntity
  8
LAY-1
  6
Continuous
 62
     3
100
AcDbLine
 10
273.860768
 20
100.522
 30
0.0
 11
273.760768
 21
100.622
 31
0.0
  0
LINE
  5
384
330
A
100
AcDbEntity
  8
LAY-1
  6
Continuous
 62
     3
100
AcDbLine
 10
272.160768
 20
100.622
 30
0.0
 11
272.060768
 21
100.522
 31
0.0
  0
LINE
  5
385
330
A
100
AcDbEntity
  8
LAY-1
  6
Continuous
 62
     3
100
AcDbLine
 10
273.973646
 20
95.734928
 30
0.0
 11
273.860768
 21
95.734928
 31
0.0
  0
TEXT
  5
387
330
A
100
AcDbEntity
  8
LAY-1
  6
Continuous
 62
     1
100
AcDbText
 10
-66.84999799999999
 20
-12.8
 30
0.0
 40
11.25
  1
スケールは１／１０となっています。必要に応じてサイズを１０倍して下さい。
 41
0.9927903163580246
  7
EXCADTTF1
 72
     5
 11
455.6500019999999
 21
-12.8
 31
0.0
100
AcDbText
  0
TEXT
  5
388
330
A
100
AcDbEntity
  8
LAY-1
  6
Continuous
 62
     7
100
AcDbText
 10
40.509
 20
160.042
 30
0.0
 40
3.0
  1
３２Ａ×１００Ｌ
 41
0.7427536231884057
  7
EXCADSTD
 72
     5
 11
61.00899999999999
 21
160.042
 31
0.0
100
AcDbText
  0
TEXT
  5
389
330
A
100
AcDbEntity
  8
LAY-1
  6
Continuous
 62
     7
100
AcDbText
 10
85.509
 20
160.242
 30
0.0
 40
3.0
  1
４０Ａ×１００Ｌ
 41
0.7427536231884061
  7
EXCADSTD
 72
     5
 11
106.009
 21
160.242
 31
0.0
100
AcDbText
  0
TEXT
  5
38A
330
A
100
AcDbEntity
  8
LAY-1
  6
Continuous
 62
     7
100
AcDbText
 10
131.209
 20
160.042
 30
0.0
 40
3.0
  1
５０Ａ×１００Ｌ
 41
0.7427536231884061
  7
EXCADSTD
 72
     5
 11
151.709
 21
160.042
 31
0.0
100
AcDbText
  0
TEXT
  5
38B
330
A
100
AcDbEntity
  8
LAY-1
  6
Continuous
 62
     7
100
AcDbText
 10
175.809
 20
160.442
 30
0.0
 40
3.0
  1
６５Ａ×１１０Ｌ
 41
0.7427536231884061
  7
EXCADSTD
 72
     5
 11
196.309
 21
160.442
 31
0.0
100
AcDbText
  0
TEXT
  5
38C
330
A
100
AcDbEntity
  8
LAY-1
  6
Continuous
 62
     7
100
AcDbText
 10
220.509
 20
160.242
 30
0.0
 40
3.0
  1
８０Ａ×１１０Ｌ
 41
0.7427536231884061
  7
EXCADSTD
 72
     5
 11
241.009
 21
160.242
 31
0.0
100
AcDbText
  0
TEXT
  5
38D
330
A
100
AcDbEntity
  8
LAY-1
  6
Continuous
 62
     7
100
AcDbText
 10
264.1090000000001
 20
160.042
 30
0.0
 40
3.0
  1
１００Ａ×１１０Ｌ
 41
0.7371794871794874
  7
EXCADSTD
 72
     5
 11
287.109
 21
160.042
 31
0.0
100
AcDbText
  0
LINE
  5
3EA
330
A
100
AcDbEntity
  8
LAY-1
  6
Continuous
 62
     2
100
AcDbLine
 10
-17.01516700000001
 20
205.0
 30
0.0
 11
-17.01516700000001
 21
26.222
 31
0.0
  0
TEXT
  5
3EB
330
A
100
AcDbEntity
  8
LAY-1
  6
Continuous
 62
     7
100
AcDbText
 10
-4.493167000000013
 20
160.042
 30
0.0
 40
3.0
  1
25Ａ×１００Ｌ
 41
0.7765151515151512
  7
EXCADSTD
 72
     5
 11
16.00683299999998
 21
160.042
 31
0.0
100
AcDbText
  0
LINE
  5
426
330
A
100
AcDbEntity
  8
LAY-1
  6
Continuous
 62
     3
100
AcDbLine
 10
2.08591650000001
 20
83.87200000000001
 30
0.0
 11
0.8859165000000075
 21
83.87200000000001
 31
0.0
  0
LINE
  5
427
330
A
100
AcDbEntity
  8
LAY-1
  6
Continuous
 62
     3
100
AcDbLine
 10
2.185916500000004
 20
83.97199999999997
 30
0.0
 11
2.08591650000001
 21
83.87200000000001
 31
0.0
  0
LINE
  5
428
330
A
100
AcDbEntity
  8
LAY-1
  6
Continuous
 62
     3
100
AcDbLine
 10
0.8859165000000075
 20
83.87200000000001
 30
0.0
 11
0.7859165000000133
 21
83.97199999999997
 31
0.0
  0
LINE
  5
429
330
A
100
AcDbEntity
  8
LAY-1
  6
Continuous
 62
     3
100
AcDbLine
 10
2.08591650000001
 20
96.37200000000001
 30
0.0
 11
0.8859165000000075
 21
96.37200000000001
 31
0.0
  0
LINE
  5
42A
330
A
100
AcDbEntity
  8
LAY-1
  6
Continuous
 62
     3
100
AcDbLine
 10
2.185916500000004
 20
90.12200000000001
 30
0.0
 11
2.185916500000004
 21
96.272
 31
0.0
  0
LINE
  5
42B
330
A
100
AcDbEntity
  8
LAY-1
  6
Continuous
 62
     3
100
AcDbLine
 10
2.185916500000004
 20
96.272
 30
0.0
 11
2.08591650000001
 21
96.37200000000001
 31
0.0
  0
LINE
  5
42C
330
A
100
AcDbEntity
  8
LAY-1
  6
Continuous
 62
     3
100
AcDbLine
 10
0.8859165000000075
 20
96.37200000000001
 30
0.0
 11
0.7859165000000133
 21
96.272
 31
0.0
  0
LINE
  5
42D
330
A
100
AcDbEntity
  8
LAY-1
  6
Continuous
 62
     3
100
AcDbLine
 10
2.185916500000004
 20
90.12200000000001
 30
0.0
 11
2.185916500000004
 21
83.97199999999997
 31
0.0
  0
LINE
  5
42E
330
A
100
AcDbEntity
  8
LAY-1
  6
Continuous
 62
     3
100
AcDbLine
 10
0.7859165000000133
 20
90.12200000000001
 30
0.0
 11
0.7859165000000133
 21
96.272
 31
0.0
  0
LINE
  5
42F
330
A
100
AcDbEntity
  8
LAY-1
  6
Continuous
 62
     3
100
AcDbLine
 10
0.7859165000000133
 20
90.12200000000001
 30
0.0
 11
0.7859165000000133
 21
83.97199999999997
 31
0.0
  0
LINE
  5
430
330
A
100
AcDbEntity
  8
LAY-1
  6
EXLTYPE3
 62
     1
100
AcDbLine
 10
-3.491551499999999
 20
90.12200000000001
 30
0.0
 11
15.60844849999999
 21
90.12200000000001
 31
0.0
  0
LINE
  5
431
330
A
100
AcDbEntity
  8
LAY-1
  6
Continuous
 62
     3
100
AcDbLine
 10
2.574447500000005
 20
87.959072
 30
0.0
 11
2.185916500000004
 21
87.959072
 31
0.0
  0
LINE
  5
432
330
A
100
AcDbEntity
  8
LAY-1
  6
Continuous
 62
     3
100
AcDbLine
 10
8.397385500000012
 20
87.959072
 30
0.0
 11
8.785916500000013
 21
87.959072
 31
0.0
  0
ARC
  5
433
330
A
100
AcDbEntity
  8
LAY-1
  6
Continuous
 62
     3
100
AcDbCircle
 10
5.485916499999987
 20
93.30599936759211
 30
0.0
 40
6.088208604529431
100
AcDbArc
 50
241.431153800086
 51
298.5688461999139
  0
LINE
  5
434
330
A
100
AcDbEntity
  8
LAY-1
  6
Continuous
 62
     3
100
AcDbLine
 10
2.574447500000005
 20
92.28492799999997
 30
0.0
 11
2.185916500000004
 21
92.28492799999997
 31
0.0
  0
LINE
  5
435
330
A
100
AcDbEntity
  8
LAY-1
  6
Continuous
 62
     3
100
AcDbLine
 10
8.397385500000012
 20
92.28492799999997
 30
0.0
 11
8.785916500000013
 21
92.28492799999997
 31
0.0
  0
ARC
  5
436
330
A
100
AcDbEntity
  8
LAY-1
  6
Continuous
 62
     3
100
AcDbCircle
 10
5.485916499999987
 20
86.93800063240786
 30
0.0
 40
6.088208604529431
100
AcDbArc
 50
61.43115380008607
 51
118.5688461999139
  0
LINE
  5
437
330
A
100
AcDbEntity
  8
LAY-1
  6
Continuous
 62
     3
100
AcDbLine
 10
0.4859165000000161
 20
92.82199999999994
 30
0.0
 11
0.4859165000000161
 21
87.42200000000002
 31
0.0
  0
LINE
  5
438
330
A
100
AcDbEntity
  8
LAY-1
  6
Continuous
 62
     3
100
AcDbLine
 10
0.7859165000000133
 20
93.12199999999995
 30
0.0
 11
0.7859165000000133
 21
87.12200000000001
 31
0.0
  0
LINE
  5
439
330
A
100
AcDbEntity
  8
LAY-1
  6
Continuous
 62
     3
100
AcDbLine
 10
8.885916500000007
 20
83.87200000000001
 30
0.0
 11
10.08591650000001
 21
83.87200000000001
 31
0.0
  0
LINE
  5
43A
330
A
100
AcDbEntity
  8
LAY-1
  6
Continuous
 62
     3
100
AcDbLine
 10
8.785916500000013
 20
83.97199999999997
 30
0.0
 11
8.885916500000007
 21
83.87200000000001
 31
0.0
  0
LINE
  5
43B
330
A
100
AcDbEntity
  8
LAY-1
  6
Continuous
 62
     3
100
AcDbLine
 10
10.08591650000001
 20
83.87200000000001
 30
0.0
 11
10.1859165
 21
83.97199999999997
 31
0.0
  0
LINE
  5
43C
330
A
100
AcDbEntity
  8
LAY-1
  6
Continuous
 62
     3
100
AcDbLine
 10
8.885916500000007
 20
96.37200000000001
 30
0.0
 11
10.08591650000001
 21
96.37200000000001
 31
0.0
  0
LINE
  5
43D
330
A
100
AcDbEntity
  8
LAY-1
  6
Continuous
 62
     3
100
AcDbLine
 10
8.785916500000013
 20
90.12200000000001
 30
0.0
 11
8.785916500000013
 21
96.272
 31
0.0
  0
LINE
  5
43E
330
A
100
AcDbEntity
  8
LAY-1
  6
Continuous
 62
     3
100
AcDbLine
 10
8.785916500000013
 20
96.272
 30
0.0
 11
8.885916500000007
 21
96.37200000000001
 31
0.0
  0
LINE
  5
43F
330
A
100
AcDbEntity
  8
LAY-1
  6
Continuous
 62
     3
100
AcDbLine
 10
10.08591650000001
 20
96.37200000000001
 30
0.0
 11
10.1859165
 21
96.272
 31
0.0
  0
LINE
  5
440
330
A
100
AcDbEntity
  8
LAY-1
  6
Continuous
 62
     3
100
AcDbLine
 10
8.785916500000013
 20
90.12200000000001
 30
0.0
 11
8.785916500000013
 21
83.97199999999997
 31
0.0
  0
LINE
  5
441
330
A
100
AcDbEntity
  8
LAY-1
  6
Continuous
 62
     3
100
AcDbLine
 10
10.1859165
 20
90.12200000000001
 30
0.0
 11
10.1859165
 21
96.272
 31
0.0
  0
LINE
  5
442
330
A
100
AcDbEntity
  8
LAY-1
  6
Continuous
 62
     3
100
AcDbLine
 10
10.1859165
 20
90.12200000000001
 30
0.0
 11
10.1859165
 21
83.97199999999997
 31
0.0
  0
LINE
  5
443
330
A
100
AcDbEntity
  8
LAY-1
  6
Continuous
 62
     3
100
AcDbLine
 10
0.7859165000000133
 20
93.12199999999995
 30
0.0
 11
0.4859165000000161
 21
92.82199999999994
 31
0.0
  0
LINE
  5
444
330
A
100
AcDbEntity
  8
LAY-1
  6
Continuous
 62
     3
100
AcDbLine
 10
0.7859165000000133
 20
87.12200000000001
 30
0.0
 11
0.4859165000000161
 21
87.42200000000002
 31
0.0
  0
LINE
  5
445
330
A
100
AcDbEntity
  8
LAY-1
  6
Continuous
 62
     3
100
AcDbLine
 10
10.48591650000001
 20
92.82199999999994
 30
0.0
 11
10.48591650000001
 21
87.42200000000002
 31
0.0
  0
LINE
  5
446
330
A
100
AcDbEntity
  8
LAY-1
  6
Continuous
 62
     3
100
AcDbLine
 10
10.1859165
 20
93.12199999999995
 30
0.0
 11
10.1859165
 21
87.12200000000001
 31
0.0
  0
LINE
  5
447
330
A
100
AcDbEntity
  8
LAY-1
  6
Continuous
 62
     3
100
AcDbLine
 10
10.1859165
 20
93.12199999999995
 30
0.0
 11
10.48591650000001
 21
92.82199999999994
 31
0.0
  0
LINE
  5
448
330
A
100
AcDbEntity
  8
LAY-1
  6
Continuous
 62
     3
100
AcDbLine
 10
10.1859165
 20
87.12200000000001
 30
0.0
 11
10.48591650000001
 21
87.42200000000002
 31
0.0
  0
ENDSEC
  0
SECTION
  2
OBJECTS
  0
DICTIONARY
  5
19
330
0
100
AcDbDictionary
281
     1
  3
ACAD_CIP_PREVIOUS_PRODUCT_INFO
350
3E7
  3
ACAD_COLOR
350
3C7
  3
ACAD_DETAILVIEWSTYLE
350
3E1
  3
ACAD_GROUP
350
1A
  3
ACAD_LAYOUT
350
3C8
  3
ACAD_MATERIAL
350
395
  3
ACAD_MLEADERSTYLE
350
3DD
  3
ACAD_MLINESTYLE
350
1B
  3
ACAD_PLOTSETTINGS
350
3E3
  3
ACAD_PLOTSTYLENAME
350
393
  3
ACAD_SCALELIST
350
3CB
  3
ACAD_SECTIONVIEWSTYLE
350
3DF
  3
ACAD_TABLESTYLE
350
3C9
  3
ACAD_VISUALSTYLE
350
3AE
  3
ACDB_RECOMPOSE_DATA
350
483
  3
AcDbVariableDictionary
350
3E8
  3
ASE_INDEX_DICTIONARY
350
476
  3
DWGPROPS
350
484
  0
DICTIONARY
  5
3FB
330
2
100
AcDbDictionary
280
     1
281
     1
  3
ACAD_LAYERSTATES
360
3FC
  0
DICTIONARY
  5
46F
330
14
100
AcDbDictionary
280
     1
281
     1
  3
ADSK_XREC_LAYER_RECONCILED
360
470
  0
DICTIONARY
  5
471
330
25
100
AcDbDictionary
280
     1
281
     1
  3
ADSK_XREC_LAYER_RECONCILED
360
472
  0
DICTIONARY
  5
473
330
26
100
AcDbDictionary
280
     1
281
     1
  3
ADSK_XREC_LAYER_RECONCILED
360
474
  0
XRECORD
  5
3E7
102
{ACAD_REACTORS
330
19
102
}
330
19
100
AcDbXrecord
280
     1
300
ACD
300
2023
300

  0
DICTIONARY
  5
3C7
102
{ACAD_REACTORS
330
19
102
}
330
19
100
AcDbDictionary
281
     1
  0
DICTIONARY
  5
3E1
102
{ACAD_REACTORS
330
19
102
}
330
19
100
AcDbDictionary
281
     1
  3
Imperial24
350
3E2
  0
DICTIONARY
  5
1A
102
{ACAD_REACTORS
330
19
102
}
330
19
100
AcDbDictionary
281
     1
  0
DICTIONARY
  5
3C8
102
{ACAD_REACTORS
330
19
102
}
330
19
100
AcDbDictionary
281
     1
  3
Model
350
3E4
  3
レイアウト1
350
3E5
  0
DICTIONARY
  5
395
102
{ACAD_REACTORS
330
19
102
}
330
19
100
AcDbDictionary
281
     1
  3
ByBlock
350
39E
  3
ByLayer
350
396
  3
Global
350
3A6
  0
DICTIONARY
  5
3DD
102
{ACAD_REACTORS
330
19
102
}
330
19
100
AcDbDictionary
281
     1
  3
Standard
350
3DE
  0
DICTIONARY
  5
1B
102
{ACAD_REACTORS
330
19
102
}
330
19
100
AcDbDictionary
281
     1
  3
STANDARD
350
1C
  0
DICTIONARY
  5
3E3
102
{ACAD_REACTORS
330
19
102
}
330
19
100
AcDbDictionary
281
     1
  0
ACDBDICTIONARYWDFLT
  5
393
102
{ACAD_REACTORS
330
19
102
}
330
19
100
AcDbDictionary
281
     1
  3
Normal
350
394
100
AcDbDictionaryWithDefault
340
394
  0
DICTIONARY
  5
3CB
102
{ACAD_REACTORS
330
19
102
}
330
19
100
AcDbDictionary
281
     1
  3
A0
350
3CC
  3
A1
350
3CD
  3
A2
350
3CE
  3
A3
350
3CF
  3
A4
350
3D0
  3
A5
350
3D1
  3
A6
350
3D2
  3
A7
350
3D3
  3
A8
350
3D4
  3
A9
350
3D5
  3
B0
350
3D6
  3
B1
350
3D7
  3
B2
350
3D8
  3
B3
350
3D9
  3
B4
350
3DA
  3
B5
350
3DB
  3
B6
350
3DC
  0
DICTIONARY
  5
3DF
102
{ACAD_REACTORS
330
19
102
}
330
19
100
AcDbDictionary
281
     1
  3
Imperial24
350
3E0
  0
DICTIONARY
  5
3C9
102
{ACAD_REACTORS
330
19
102
}
330
19
100
AcDbDictionary
281
     1
  3
Standard
350
3CA
  0
DICTIONARY
  5
3AE
102
{ACAD_REACTORS
330
19
102
}
330
19
100
AcDbDictionary
281
     1
  3
2dWireframe
350
3B4
  3
Basic
350
3B3
  3
Brighten
350
3BA
  3
ColorChange
350
3BE
  3
Conceptual
350
3B7
  3
Dim
350
3B9
  3
EdgeColorOff
350
3C6
  3
Facepattern
350
3BD
  3
Flat
350
3AF
  3
FlatWithEdges
350
3B0
  3
Gouraud
350
3B1
  3
GouraudWithEdges
350
3B2
  3
Hidden
350
3B6
  3
JitterOff
350
3C4
  3
Linepattern
350
3BC
  3
OverhangOff
350
3C5
  3
Realistic
350
3B8
  3
Shaded
350
3C3
  3
Shaded with edges
350
3C2
  3
Shades of Gray
350
3BF
  3
Sketchy
350
3C0
  3
Thicken
350
3BB
  3
Wireframe
350
3B5
  3
X-Ray
350
3C1
  0
XRECORD
  5
483
102
{ACAD_REACTORS
330
19
102
}
330
19
100
AcDbXrecord
280
     1
 90
        1
330
3CA
  0
DICTIONARY
  5
3E8
102
{ACAD_REACTORS
330
19
102
}
330
19
100
AcDbDictionary
281
     1
  3
CANNOSCALE
350
47C
  3
CMLEADERSTYLE
350
479
  3
CTABLESTYLE
350
478
  3
CVIEWDETAILSTYLE
350
47A
  3
CVIEWSECTIONSTYLE
350
47B
  3
DIMASSOC
350
47F
  3
INDEXCTL
350
47E
  3
SORTENTS
350
47D
  3
XCLIPFRAME
350
480
  0
DICTIONARY
  5
476
102
{ACAD_REACTORS
330
19
102
}
330
19
100
AcDbDictionary
281
     1
  3
ASEBlockHierarchyIndexRecord
350
477
1001
DCO15
1040
2096352806.0
  0
XRECORD
  5
484
102
{ACAD_REACTORS
330
19
102
}
330
19
100
AcDbXrecord
280
     1
  1
DWGPROPS COOKIE
  2

  3

  4

  6

  7

  8
kato.t
  9

300
=
301
=
302
=
303
=
304
=
305
=
306
=
307
=
308
=
309
=
 40
0.0040277777777778
 41
2453478.290752315
 42
2460066.554513889
  1

 90
        0
  0
DICTIONARY
  5
3FC
102
{ACAD_REACTORS
330
3FB
102
}
330
3FB
100
AcDbDictionary
281
     1
  0
XRECORD
  5
470
102
{ACAD_REACTORS
330
46F
102
}
330
46F
100
AcDbXrecord
280
     1
290
     1
  0
XRECORD
  5
472
102
{ACAD_REACTORS
330
471
102
}
330
471
100
AcDbXrecord
280
     1
290
     1
  0
XRECORD
  5
474
102
{ACAD_REACTORS
330
473
102
}
330
473
100
AcDbXrecord
280
     1
290
     1
  0
ACDBDETAILVIEWSTYLE
  5
3E2
102
{ACAD_XDICTIONARY
360
4BC
102
}
102
{ACAD_REACTORS
330
3E1
102
}
330
3E1
100
AcDbModelDocViewStyle
 70
     0
  3
Imperial24
290
     0
100
AcDbDetailViewStyle
 70
     0
 71
     0
 90
        3
 71
     1
340
17
 40
0.24
340
0
 40
0.24
300

 40
0.36
280
     3
 71
     2
340
13
 90
       25
 71
     3
340
17
 40
0.24
 90
        1
 40
0.75
 90
        1
300
%<\AcVar ViewType \f "%tc1">% %<\AcVar ViewDetailId>%\PSCALE %<\AcVar ViewScale \f "%sn">%
 71
     4
340
13
 90
       25
340
13
 90
       25
280
     0
  0
LAYOUT
  5
3E4
102
{ACAD_XDICTIONARY
360
4BE
102
}
102
{ACAD_REACTORS
330
3C8
102
}
330
3C8
100
AcDbPlotSettings
  1

  2
OneNote for Windows 10
  4

  6

 40
0.0
 41
0.0
 42
0.0
 43
0.0
 44
0.0
 45
0.0
 46
0.0
 47
0.0
 48
0.0
 49
0.0
140
0.0
141
0.0
142
1.0
143
1.0
 70
  1712
 72
     0
 73
     0
 74
     0
  7

 75
     0
147
1.0
148
0.0
149
0.0
100
AcDbLayout
  1
Model
 70
     1
 71
     0
 10
0.0
 20
0.0
 11
12.0
 21
9.0
 12
0.0
 22
0.0
 32
0.0
 14
0.0
 24
0.0
 34
0.0
 15
0.0
 25
0.0
 35
0.0
146
0.0
 13
0.0
 23
0.0
 33
0.0
 16
1.0
 26
0.0
 36
0.0
 17
0.0
 27
1.0
 37
0.0
 76
     0
330
A
331
15
  0
LAYOUT
  5
3E5
102
{ACAD_XDICTIONARY
360
4C0
102
}
102
{ACAD_REACTORS
330
3C8
102
}
330
3C8
100
AcDbPlotSettings
  1

  2
OneNote for Windows 10
  4

  6

 40
0.0
 41
0.0
 42
0.0
 43
0.0
 44
0.0
 45
0.0
 46
0.0
 47
0.0
 48
0.0
 49
0.0
140
0.0
141
0.0
142
1.0
143
1.0
 70
   688
 72
     0
 73
     0
 74
     5
  7

 75
    16
147
1.0
148
0.0
149
0.0
100
AcDbLayout
  1
レイアウト1
 70
     0
 71
     1
 10
0.0
 20
0.0
 11
12.0
 21
9.0
 12
0.0
 22
0.0
 32
0.0
 14
1.000000000000000E+20
 24
1.000000000000000E+20
 34
1.000000000000000E+20
 15
-1.000000000000000E+20
 25
-1.000000000000000E+20
 35
-1.000000000000000E+20
146
0.0
 13
0.0
 23
0.0
 33
0.0
 16
1.0
 26
0.0
 36
0.0
 17
0.0
 27
1.0
 37
0.0
 76
     0
330
B
  0
MATERIAL
  5
39E
102
{ACAD_XDICTIONARY
360
39F
102
}
102
{ACAD_REACTORS
330
395
102
}
330
395
100
AcDbMaterial
  1
ByBlock
 72
     0
 43
0.0208333333333333
 43
0.0
 43
0.0
 43
0.0
 43
0.0
 43
0.0208333333333333
 43
0.0
 43
0.0
 43
0.0
 43
0.0
 43
1.0
 43
0.0
 43
0.0
 43
0.0
 43
0.0
 43
1.0
 77
     0
 47
0.0208333333333333
 47
0.0
 47
0.0
 47
0.0
 47
0.0
 47
0.0208333333333333
 47
0.0
 47
0.0
 47
0.0
 47
0.0
 47
1.0
 47
0.0
 47
0.0
 47
0.0
 47
0.0
 47
1.0
171
     0
 49
0.0208333333333333
 49
0.0
 49
0.0
 49
0.0
 49
0.0
 49
0.0208333333333333
 49
0.0
 49
0.0
 49
0.0
 49
0.0
 49
1.0
 49
0.0
 49
0.0
 49
0.0
 49
0.0
 49
1.0
175
     0
142
0.0208333333333333
142
0.0
142
0.0
142
0.0
142
0.0
142
0.0208333333333333
142
0.0
142
0.0
142
0.0
142
0.0
142
1.0
142
0.0
142
0.0
142
0.0
142
0.0
142
1.0
179
     0
144
0.0208333333333333
144
0.0
144
0.0
144
0.0
144
0.0
144
0.0208333333333333
144
0.0
144
0.0
144
0.0
144
0.0
144
1.0
144
0.0
144
0.0
144
0.0
144
0.0
144
1.0
147
0.0208333333333333
147
0.0
147
0.0
147
0.0
147
0.0
147
0.0208333333333333
147
0.0
147
0.0
147
0.0
147
0.0
147
1.0
147
0.0
147
0.0
147
0.0
147
0.0
147
1.0
  0
MATERIAL
  5
396
102
{ACAD_XDICTIONARY
360
397
102
}
102
{ACAD_REACTORS
330
395
102
}
330
395
100
AcDbMaterial
  1
ByLayer
 72
     0
 43
0.0208333333333333
 43
0.0
 43
0.0
 43
0.0
 43
0.0
 43
0.0208333333333333
 43
0.0
 43
0.0
 43
0.0
 43
0.0
 43
1.0
 43
0.0
 43
0.0
 43
0.0
 43
0.0
 43
1.0
 77
     0
 47
0.0208333333333333
 47
0.0
 47
0.0
 47
0.0
 47
0.0
 47
0.0208333333333333
 47
0.0
 47
0.0
 47
0.0
 47
0.0
 47
1.0
 47
0.0
 47
0.0
 47
0.0
 47
0.0
 47
1.0
171
     0
 49
0.0208333333333333
 49
0.0
 49
0.0
 49
0.0
 49
0.0
 49
0.0208333333333333
 49
0.0
 49
0.0
 49
0.0
 49
0.0
 49
1.0
 49
0.0
 49
0.0
 49
0.0
 49
0.0
 49
1.0
175
     0
142
0.0208333333333333
142
0.0
142
0.0
142
0.0
142
0.0
142
0.0208333333333333
142
0.0
142
0.0
142
0.0
142
0.0
142
1.0
142
0.0
142
0.0
142
0.0
142
0.0
142
1.0
179
     0
144
0.0208333333333333
144
0.0
144
0.0
144
0.0
144
0.0
144
0.0208333333333333
144
0.0
144
0.0
144
0.0
144
0.0
144
1.0
144
0.0
144
0.0
144
0.0
144
0.0
144
1.0
147
0.0208333333333333
147
0.0
147
0.0
147
0.0
147
0.0
147
0.0208333333333333
147
0.0
147
0.0
147
0.0
147
0.0
147
1.0
147
0.0
147
0.0
147
0.0
147
0.0
147
1.0
  0
MATERIAL
  5
3A6
102
{ACAD_XDICTIONARY
360
3A7
102
}
102
{ACAD_REACTORS
330
395
102
}
330
395
100
AcDbMaterial
  1
Global
 72
     0
 43
0.0208333333333333
 43
0.0
 43
0.0
 43
0.0
 43
0.0
 43
0.0208333333333333
 43
0.0
 43
0.0
 43
0.0
 43
0.0
 43
1.0
 43
0.0
 43
0.0
 43
0.0
 43
0.0
 43
1.0
 77
     0
 47
0.0208333333333333
 47
0.0
 47
0.0
 47
0.0
 47
0.0
 47
0.0208333333333333
 47
0.0
 47
0.0
 47
0.0
 47
0.0
 47
1.0
 47
0.0
 47
0.0
 47
0.0
 47
0.0
 47
1.0
171
     0
 49
0.0208333333333333
 49
0.0
 49
0.0
 49
0.0
 49
0.0
 49
0.0208333333333333
 49
0.0
 49
0.0
 49
0.0
 49
0.0
 49
1.0
 49
0.0
 49
0.0
 49
0.0
 49
0.0
 49
1.0
175
     0
142
0.0208333333333333
142
0.0
142
0.0
142
0.0
142
0.0
142
0.0208333333333333
142
0.0
142
0.0
142
0.0
142
0.0
142
1.0
142
0.0
142
0.0
142
0.0
142
0.0
142
1.0
179
     0
144
0.0208333333333333
144
0.0
144
0.0
144
0.0
144
0.0
144
0.0208333333333333
144
0.0
144
0.0
144
0.0
144
0.0
144
1.0
144
0.0
144
0.0
144
0.0
144
0.0
144
1.0
147
0.0208333333333333
147
0.0
147
0.0
147
0.0
147
0.0
147
0.0208333333333333
147
0.0
147
0.0
147
0.0
147
0.0
147
1.0
147
0.0
147
0.0
147
0.0
147
0.0
147
1.0
  0
MLEADERSTYLE
  5
3DE
102
{ACAD_REACTORS
330
3DD
102
}
330
3DD
100
AcDbMLeaderStyle
170
     2
171
     1
172
     0
 90
        2
 40
0.0
 41
0.0
173
     1
 91
-1056964608
340
11
 92
       -2
290
     1
 42
0.09
291
     1
 43
0.36
  3
Standard
 44
0.18
300

342
17
174
     1
178
     6
175
     1
176
     0
 93
-1056964608
 45
0.18
292
     0
297
     0
 46
0.18
 94
-1056964608
 47
1.0
 49
1.0
140
1.0
293
     1
141
0.0
294
     1
177
     0
142
1.0
295
     0
296
     0
143
0.125
1001
ACAD_MLEADERVER
1070
     2
  0
MLINESTYLE
  5
1C
102
{ACAD_REACTORS
330
1B
102
}
330
1B
100
AcDbMlineStyle
  2
STANDARD
 70
     0
  3

 62
     0
 51
90.0
 52
90.0
 71
     2
 49
0.5
 62
   256
  6
BYLAYER
 49
-0.5
 62
   256
  6
BYLAYER
  0
ACDBPLACEHOLDER
  5
394
102
{ACAD_REACTORS
330
393
102
}
330
393
  0
SCALE
  5
3CC
102
{ACAD_REACTORS
330
3CB
102
}
330
3CB
100
AcDbScale
 70
     0
300
1:1
140
1.0
141
1.0
290
     1
  0
SCALE
  5
3CD
102
{ACAD_REACTORS
330
3CB
102
}
330
3CB
100
AcDbScale
 70
     0
300
1/128" = 1'-0"
140
0.0078125
141
12.0
290
     0
  0
SCALE
  5
3CE
102
{ACAD_REACTORS
330
3CB
102
}
330
3CB
100
AcDbScale
 70
     0
300
1/64" = 1'-0"
140
0.015625
141
12.0
290
     0
  0
SCALE
  5
3CF
102
{ACAD_REACTORS
330
3CB
102
}
330
3CB
100
AcDbScale
 70
     0
300
1/32" = 1'-0"
140
0.03125
141
12.0
290
     0
  0
SCALE
  5
3D0
102
{ACAD_REACTORS
330
3CB
102
}
330
3CB
100
AcDbScale
 70
     0
300
1/16" = 1'-0"
140
0.0625
141
12.0
290
     0
  0
SCALE
  5
3D1
102
{ACAD_REACTORS
330
3CB
102
}
330
3CB
100
AcDbScale
 70
     0
300
3/32" = 1'-0"
140
0.09375
141
12.0
290
     0
  0
SCALE
  5
3D2
102
{ACAD_REACTORS
330
3CB
102
}
330
3CB
100
AcDbScale
 70
     0
300
1/8" = 1'-0"
140
0.125
141
12.0
290
     0
  0
SCALE
  5
3D3
102
{ACAD_REACTORS
330
3CB
102
}
330
3CB
100
AcDbScale
 70
     0
300
3/16" = 1'-0"
140
0.1875
141
12.0
290
     0
  0
SCALE
  5
3D4
102
{ACAD_REACTORS
330
3CB
102
}
330
3CB
100
AcDbScale
 70
     0
300
1/4" = 1'-0"
140
0.25
141
12.0
290
     0
  0
SCALE
  5
3D5
102
{ACAD_REACTORS
330
3CB
102
}
330
3CB
100
AcDbScale
 70
     0
300
3/8" = 1'-0"
140
0.375
141
12.0
290
     0
  0
SCALE
  5
3D6
102
{ACAD_REACTORS
330
3CB
102
}
330
3CB
100
AcDbScale
 70
     0
300
1/2" = 1'-0"
140
0.5
141
12.0
290
     0
  0
SCALE
  5
3D7
102
{ACAD_REACTORS
330
3CB
102
}
330
3CB
100
AcDbScale
 70
     0
300
3/4" = 1'-0"
140
0.75
141
12.0
290
     0
  0
SCALE
  5
3D8
102
{ACAD_REACTORS
330
3CB
102
}
330
3CB
100
AcDbScale
 70
     0
300
1" = 1'-0"
140
1.0
141
12.0
290
     0
  0
SCALE
  5
3D9
102
{ACAD_REACTORS
330
3CB
102
}
330
3CB
100
AcDbScale
 70
     0
300
1-1/2" = 1'-0"
140
1.5
141
12.0
290
     0
  0
SCALE
  5
3DA
102
{ACAD_REACTORS
330
3CB
102
}
330
3CB
100
AcDbScale
 70
     0
300
3" = 1'-0"
140
3.0
141
12.0
290
     0
  0
SCALE
  5
3DB
102
{ACAD_REACTORS
330
3CB
102
}
330
3CB
100
AcDbScale
 70
     0
300
6" = 1'-0"
140
6.0
141
12.0
290
     0
  0
SCALE
  5
3DC
102
{ACAD_REACTORS
330
3CB
102
}
330
3CB
100
AcDbScale
 70
     0
300
1'-0" = 1'-0"
140
12.0
141
12.0
290
     0
  0
ACDBSECTIONVIEWSTYLE
  5
3E0
102
{ACAD_XDICTIONARY
360
4BA
102
}
102
{ACAD_REACTORS
330
3DF
102
}
330
3DF
100
AcDbModelDocViewStyle
 70
     0
  3
Imperial24
290
     0
100
AcDbSectionViewStyle
 70
     0
 71
     0
 90
       78
 71
     1
340
17
 40
0.24
340
0
340
0
 40
0.24
300
I, O, Q, S, X, Z
 40
0.48
 90
        3
 40
0.18
 90
        1
 71
     2
340
13
 90
       25
340
13
 90
       50
 40
0.24
 40
0.0
 40
0.24
 71
     3
340
17
 40
0.24
 90
        1
 40
0.75
 90
        1
300
%<\AcVar ViewType \f "%tc1">% %<\AcVar ViewSectionStartId>%-%<\AcVar ViewSectionEndId>%\PSCALE %<\AcVar ViewScale \f "%sn">%
 71
     4
300
ANSI31
 40
1.0
 90
        0
290
     0
290
     0
 90
        6
 40
0.0
 40
1.570796326794896
 40
0.2617993877991494
 40
1.308996938995747
 40
-0.2617993877991494
 40
1.832595714594046
  0
TABLESTYLE
  5
3CA
102
{ACAD_XDICTIONARY
360
481
102
}
102
{ACAD_REACTORS
330
3C9
102
}
330
3C9
100
AcDbTableStyle
  3
Standard
 70
     0
 71
     0
 40
0.06
 41
0.06
280
     0
281
     0
  7
STANDARD
140
0.18
170
     2
 62
     0
 63
     7
283
     0
274
    -2
284
     1
 64
     0
275
    -2
285
     1
 65
     0
276
    -2
286
     1
 66
     0
277
    -2
287
     1
 67
     0
278
    -2
288
     1
 68
     0
279
    -2
289
     1
 69
     0
  7
STANDARD
140
0.25
170
     5
 62
     0
 63
     7
283
     0
274
    -2
284
     1
 64
     0
275
    -2
285
     1
 65
     0
276
    -2
286
     1
 66
     0
277
    -2
287
     1
 67
     0
278
    -2
288
     1
 68
     0
279
    -2
289
     1
 69
     0
  7
STANDARD
140
0.18
170
     5
 62
     0
 63
     7
283
     0
274
    -2
284
     1
 64
     0
275
    -2
285
     1
 65
     0
276
    -2
286
     1
 66
     0
277
    -2
287
     1
 67
     0
278
    -2
288
     1
 68
     0
279
    -2
289
     1
 69
     0
  0
VISUALSTYLE
  5
3B4
102
{ACAD_XDICTIONARY
360
492
102
}
102
{ACAD_REACTORS
330
3AE
102
}
330
3AE
100
AcDbVisualStyle
  2
2dWireframe
 70
     4
 71
     0
 72
     2
 73
     0
 90
        0
 40
-0.6
 41
-30.0
 62
     5
 63
     7
 74
     1
 91
        4
 64
     7
 65
   257
 75
     1
175
     1
 42
1.0
 92
        0
 66
   257
 43
1.0
 76
     1
 77
     6
 78
     2
 67
     7
 79
     5
170
     0
171
     0
290
     0
174
     0
 93
        1
 44
0.0
173
     0
291
     0
 45
0.0
1001
ACAD
1000
AcDbSavedByObjectVersion
1070
     0
  0
VISUALSTYLE
  5
3B3
102
{ACAD_XDICTIONARY
360
490
102
}
102
{ACAD_REACTORS
330
3AE
102
}
330
3AE
100
AcDbVisualStyle
  2
Basic
 70
     7
 71
     1
 72
     0
 73
     1
 90
        0
 40
-0.6
 41
-30.0
 62
     5
 63
     7
 74
     0
 91
        4
 64
     7
 65
   257
 75
     1
175
     1
 42
1.0
 92
        8
 66
     7
 43
1.0
 76
     1
 77
     6
 78
     2
 67
     7
 79
     5
170
     0
171
     0
290
     0
174
     0
 93
        1
 44
0.0
173
     0
291
     1
 45
0.0
1001
ACAD
1000
AcDbSavedByObjectVersion
1070
     0
  0
VISUALSTYLE
  5
3BA
102
{ACAD_XDICTIONARY
360
49E
102
}
102
{ACAD_REACTORS
330
3AE
102
}
330
3AE
100
AcDbVisualStyle
  2
Brighten
 70
    12
 71
     2
 72
     2
 73
     0
 90
        0
 40
-0.6
 41
-30.0
 62
     5
 63
     7
 74
     1
 91
        4
 64
     7
 65
   257
 75
     1
175
     1
 42
1.0
 92
        8
 66
     7
 43
1.0
 76
     1
 77
     6
 78
     2
 67
     7
 79
     5
170
     0
171
     0
290
     0
174
     0
 93
        1
 44
50.0
173
     0
291
     1
 45
0.0
1001
ACAD
1000
AcDbSavedByObjectVersion
1070
     0
  0
VISUALSTYLE
  5
3BE
102
{ACAD_XDICTIONARY
360
4A6
102
}
102
{ACAD_REACTORS
330
3AE
102
}
330
3AE
100
AcDbVisualStyle
  2
ColorChange
 70
    16
 71
     2
 72
     2
 73
     3
 90
        0
 40
-0.6
 41
-30.0
 62
     5
 63
     8
 74
     1
 91
        4
 64
     7
 65
   257
 75
     1
175
     1
 42
1.0
 92
        8
 66
     8
 43
1.0
 76
     1
 77
     6
 78
     2
 67
     7
 79
     5
170
     0
171
     0
290
     0
174
     0
 93
        1
 44
0.0
173
     0
291
     1
 45
0.0
1001
ACAD
1000
AcDbSavedByObjectVersion
1070
     0
  0
VISUALSTYLE
  5
3B7
102
{ACAD_XDICTIONARY
360
498
102
}
102
{ACAD_REACTORS
330
3AE
102
}
330
3AE
100
AcDbVisualStyle
  2
Conceptual
 70
     9
 71
     3
 72
     2
 73
     0
 90
        0
 40
-0.6
 41
-30.0
 62
     5
 63
     7
 74
     2
 91
        2
 64
     7
 65
   257
 75
     1
175
     1
 42
179.0
 92
        8
 66
     7
 43
1.0
 76
     1
 77
     6
 78
     2
 67
     7
 79
     3
170
     0
171
     0
290
     0
174
     0
 93
        1
 44
0.0
173
     0
291
     0
 45
0.0
1001
ACAD
1000
AcDbSavedByObjectVersion
1070
     0
  0
VISUALSTYLE
  5
3B9
102
{ACAD_XDICTIONARY
360
49C
102
}
102
{ACAD_REACTORS
330
3AE
102
}
330
3AE
100
AcDbVisualStyle
  2
Dim
 70
    11
 71
     2
 72
     2
 73
     0
 90
        0
 40
-0.6
 41
-30.0
 62
     5
 63
     7
 74
     1
 91
        4
 64
     7
 65
   257
 75
     1
175
     1
 42
1.0
 92
        8
 66
     7
 43
1.0
 76
     1
 77
     6
 78
     2
 67
     7
 79
     5
170
     0
171
     0
290
     0
174
     0
 93
        1
 44
-50.0
173
     0
291
     1
 45
0.0
1001
ACAD
1000
AcDbSavedByObjectVersion
1070
     0
  0
VISUALSTYLE
  5
3C6
102
{ACAD_XDICTIONARY
360
4B6
102
}
102
{ACAD_REACTORS
330
3AE
102
}
330
3AE
100
AcDbVisualStyle
  2
EdgeColorOff
 70
    22
 71
     2
 72
     2
 73
     0
 90
        0
 40
-0.6
 41
-30.0
 62
     5
 63
     7
 74
     1
 91
        4
 64
     7
 65
   257
 75
     1
175
     1
 42
1.0
 92
        8
 66
     7
 43
1.0
 76
     1
 77
     6
 78
     2
 67
     7
 79
     5
170
     0
171
     0
290
     0
174
     0
 93
        1
 44
0.0
173
     0
291
     1
 45
0.0
1001
ACAD
1000
AcDbSavedByObjectVersion
1070
     0
  0
VISUALSTYLE
  5
3BD
102
{ACAD_XDICTIONARY
360
4A4
102
}
102
{ACAD_REACTORS
330
3AE
102
}
330
3AE
100
AcDbVisualStyle
  2
Facepattern
 70
    15
 71
     2
 72
     2
 73
     0
 90
        0
 40
-0.6
 41
-30.0
 62
     5
 63
     7
 74
     1
 91
        4
 64
     7
 65
   257
 75
     1
175
     1
 42
1.0
 92
        8
 66
     7
 43
1.0
 76
     1
 77
     6
 78
     2
 67
     7
 79
     5
170
     0
171
     0
290
     0
174
     0
 93
        1
 44
0.0
173
     0
291
     1
 45
0.0
1001
ACAD
1000
AcDbSavedByObjectVersion
1070
     0
  0
VISUALSTYLE
  5
3AF
102
{ACAD_XDICTIONARY
360
488
102
}
102
{ACAD_REACTORS
330
3AE
102
}
330
3AE
100
AcDbVisualStyle
  2
Flat
 70
     0
 71
     2
 72
     1
 73
     1
 90
        2
 40
-0.6
 41
30.0
 62
     5
 63
     7
 74
     0
 91
        0
 64
     7
 65
   257
 75
     1
175
     1
 42
1.0
 92
        8
 66
     7
 43
1.0
 76
     1
 77
     6
 78
     2
 67
     7
 79
     5
170
     0
171
     0
290
     0
174
     0
 93
       13
 44
0.0
173
     0
291
     1
 45
0.0
1001
ACAD
1000
AcDbSavedByObjectVersion
1070
     0
  0
VISUALSTYLE
  5
3B0
102
{ACAD_XDICTIONARY
360
48A
102
}
102
{ACAD_REACTORS
330
3AE
102
}
330
3AE
100
AcDbVisualStyle
  2
FlatWithEdges
 70
     1
 71
     2
 72
     1
 73
     1
 90
        2
 40
-0.6
 41
30.0
 62
     5
 63
     7
 74
     1
 91
        0
 64
     7
 65
   257
 75
     1
175
     1
 42
1.0
 92
        0
 66
   257
 43
1.0
 76
     1
 77
     6
 78
     2
 67
     7
 79
     5
170
     0
171
     0
290
     0
174
     0
 93
       13
 44
0.0
173
     0
291
     1
 45
0.0
1001
ACAD
1000
AcDbSavedByObjectVersion
1070
     0
  0
VISUALSTYLE
  5
3B1
102
{ACAD_XDICTIONARY
360
48C
102
}
102
{ACAD_REACTORS
330
3AE
102
}
330
3AE
100
AcDbVisualStyle
  2
Gouraud
 70
     2
 71
     2
 72
     2
 73
     1
 90
        2
 40
-0.6
 41
30.0
 62
     5
 63
     7
 74
     0
 91
        0
 64
     7
 65
   257
 75
     1
175
     1
 42
1.0
 92
        0
 66
     7
 43
1.0
 76
     1
 77
     6
 78
     2
 67
     7
 79
     5
170
     0
171
     0
290
     0
174
     0
 93
       13
 44
0.0
173
     0
291
     1
 45
0.0
1001
ACAD
1000
AcDbSavedByObjectVersion
1070
     0
  0
VISUALSTYLE
  5
3B2
102
{ACAD_XDICTIONARY
360
48E
102
}
102
{ACAD_REACTORS
330
3AE
102
}
330
3AE
100
AcDbVisualStyle
  2
GouraudWithEdges
 70
     3
 71
     2
 72
     2
 73
     1
 90
        2
 40
-0.6
 41
30.0
 62
     5
 63
     7
 74
     1
 91
        0
 64
     7
 65
   257
 75
     1
175
     1
 42
1.0
 92
        0
 66
   257
 43
1.0
 76
     1
 77
     6
 78
     2
 67
     7
 79
     5
170
     0
171
     0
290
     0
174
     0
 93
       13
 44
0.0
173
     0
291
     1
 45
0.0
1001
ACAD
1000
AcDbSavedByObjectVersion
1070
     0
  0
VISUALSTYLE
  5
3B6
102
{ACAD_XDICTIONARY
360
496
102
}
102
{ACAD_REACTORS
330
3AE
102
}
330
3AE
100
AcDbVisualStyle
  2
Hidden
 70
     6
 71
     1
 72
     2
 73
     2
 90
        0
 40
-0.6
 41
-30.0
 62
     5
 63
     7
 74
     2
 91
        2
 64
     7
 65
   257
 75
     2
175
     1
 42
40.0
 92
        0
 66
   257
 43
1.0
 76
     1
 77
     6
 78
     2
 67
     7
 79
     3
170
     0
171
     0
290
     0
174
     0
 93
        1
 44
0.0
173
     0
291
     0
 45
0.0
1001
ACAD
1000
AcDbSavedByObjectVersion
1070
     0
  0
VISUALSTYLE
  5
3C4
102
{ACAD_XDICTIONARY
360
4B2
102
}
102
{ACAD_REACTORS
330
3AE
102
}
330
3AE
100
AcDbVisualStyle
  2
JitterOff
 70
    20
 71
     2
 72
     2
 73
     0
 90
        0
 40
-0.6
 41
-30.0
 62
     5
 63
     7
 74
     1
 91
        4
 64
     7
 65
   257
 75
     1
175
     1
 42
1.0
 92
       10
 66
     7
 43
1.0
 76
     1
 77
     6
 78
     2
 67
     7
 79
     5
170
     0
171
     0
290
     0
174
     0
 93
        1
 44
0.0
173
     0
291
     1
 45
0.0
1001
ACAD
1000
AcDbSavedByObjectVersion
1070
     0
  0
VISUALSTYLE
  5
3BC
102
{ACAD_XDICTIONARY
360
4A2
102
}
102
{ACAD_REACTORS
330
3AE
102
}
330
3AE
100
AcDbVisualStyle
  2
Linepattern
 70
    14
 71
     2
 72
     2
 73
     0
 90
        0
 40
-0.6
 41
-30.0
 62
     5
 63
     7
 74
     1
 91
        4
 64
     7
 65
   257
 75
     7
175
     7
 42
1.0
 92
        8
 66
     7
 43
1.0
 76
     1
 77
     6
 78
     2
 67
     7
 79
     5
170
     0
171
     0
290
     0
174
     0
 93
        1
 44
0.0
173
     0
291
     1
 45
0.0
1001
ACAD
1000
AcDbSavedByObjectVersion
1070
     0
  0
VISUALSTYLE
  5
3C5
102
{ACAD_XDICTIONARY
360
4B4
102
}
102
{ACAD_REACTORS
330
3AE
102
}
330
3AE
100
AcDbVisualStyle
  2
OverhangOff
 70
    21
 71
     2
 72
     2
 73
     0
 90
        0
 40
-0.6
 41
-30.0
 62
     5
 63
     7
 74
     1
 91
        4
 64
     7
 65
   257
 75
     1
175
     1
 42
1.0
 92
        9
 66
     7
 43
1.0
 76
     1
 77
     6
 78
     2
 67
     7
 79
     5
170
     0
171
     0
290
     0
174
     0
 93
        1
 44
0.0
173
     0
291
     1
 45
0.0
1001
ACAD
1000
AcDbSavedByObjectVersion
1070
     0
  0
VISUALSTYLE
  5
3B8
102
{ACAD_XDICTIONARY
360
49A
102
}
102
{ACAD_REACTORS
330
3AE
102
}
330
3AE
100
AcDbVisualStyle
  2
Realistic
 70
     8
 71
     2
 72
     3
 73
     0
 90
        2
 40
-0.6
 41
30.0
 62
     5
 63
     7
 74
     0
 91
        0
 64
     7
 65
   257
 75
     1
175
     1
 42
1.0
 92
        8
 66
   257
 43
1.0
 76
     1
 77
     6
 78
     2
 67
     7
 79
     3
170
     0
171
     0
290
     0
174
     0
 93
       13
 44
0.0
173
     0
291
     0
 45
0.0
1001
ACAD
1000
AcDbSavedByObjectVersion
1070
     0
  0
VISUALSTYLE
  5
3C3
102
{ACAD_XDICTIONARY
360
4B0
102
}
102
{ACAD_REACTORS
330
3AE
102
}
330
3AE
100
AcDbVisualStyle
  2
Shaded
 70
    27
 71
     2
 72
     2
 73
     1
 90
        2
 40
-0.6
 41
30.0
 62
     5
 63
     7
 74
     0
 91
        4
 64
     7
 65
   257
 75
     1
175
     1
 42
1.0
 92
        8
 66
   257
 43
1.0
 76
     1
 77
     6
 78
     2
 67
     8
 79
     3
170
     0
171
     0
290
     0
174
     0
 93
        5
 44
0.0
173
     0
291
     0
 45
0.0
1001
ACAD
1000
AcDbSavedByObjectVersion
1070
     0
  0
VISUALSTYLE
  5
3C2
102
{ACAD_XDICTIONARY
360
4AE
102
}
102
{ACAD_REACTORS
330
3AE
102
}
330
3AE
100
AcDbVisualStyle
  2
Shaded with edges
 70
    26
 71
     2
 72
     2
 73
     1
 90
        2
 40
-0.6
 41
30.0
 62
     5
 63
     7
 74
     1
 91
        2
 64
     7
 65
   257
 75
     2
175
     1
 42
1.0
 92
        8
 66
   257
 43
1.0
 76
     1
 77
     6
 78
     2
 67
     7
 79
     3
170
     0
171
     0
290
     0
174
     0
 93
        5
 44
0.0
173
     0
291
     0
 45
0.0
1001
ACAD
1000
AcDbSavedByObjectVersion
1070
     0
  0
VISUALSTYLE
  5
3BF
102
{ACAD_XDICTIONARY
360
4A8
102
}
102
{ACAD_REACTORS
330
3AE
102
}
330
3AE
100
AcDbVisualStyle
  2
Shades of Gray
 70
    23
 71
     2
 72
     2
 73
     3
 90
        0
 40
-0.6
 41
-30.0
 62
     5
 63
     7
 74
     2
 91
        2
 64
     7
 65
     7
 75
     1
175
     1
 42
40.0
 92
        8
 66
     7
 43
1.0
 76
     1
 77
     6
 78
     2
 67
     7
 79
     3
170
     0
171
     0
290
     0
174
     0
 93
        1
 44
0.0
173
     0
291
     0
 45
0.0
1001
ACAD
1000
AcDbSavedByObjectVersion
1070
     0
  0
VISUALSTYLE
  5
3C0
102
{ACAD_XDICTIONARY
360
4AA
102
}
102
{ACAD_REACTORS
330
3AE
102
}
330
3AE
100
AcDbVisualStyle
  2
Sketchy
 70
    24
 71
     1
 72
     2
 73
     2
 90
        0
 40
-0.6
 41
-30.0
 62
     5
 63
     7
 74
     2
 91
        2
 64
     7
 65
     7
 75
     1
175
     1
 42
40.0
 92
       11
 66
     7
 43
1.0
 76
     1
 77
     6
 78
     2
 67
     7
 79
     6
170
     0
171
     0
290
     0
174
     0
 93
        1
 44
0.0
173
     0
291
     0
 45
0.0
1001
ACAD
1000
AcDbSavedByObjectVersion
1070
     0
  0
VISUALSTYLE
  5
3BB
102
{ACAD_XDICTIONARY
360
4A0
102
}
102
{ACAD_REACTORS
330
3AE
102
}
330
3AE
100
AcDbVisualStyle
  2
Thicken
 70
    13
 71
     2
 72
     2
 73
     0
 90
        0
 40
-0.6
 41
-30.0
 62
     5
 63
     7
 74
     1
 91
        4
 64
     7
 65
   257
 75
     1
175
     1
 42
1.0
 92
       12
 66
     7
 43
1.0
 76
     1
 77
     6
 78
     2
 67
     7
 79
     5
170
     0
171
     0
290
     0
174
     0
 93
        1
 44
0.0
173
     0
291
     1
 45
0.0
1001
ACAD
1000
AcDbSavedByObjectVersion
1070
     0
  0
VISUALSTYLE
  5
3B5
102
{ACAD_XDICTIONARY
360
494
102
}
102
{ACAD_REACTORS
330
3AE
102
}
330
3AE
100
AcDbVisualStyle
  2
Wireframe
 70
     5
 71
     0
 72
     2
 73
     0
 90
        0
 40
-0.6
 41
-30.0
 62
     5
 63
     7
 74
     1
 91
        4
 64
     7
 65
   257
 75
     1
175
     1
 42
1.0
 92
        0
 66
   257
 43
1.0
 76
     1
 77
     6
 78
     2
 67
     7
 79
     3
170
     0
171
     0
290
     0
174
     0
 93
        1
 44
0.0
173
     0
291
     0
 45
0.0
1001
ACAD
1000
AcDbSavedByObjectVersion
1070
     0
  0
VISUALSTYLE
  5
3C1
102
{ACAD_XDICTIONARY
360
4AC
102
}
102
{ACAD_REACTORS
330
3AE
102
}
330
3AE
100
AcDbVisualStyle
  2
X-Ray
 70
    25
 71
     2
 72
     2
 73
     1
 90
        1
 40
0.5
 41
-30.0
 62
     5
 63
     7
 74
     1
 91
        0
 64
     7
 65
   257
 75
     1
175
     1
 42
1.0
 92
        8
 66
     7
 43
1.0
 76
     1
 77
     6
 78
     2
 67
     7
 79
     3
170
     0
171
     0
290
     0
174
     0
 93
       13
 44
0.0
173
     0
291
     0
 45
0.0
1001
ACAD
1000
AcDbSavedByObjectVersion
1070
     0
  0
DICTIONARYVAR
  5
47C
102
{ACAD_REACTORS
330
3E8
102
}
330
3E8
100
DictionaryVariables
280
     0
  1
1:1
  0
DICTIONARYVAR
  5
479
102
{ACAD_REACTORS
330
3E8
102
}
330
3E8
100
DictionaryVariables
280
     0
  1
STANDARD
  0
DICTIONARYVAR
  5
478
102
{ACAD_REACTORS
330
3E8
102
}
330
3E8
100
DictionaryVariables
280
     0
  1
STANDARD
  0
DICTIONARYVAR
  5
47A
102
{ACAD_REACTORS
330
3E8
102
}
330
3E8
100
DictionaryVariables
280
     0
  1
Imperial24
  0
DICTIONARYVAR
  5
47B
102
{ACAD_REACTORS
330
3E8
102
}
330
3E8
100
DictionaryVariables
280
     0
  1
Imperial24
  0
DICTIONARYVAR
  5
47F
102
{ACAD_REACTORS
330
3E8
102
}
330
3E8
100
DictionaryVariables
280
     0
  1
1
  0
DICTIONARYVAR
  5
47E
102
{ACAD_REACTORS
330
3E8
102
}
330
3E8
100
DictionaryVariables
280
     0
  1
0
  0
DICTIONARYVAR
  5
47D
102
{ACAD_REACTORS
330
3E8
102
}
330
3E8
100
DictionaryVariables
280
     0
  1
127
  0
DICTIONARYVAR
  5
480
102
{ACAD_REACTORS
330
3E8
102
}
330
3E8
100
DictionaryVariables
280
     0
  1
2
  0
XRECORD
  5
477
102
{ACAD_REACTORS
330
476
102
}
330
476
100
AcDbXrecord
280
     1
  0
DICTIONARY
  5
4BC
330
3E2
100
AcDbDictionary
280
     1
281
     1
  3
ACAD_XREC_ROUNDTRIP
360
4BD
  0
DICTIONARY
  5
4BE
330
3E4
100
AcDbDictionary
280
     1
281
     1
  3
ACAD_XREC_ROUNDTRIP
360
4BF
  0
DICTIONARY
  5
4C0
330
3E5
100
AcDbDictionary
280
     1
281
     1
  3
ACAD_XREC_ROUNDTRIP
360
4C1
  0
DICTIONARY
  5
39F
330
39E
100
AcDbDictionary
280
     1
281
     1
  3
ACAD_XREC_ROUNDTRIP
360
486
  3
BUMPTILE
360
3A1
  3
DIFFUSETILE
360
3A0
  3
OPACITYTILE
360
3A4
  3
REFLECTIONTILE
360
3A3
  3
REFRACTIONTILE
360
3A5
  3
SPECULARTILE
360
3A2
  0
DICTIONARY
  5
397
330
396
100
AcDbDictionary
280
     1
281
     1
  3
ACAD_XREC_ROUNDTRIP
360
485
  3
BUMPTILE
360
399
  3
DIFFUSETILE
360
398
  3
OPACITYTILE
360
39C
  3
REFLECTIONTILE
360
39B
  3
REFRACTIONTILE
360
39D
  3
SPECULARTILE
360
39A
  0
DICTIONARY
  5
3A7
330
3A6
100
AcDbDictionary
280
     1
281
     1
  3
ACAD_XREC_ROUNDTRIP
360
487
  3
BUMPTILE
360
3A9
  3
DIFFUSETILE
360
3A8
  3
OPACITYTILE
360
3AC
  3
REFLECTIONTILE
360
3AB
  3
REFRACTIONTILE
360
3AD
  3
SPECULARTILE
360
3AA
  0
DICTIONARY
  5
4BA
330
3E0
100
AcDbDictionary
280
     1
281
     1
  3
ACAD_XREC_ROUNDTRIP
360
4BB
  0
DICTIONARY
  5
481
330
3CA
100
AcDbDictionary
280
     1
281
     1
  3
ACAD_ROUNDTRIP_2008_TABLESTYLE_CELLSTYLEMAP
360
482
  3
ACAD_XREC_ROUNDTRIP
360
4B8
  0
DICTIONARY
  5
492
330
3B4
100
AcDbDictionary
280
     1
281
     1
  3
ACAD_XREC_ROUNDTRIP
360
493
  0
DICTIONARY
  5
490
330
3B3
100
AcDbDictionary
280
     1
281
     1
  3
ACAD_XREC_ROUNDTRIP
360
491
  0
DICTIONARY
  5
49E
330
3BA
100
AcDbDictionary
280
     1
281
     1
  3
ACAD_XREC_ROUNDTRIP
360
49F
  0
DICTIONARY
  5
4A6
330
3BE
100
AcDbDictionary
280
     1
281
     1
  3
ACAD_XREC_ROUNDTRIP
360
4A7
  0
DICTIONARY
  5
498
330
3B7
100
AcDbDictionary
280
     1
281
     1
  3
ACAD_XREC_ROUNDTRIP
360
499
  0
DICTIONARY
  5
49C
330
3B9
100
AcDbDictionary
280
     1
281
     1
  3
ACAD_XREC_ROUNDTRIP
360
49D
  0
DICTIONARY
  5
4B6
330
3C6
100
AcDbDictionary
280
     1
281
     1
  3
ACAD_XREC_ROUNDTRIP
360
4B7
  0
DICTIONARY
  5
4A4
330
3BD
100
AcDbDictionary
280
     1
281
     1
  3
ACAD_XREC_ROUNDTRIP
360
4A5
  0
DICTIONARY
  5
488
330
3AF
100
AcDbDictionary
280
     1
281
     1
  3
ACAD_XREC_ROUNDTRIP
360
489
  0
DICTIONARY
  5
48A
330
3B0
100
AcDbDictionary
280
     1
281
     1
  3
ACAD_XREC_ROUNDTRIP
360
48B
  0
DICTIONARY
  5
48C
330
3B1
100
AcDbDictionary
280
     1
281
     1
  3
ACAD_XREC_ROUNDTRIP
360
48D
  0
DICTIONARY
  5
48E
330
3B2
100
AcDbDictionary
280
     1
281
     1
  3
ACAD_XREC_ROUNDTRIP
360
48F
  0
DICTIONARY
  5
496
330
3B6
100
AcDbDictionary
280
     1
281
     1
  3
ACAD_XREC_ROUNDTRIP
360
497
  0
DICTIONARY
  5
4B2
330
3C4
100
AcDbDictionary
280
     1
281
     1
  3
ACAD_XREC_ROUNDTRIP
360
4B3
  0
DICTIONARY
  5
4A2
330
3BC
100
AcDbDictionary
280
     1
281
     1
  3
ACAD_XREC_ROUNDTRIP
360
4A3
  0
DICTIONARY
  5
4B4
330
3C5
100
AcDbDictionary
280
     1
281
     1
  3
ACAD_XREC_ROUNDTRIP
360
4B5
  0
DICTIONARY
  5
49A
330
3B8
100
AcDbDictionary
280
     1
281
     1
  3
ACAD_XREC_ROUNDTRIP
360
49B
  0
DICTIONARY
  5
4B0
330
3C3
100
AcDbDictionary
280
     1
281
     1
  3
ACAD_XREC_ROUNDTRIP
360
4B1
  0
DICTIONARY
  5
4AE
330
3C2
100
AcDbDictionary
280
     1
281
     1
  3
ACAD_XREC_ROUNDTRIP
360
4AF
  0
DICTIONARY
  5
4A8
330
3BF
100
AcDbDictionary
280
     1
281
     1
  3
ACAD_XREC_ROUNDTRIP
360
4A9
  0
DICTIONARY
  5
4AA
330
3C0
100
AcDbDictionary
280
     1
281
     1
  3
ACAD_XREC_ROUNDTRIP
360
4AB
  0
DICTIONARY
  5
4A0
330
3BB
100
AcDbDictionary
280
     1
281
     1
  3
ACAD_XREC_ROUNDTRIP
360
4A1
  0
DICTIONARY
  5
494
330
3B5
100
AcDbDictionary
280
     1
281
     1
  3
ACAD_XREC_ROUNDTRIP
360
495
  0
DICTIONARY
  5
4AC
330
3C1
100
AcDbDictionary
280
     1
281
     1
  3
ACAD_XREC_ROUNDTRIP
360
4AD
  0
XRECORD
  5
4BD
102
{ACAD_REACTORS
330
4BC
102
}
330
4BC
100
AcDbXrecord
280
     1
102
DISPLAYNAME
  1
Imperial24
102
FLAGS
 90
        0
  0
XRECORD
  5
4BF
102
{ACAD_REACTORS
330
4BE
102
}
330
4BE
100
AcDbXrecord
280
     1
102
SHADEPLOT
 70
     0
102
SHADEPLOTRESLEVEL
 70
     2
102
SHADEPLOTCUSTOMDPI
 70
   300
  0
XRECORD
  5
4C1
102
{ACAD_REACTORS
330
4C0
102
}
330
4C0
100
AcDbXrecord
280
     1
102
SHADEPLOT
 70
     0
102
SHADEPLOTRESLEVEL
 70
     2
102
SHADEPLOTCUSTOMDPI
 70
   300
  0
XRECORD
  5
486
102
{ACAD_REACTORS
330
39F
102
}
330
39F
100
AcDbXrecord
280
     1
102
MATERIAL
148
0.0
149
0.0
149
0.0
 93
        0
 94
      127
282
     0
 72
     0
 77
     0
171
     0
175
     0
179
     0
273
     0
  0
XRECORD
  5
3A1
102
{ACAD_REACTORS
330
39F
102
}
330
39F
100
AcDbXrecord
280
     1
270
     1
271
     1
  0
XRECORD
  5
3A0
102
{ACAD_REACTORS
330
39F
102
}
330
39F
100
AcDbXrecord
280
     1
270
     1
271
     1
  0
XRECORD
  5
3A4
102
{ACAD_REACTORS
330
39F
102
}
330
39F
100
AcDbXrecord
280
     1
270
     1
271
     1
  0
XRECORD
  5
3A3
102
{ACAD_REACTORS
330
39F
102
}
330
39F
100
AcDbXrecord
280
     1
270
     1
271
     1
  0
XRECORD
  5
3A5
102
{ACAD_REACTORS
330
39F
102
}
330
39F
100
AcDbXrecord
280
     1
270
     1
271
     1
  0
XRECORD
  5
3A2
102
{ACAD_REACTORS
330
39F
102
}
330
39F
100
AcDbXrecord
280
     1
270
     1
271
     1
  0
XRECORD
  5
485
102
{ACAD_REACTORS
330
397
102
}
330
397
100
AcDbXrecord
280
     1
102
MATERIAL
148
0.0
149
0.0
149
0.0
 93
        0
 94
      127
282
     0
 72
     0
 77
     0
171
     0
175
     0
179
     0
273
     0
  0
XRECORD
  5
399
102
{ACAD_REACTORS
330
397
102
}
330
397
100
AcDbXrecord
280
     1
270
     1
271
     1
  0
XRECORD
  5
398
102
{ACAD_REACTORS
330
397
102
}
330
397
100
AcDbXrecord
280
     1
270
     1
271
     1
  0
XRECORD
  5
39C
102
{ACAD_REACTORS
330
397
102
}
330
397
100
AcDbXrecord
280
     1
270
     1
271
     1
  0
XRECORD
  5
39B
102
{ACAD_REACTORS
330
397
102
}
330
397
100
AcDbXrecord
280
     1
270
     1
271
     1
  0
XRECORD
  5
39D
102
{ACAD_REACTORS
330
397
102
}
330
397
100
AcDbXrecord
280
     1
270
     1
271
     1
  0
XRECORD
  5
39A
102
{ACAD_REACTORS
330
397
102
}
330
397
100
AcDbXrecord
280
     1
270
     1
271
     1
  0
XRECORD
  5
487
102
{ACAD_REACTORS
330
3A7
102
}
330
3A7
100
AcDbXrecord
280
     1
102
MATERIAL
148
0.0
149
0.0
149
0.0
 93
        0
 94
      127
282
     0
 72
     0
 77
     0
171
     0
175
     0
179
     0
273
     0
  0
XRECORD
  5
3A9
102
{ACAD_REACTORS
330
3A7
102
}
330
3A7
100
AcDbXrecord
280
     1
270
     1
271
     1
  0
XRECORD
  5
3A8
102
{ACAD_REACTORS
330
3A7
102
}
330
3A7
100
AcDbXrecord
280
     1
270
     1
271
     1
  0
XRECORD
  5
3AC
102
{ACAD_REACTORS
330
3A7
102
}
330
3A7
100
AcDbXrecord
280
     1
270
     1
271
     1
  0
XRECORD
  5
3AB
102
{ACAD_REACTORS
330
3A7
102
}
330
3A7
100
AcDbXrecord
280
     1
270
     1
271
     1
  0
XRECORD
  5
3AD
102
{ACAD_REACTORS
330
3A7
102
}
330
3A7
100
AcDbXrecord
280
     1
270
     1
271
     1
  0
XRECORD
  5
3AA
102
{ACAD_REACTORS
330
3A7
102
}
330
3A7
100
AcDbXrecord
280
     1
270
     1
271
     1
  0
XRECORD
  5
4BB
102
{ACAD_REACTORS
330
4BA
102
}
330
4BA
100
AcDbXrecord
280
     1
102
DISPLAYNAME
  1
Imperial24
102
FLAGS
 90
        0
  0
CELLSTYLEMAP
  5
482
102
{ACAD_REACTORS
330
481
102
}
330
481
100
AcDbCellStyleMap
 90
        3
300
CELLSTYLE
  1
TABLEFORMAT_BEGIN
 90
        5
170
     1
 91
        0
 92
    32768
 62
   257
 93
        1
300
CONTENTFORMAT
  1
CONTENTFORMAT_BEGIN
 90
        0
 91
        0
 92
      512
 93
        0
300

 40
0.0
140
1.0
 94
        5
 62
     0
340
17
144
0.25
309
CONTENTFORMAT_END
171
     0
 94
        0
309
TABLEFORMAT_END
  1
CELLSTYLE_BEGIN
 90
        1
 91
        1
300
_TITLE
309
CELLSTYLE_END
300
CELLSTYLE
  1
TABLEFORMAT_BEGIN
 90
        5
170
     1
 91
        0
 92
        0
 62
   257
 93
        1
300
CONTENTFORMAT
  1
CONTENTFORMAT_BEGIN
 90
        0
 91
        0
 92
      512
 93
        0
300

 40
0.0
140
1.0
 94
        5
 62
     0
340
17
144
0.18
309
CONTENTFORMAT_END
171
     0
 94
        0
309
TABLEFORMAT_END
  1
CELLSTYLE_BEGIN
 90
        2
 91
        1
300
_HEADER
309
CELLSTYLE_END
300
CELLSTYLE
  1
TABLEFORMAT_BEGIN
 90
        5
170
     1
 91
        0
 92
        0
 62
   257
 93
        1
300
CONTENTFORMAT
  1
CONTENTFORMAT_BEGIN
 90
        0
 91
        0
 92
      512
 93
        0
300

 40
0.0
140
1.0
 94
        2
 62
     0
340
17
144
0.18
309
CONTENTFORMAT_END
171
     0
 94
        0
309
TABLEFORMAT_END
  1
CELLSTYLE_BEGIN
 90
        3
 91
        2
300
_DATA
309
CELLSTYLE_END
  0
XRECORD
  5
4B8
102
{ACAD_REACTORS
330
481
102
}
330
481
100
AcDbXrecord
280
     1
102
ACAD_ROUNDTRIP_PRE2007_TABLESTYLE
 90
      512
 91
        0
  1

 92
      512
 93
        0
  2

 94
      512
 95
        0
  3

  0
XRECORD
  5
493
102
{ACAD_REACTORS
330
492
102
}
330
492
100
AcDbXrecord
280
     1
102
RTVSPost2010Prop28
280
     1
102
RTVSPost2010PropOp28
 70
     1
102
RTVSPost2010Prop29
280
     1
102
RTVSPost2010PropOp29
 70
     1
102
RTVSPost2010Prop30
280
     0
102
RTVSPost2010PropOp30
 70
     1
102
RTVSPost2010Prop31
280
     0
102
RTVSPost2010PropOp31
 70
     1
102
RTVSPost2010Prop32
280
     0
102
RTVSPost2010PropOp32
 70
     1
102
RTVSPost2010Prop33
280
     0
102
RTVSPost2010PropOp33
 70
     1
102
RTVSPost2010Prop34
280
     0
102
RTVSPost2010PropOp34
 70
     1
102
RTVSPost2010Prop35
280
     0
102
RTVSPost2010PropOp35
 70
     1
102
RTVSPost2010Prop36
280
     0
102
RTVSPost2010PropOp36
 70
     1
102
RTVSPost2010Prop37
 90
       50
102
RTVSPost2010PropOp37
 70
     1
102
RTVSPost2010Prop38
140
0.0
102
RTVSPost2010PropOp38
 70
     1
102
RTVSPost2010Prop39
140
1.0
102
RTVSPost2010PropOp39
 70
     1
102
RTVSPost2010Prop40
 90
        0
102
RTVSPost2010PropOp40
 70
     1
102
RTVSPost2010Prop41ColorIndex
 90
       18
102
RTVSPost2010Prop41ColorRGB
 90
        0
102
RTVSPost2010PropOp41
 70
     1
102
RTVSPost2010Prop42
 90
       50
102
RTVSPost2010PropOp42
 70
     1
102
RTVSPost2010Prop43
 90
        3
102
RTVSPost2010PropOp43
 70
     1
102
RTVSPost2010Prop44ColorIndex
 90
        5
102
RTVSPost2010Prop44ColorRGB
 90
      255
102
RTVSPost2010PropOp44
 70
     1
102
RTVSPost2010Prop45
280
     0
102
RTVSPost2010PropOp45
 70
     1
102
RTVSPost2010Prop46
 90
       50
102
RTVSPost2010PropOp46
 70
     1
102
RTVSPost2010Prop47
 90
       50
102
RTVSPost2010PropOp47
 70
     1
102
RTVSPost2010Prop48
 90
       50
102
RTVSPost2010PropOp48
 70
     1
102
RTVSPost2010Prop49
280
     0
102
RTVSPost2010PropOp49
 70
     1
102
RTVSPost2010Prop50
 90
       50
102
RTVSPost2010PropOp50
 70
     1
102
RTVSPost2010Prop51ColorIndex
 90
      256
102
RTVSPost2010Prop51ColorRGB
 90
-16777216
102
RTVSPost2010PropOp51
 70
     0
102
RTVSPost2010Prop52
140
1.0
102
RTVSPost2010PropOp52
 70
     0
102
RTVSPost2010Prop53
 90
        2
102
RTVSPost2010PropOp53
 70
     1
102
RTVSPost2010Prop54
  1
strokes_ogs.tif
102
RTVSPost2010PropOp54
 70
     1
102
RTVSPost2010Prop55
280
     0
102
RTVSPost2010PropOp55
 70
     1
102
RTVSPost2010Prop56
140
1.0
102
RTVSPost2010PropOp56
 70
     1
102
RTVSPost2010Prop57
140
1.0
102
RTVSPost2010PropOp57
 70
     1
102
RTVSPropertyOp0
 70
     1
102
RTVSPropertyOp1
 70
     1
102
RTVSPropertyOp2
 70
     1
102
RTVSPropertyOp3
 70
     1
102
RTVSPropertyOp4
 70
     1
102
RTVSPropertyOp5
 70
     1
102
RTVSPropertyOp6
 70
     1
102
RTVSPropertyOp7
 70
     1
102
RTVSPropertyOp8
 70
     1
102
RTVSPropertyOp9
 70
     1
102
RTVSPropertyOp10
 70
     1
102
RTVSPropertyOp11
 70
     1
102
RTVSPropertyOp12
 70
     1
102
RTVSPropertyOp13
 70
     1
102
RTVSPropertyOp14
 70
     1
102
RTVSPropertyOp15
 70
     1
102
RTVSPropertyOp16
 70
     1
102
RTVSPropertyOp17
 70
     1
102
RTVSPropertyOp18
 70
     1
102
RTVSPropertyOp19
 70
     1
102
RTVSPropertyOp20
 70
     1
102
RTVSPropertyOp21
 70
     1
102
RTVSPropertyOp22
 70
     1
102
RTVSPropertyOp23
 70
     1
102
RTVSPropertyOp24
 70
     1
102
RTVSPropertyOp25
 70
     1
102
RTVSPropertyOp26
 70
     1
102
RTVSPropertyOp27
 70
     1
102
RTVSPropertyOp28
 70
     1
102
RTVSPropertyOp29
 70
     1
102
RTVSPropertyOp30
 70
     1
102
RTVSPropertyOp31
 70
     1
102
RTVSPropertyOp32
 70
     1
102
RTVSPropertyOp33
 70
     1
102
RTVSPropertyOp34
 70
     1
102
RTVSPropertyOp35
 70
     1
102
RTVSPropertyOp36
 70
     1
102
RTVSPropertyOp37
 70
     1
102
RTVSPropertyOp38
 70
     1
102
RTVSPropertyOp39
 70
     1
102
RTVSPropertyOp40
 70
     1
102
RTVSPropertyOp41
 70
     1
102
RTVSPropertyOp42
 70
     1
102
RTVSPropertyOp43
 70
     1
102
RTVSPropertyOp44
 70
     1
102
RTVSPropertyOp45
 70
     1
102
RTVSPropertyOp46
 70
     1
102
RTVSPropertyOp47
 70
     1
102
RTVSPropertyOp48
 70
     1
102
RTVSPropertyOp49
 70
     1
102
RTVSPropertyOp50
 70
     1
102
RTVSPropertyOp51
 70
     0
102
RTVSPropertyOp52
 70
     0
102
RTVSPropertyOp53
 70
     1
102
RTVSPropertyOp54
 70
     1
102
RTVSPropertyOp55
 70
     1
102
RTVSPropertyOp56
 70
     1
102
RTVSPropertyOp57
 70
     1
102
RTVSPropertyOp58
 70
     1
102
RTVSPropertyOp59
 70
     1
102
RTVSPropertyOp60
 70
     1
102
RTVSPropertyOp61
 70
     1
102
RTVSPropertyOp62
 70
     1
  0
XRECORD
  5
491
102
{ACAD_REACTORS
330
490
102
}
330
490
100
AcDbXrecord
280
     1
102
RTVSPost2010Prop28
280
     0
102
RTVSPost2010PropOp28
 70
     1
102
RTVSPost2010Prop29
280
     1
102
RTVSPost2010PropOp29
 70
     1
102
RTVSPost2010Prop30
280
     1
102
RTVSPost2010PropOp30
 70
     1
102
RTVSPost2010Prop31
280
     0
102
RTVSPost2010PropOp31
 70
     1
102
RTVSPost2010Prop32
280
     0
102
RTVSPost2010PropOp32
 70
     1
102
RTVSPost2010Prop33
280
     0
102
RTVSPost2010PropOp33
 70
     1
102
RTVSPost2010Prop34
280
     0
102
RTVSPost2010PropOp34
 70
     1
102
RTVSPost2010Prop35
280
     0
102
RTVSPost2010PropOp35
 70
     1
102
RTVSPost2010Prop36
280
     0
102
RTVSPost2010PropOp36
 70
     1
102
RTVSPost2010Prop37
 90
       50
102
RTVSPost2010PropOp37
 70
     1
102
RTVSPost2010Prop38
140
0.0
102
RTVSPost2010PropOp38
 70
     1
102
RTVSPost2010Prop39
140
1.0
102
RTVSPost2010PropOp39
 70
     1
102
RTVSPost2010Prop40
 90
        0
102
RTVSPost2010PropOp40
 70
     1
102
RTVSPost2010Prop41ColorIndex
 90
       18
102
RTVSPost2010Prop41ColorRGB
 90
        0
102
RTVSPost2010PropOp41
 70
     1
102
RTVSPost2010Prop42
 90
       50
102
RTVSPost2010PropOp42
 70
     1
102
RTVSPost2010Prop43
 90
        3
102
RTVSPost2010PropOp43
 70
     1
102
RTVSPost2010Prop44ColorIndex
 90
        5
102
RTVSPost2010Prop44ColorRGB
 90
      255
102
RTVSPost2010PropOp44
 70
     1
102
RTVSPost2010Prop45
280
     0
102
RTVSPost2010PropOp45
 70
     1
102
RTVSPost2010Prop46
 90
       50
102
RTVSPost2010PropOp46
 70
     1
102
RTVSPost2010Prop47
 90
       50
102
RTVSPost2010PropOp47
 70
     1
102
RTVSPost2010Prop48
 90
       50
102
RTVSPost2010PropOp48
 70
     1
102
RTVSPost2010Prop49
280
     0
102
RTVSPost2010PropOp49
 70
     1
102
RTVSPost2010Prop50
 90
       50
102
RTVSPost2010PropOp50
 70
     1
102
RTVSPost2010Prop51ColorIndex
 90
      256
102
RTVSPost2010Prop51ColorRGB
 90
-16777216
102
RTVSPost2010PropOp51
 70
     0
102
RTVSPost2010Prop52
140
1.0
102
RTVSPost2010PropOp52
 70
     0
102
RTVSPost2010Prop53
 90
        2
102
RTVSPost2010PropOp53
 70
     1
102
RTVSPost2010Prop54
  1
strokes_ogs.tif
102
RTVSPost2010PropOp54
 70
     1
102
RTVSPost2010Prop55
280
     0
102
RTVSPost2010PropOp55
 70
     1
102
RTVSPost2010Prop56
140
1.0
102
RTVSPost2010PropOp56
 70
     1
102
RTVSPost2010Prop57
140
1.0
102
RTVSPost2010PropOp57
 70
     1
102
RTVSPropertyOp0
 70
     1
102
RTVSPropertyOp1
 70
     1
102
RTVSPropertyOp2
 70
     1
102
RTVSPropertyOp3
 70
     1
102
RTVSPropertyOp4
 70
     1
102
RTVSPropertyOp5
 70
     1
102
RTVSPropertyOp6
 70
     1
102
RTVSPropertyOp7
 70
     1
102
RTVSPropertyOp8
 70
     1
102
RTVSPropertyOp9
 70
     1
102
RTVSPropertyOp10
 70
     1
102
RTVSPropertyOp11
 70
     1
102
RTVSPropertyOp12
 70
     1
102
RTVSPropertyOp13
 70
     1
102
RTVSPropertyOp14
 70
     1
102
RTVSPropertyOp15
 70
     1
102
RTVSPropertyOp16
 70
     1
102
RTVSPropertyOp17
 70
     1
102
RTVSPropertyOp18
 70
     1
102
RTVSPropertyOp19
 70
     1
102
RTVSPropertyOp20
 70
     1
102
RTVSPropertyOp21
 70
     1
102
RTVSPropertyOp22
 70
     1
102
RTVSPropertyOp23
 70
     1
102
RTVSPropertyOp24
 70
     1
102
RTVSPropertyOp25
 70
     1
102
RTVSPropertyOp26
 70
     1
102
RTVSPropertyOp27
 70
     1
102
RTVSPropertyOp28
 70
     1
102
RTVSPropertyOp29
 70
     1
102
RTVSPropertyOp30
 70
     1
102
RTVSPropertyOp31
 70
     1
102
RTVSPropertyOp32
 70
     1
102
RTVSPropertyOp33
 70
     1
102
RTVSPropertyOp34
 70
     1
102
RTVSPropertyOp35
 70
     1
102
RTVSPropertyOp36
 70
     1
102
RTVSPropertyOp37
 70
     1
102
RTVSPropertyOp38
 70
     1
102
RTVSPropertyOp39
 70
     1
102
RTVSPropertyOp40
 70
     1
102
RTVSPropertyOp41
 70
     1
102
RTVSPropertyOp42
 70
     1
102
RTVSPropertyOp43
 70
     1
102
RTVSPropertyOp44
 70
     1
102
RTVSPropertyOp45
 70
     1
102
RTVSPropertyOp46
 70
     1
102
RTVSPropertyOp47
 70
     1
102
RTVSPropertyOp48
 70
     1
102
RTVSPropertyOp49
 70
     1
102
RTVSPropertyOp50
 70
     1
102
RTVSPropertyOp51
 70
     0
102
RTVSPropertyOp52
 70
     0
102
RTVSPropertyOp53
 70
     1
102
RTVSPropertyOp54
 70
     1
102
RTVSPropertyOp55
 70
     1
102
RTVSPropertyOp56
 70
     1
102
RTVSPropertyOp57
 70
     1
102
RTVSPropertyOp58
 70
     1
102
RTVSPropertyOp59
 70
     1
102
RTVSPropertyOp60
 70
     1
102
RTVSPropertyOp61
 70
     1
102
RTVSPropertyOp62
 70
     1
  0
XRECORD
  5
49F
102
{ACAD_REACTORS
330
49E
102
}
330
49E
100
AcDbXrecord
280
     1
102
RTVSPost2010Prop28
280
     0
102
RTVSPost2010PropOp28
 70
     1
102
RTVSPost2010Prop29
280
     1
102
RTVSPost2010PropOp29
 70
     1
102
RTVSPost2010Prop30
280
     1
102
RTVSPost2010PropOp30
 70
     1
102
RTVSPost2010Prop31
280
     0
102
RTVSPost2010PropOp31
 70
     1
102
RTVSPost2010Prop32
280
     0
102
RTVSPost2010PropOp32
 70
     1
102
RTVSPost2010Prop33
280
     0
102
RTVSPost2010PropOp33
 70
     1
102
RTVSPost2010Prop34
280
     0
102
RTVSPost2010PropOp34
 70
     1
102
RTVSPost2010Prop35
280
     0
102
RTVSPost2010PropOp35
 70
     1
102
RTVSPost2010Prop36
280
     0
102
RTVSPost2010PropOp36
 70
     1
102
RTVSPost2010Prop37
 90
       50
102
RTVSPost2010PropOp37
 70
     1
102
RTVSPost2010Prop38
140
0.0
102
RTVSPost2010PropOp38
 70
     1
102
RTVSPost2010Prop39
140
1.0
102
RTVSPost2010PropOp39
 70
     1
102
RTVSPost2010Prop40
 90
        0
102
RTVSPost2010PropOp40
 70
     1
102
RTVSPost2010Prop41ColorIndex
 90
       18
102
RTVSPost2010Prop41ColorRGB
 90
        0
102
RTVSPost2010PropOp41
 70
     1
102
RTVSPost2010Prop42
 90
       50
102
RTVSPost2010PropOp42
 70
     1
102
RTVSPost2010Prop43
 90
        3
102
RTVSPost2010PropOp43
 70
     1
102
RTVSPost2010Prop44ColorIndex
 90
        5
102
RTVSPost2010Prop44ColorRGB
 90
      255
102
RTVSPost2010PropOp44
 70
     1
102
RTVSPost2010Prop45
280
     0
102
RTVSPost2010PropOp45
 70
     1
102
RTVSPost2010Prop46
 90
       50
102
RTVSPost2010PropOp46
 70
     1
102
RTVSPost2010Prop47
 90
       50
102
RTVSPost2010PropOp47
 70
     1
102
RTVSPost2010Prop48
 90
       50
102
RTVSPost2010PropOp48
 70
     1
102
RTVSPost2010Prop49
280
     0
102
RTVSPost2010PropOp49
 70
     1
102
RTVSPost2010Prop50
 90
       50
102
RTVSPost2010PropOp50
 70
     1
102
RTVSPost2010Prop51ColorIndex
 90
      256
102
RTVSPost2010Prop51ColorRGB
 90
-16777216
102
RTVSPost2010PropOp51
 70
     0
102
RTVSPost2010Prop52
140
1.0
102
RTVSPost2010PropOp52
 70
     0
102
RTVSPost2010Prop53
 90
        2
102
RTVSPost2010PropOp53
 70
     1
102
RTVSPost2010Prop54
  1
strokes_ogs.tif
102
RTVSPost2010PropOp54
 70
     1
102
RTVSPost2010Prop55
280
     0
102
RTVSPost2010PropOp55
 70
     1
102
RTVSPost2010Prop56
140
1.0
102
RTVSPost2010PropOp56
 70
     1
102
RTVSPost2010Prop57
140
1.0
102
RTVSPost2010PropOp57
 70
     1
102
RTVSPropertyOp0
 70
     1
102
RTVSPropertyOp1
 70
     1
102
RTVSPropertyOp2
 70
     1
102
RTVSPropertyOp3
 70
     1
102
RTVSPropertyOp4
 70
     1
102
RTVSPropertyOp5
 70
     1
102
RTVSPropertyOp6
 70
     1
102
RTVSPropertyOp7
 70
     1
102
RTVSPropertyOp8
 70
     1
102
RTVSPropertyOp9
 70
     1
102
RTVSPropertyOp10
 70
     1
102
RTVSPropertyOp11
 70
     1
102
RTVSPropertyOp12
 70
     1
102
RTVSPropertyOp13
 70
     1
102
RTVSPropertyOp14
 70
     1
102
RTVSPropertyOp15
 70
     1
102
RTVSPropertyOp16
 70
     1
102
RTVSPropertyOp17
 70
     1
102
RTVSPropertyOp18
 70
     1
102
RTVSPropertyOp19
 70
     1
102
RTVSPropertyOp20
 70
     1
102
RTVSPropertyOp21
 70
     1
102
RTVSPropertyOp22
 70
     1
102
RTVSPropertyOp23
 70
     1
102
RTVSPropertyOp24
 70
     1
102
RTVSPropertyOp25
 70
     1
102
RTVSPropertyOp26
 70
     1
102
RTVSPropertyOp27
 70
     1
102
RTVSPropertyOp28
 70
     1
102
RTVSPropertyOp29
 70
     1
102
RTVSPropertyOp30
 70
     1
102
RTVSPropertyOp31
 70
     1
102
RTVSPropertyOp32
 70
     1
102
RTVSPropertyOp33
 70
     1
102
RTVSPropertyOp34
 70
     1
102
RTVSPropertyOp35
 70
     1
102
RTVSPropertyOp36
 70
     1
102
RTVSPropertyOp37
 70
     1
102
RTVSPropertyOp38
 70
     1
102
RTVSPropertyOp39
 70
     1
102
RTVSPropertyOp40
 70
     1
102
RTVSPropertyOp41
 70
     1
102
RTVSPropertyOp42
 70
     1
102
RTVSPropertyOp43
 70
     1
102
RTVSPropertyOp44
 70
     1
102
RTVSPropertyOp45
 70
     1
102
RTVSPropertyOp46
 70
     1
102
RTVSPropertyOp47
 70
     1
102
RTVSPropertyOp48
 70
     1
102
RTVSPropertyOp49
 70
     1
102
RTVSPropertyOp50
 70
     1
102
RTVSPropertyOp51
 70
     0
102
RTVSPropertyOp52
 70
     0
102
RTVSPropertyOp53
 70
     1
102
RTVSPropertyOp54
 70
     1
102
RTVSPropertyOp55
 70
     1
102
RTVSPropertyOp56
 70
     1
102
RTVSPropertyOp57
 70
     1
102
RTVSPropertyOp58
 70
     1
102
RTVSPropertyOp59
 70
     1
102
RTVSPropertyOp60
 70
     1
102
RTVSPropertyOp61
 70
     1
102
RTVSPropertyOp62
 70
     1
  0
XRECORD
  5
4A7
102
{ACAD_REACTORS
330
4A6
102
}
330
4A6
100
AcDbXrecord
280
     1
102
RTVSPost2010Prop28
280
     0
102
RTVSPost2010PropOp28
 70
     1
102
RTVSPost2010Prop29
280
     1
102
RTVSPost2010PropOp29
 70
     1
102
RTVSPost2010Prop30
280
     1
102
RTVSPost2010PropOp30
 70
     1
102
RTVSPost2010Prop31
280
     0
102
RTVSPost2010PropOp31
 70
     1
102
RTVSPost2010Prop32
280
     0
102
RTVSPost2010PropOp32
 70
     1
102
RTVSPost2010Prop33
280
     0
102
RTVSPost2010PropOp33
 70
     1
102
RTVSPost2010Prop34
280
     0
102
RTVSPost2010PropOp34
 70
     1
102
RTVSPost2010Prop35
280
     0
102
RTVSPost2010PropOp35
 70
     1
102
RTVSPost2010Prop36
280
     0
102
RTVSPost2010PropOp36
 70
     1
102
RTVSPost2010Prop37
 90
       50
102
RTVSPost2010PropOp37
 70
     1
102
RTVSPost2010Prop38
140
0.0
102
RTVSPost2010PropOp38
 70
     1
102
RTVSPost2010Prop39
140
1.0
102
RTVSPost2010PropOp39
 70
     1
102
RTVSPost2010Prop40
 90
        0
102
RTVSPost2010PropOp40
 70
     1
102
RTVSPost2010Prop41ColorIndex
 90
       18
102
RTVSPost2010Prop41ColorRGB
 90
        0
102
RTVSPost2010PropOp41
 70
     1
102
RTVSPost2010Prop42
 90
       50
102
RTVSPost2010PropOp42
 70
     1
102
RTVSPost2010Prop43
 90
        3
102
RTVSPost2010PropOp43
 70
     1
102
RTVSPost2010Prop44ColorIndex
 90
        5
102
RTVSPost2010Prop44ColorRGB
 90
      255
102
RTVSPost2010PropOp44
 70
     1
102
RTVSPost2010Prop45
280
     0
102
RTVSPost2010PropOp45
 70
     1
102
RTVSPost2010Prop46
 90
       50
102
RTVSPost2010PropOp46
 70
     1
102
RTVSPost2010Prop47
 90
       50
102
RTVSPost2010PropOp47
 70
     1
102
RTVSPost2010Prop48
 90
       50
102
RTVSPost2010PropOp48
 70
     1
102
RTVSPost2010Prop49
280
     0
102
RTVSPost2010PropOp49
 70
     1
102
RTVSPost2010Prop50
 90
       50
102
RTVSPost2010PropOp50
 70
     1
102
RTVSPost2010Prop51ColorIndex
 90
      256
102
RTVSPost2010Prop51ColorRGB
 90
-16777216
102
RTVSPost2010PropOp51
 70
     0
102
RTVSPost2010Prop52
140
1.0
102
RTVSPost2010PropOp52
 70
     0
102
RTVSPost2010Prop53
 90
        2
102
RTVSPost2010PropOp53
 70
     1
102
RTVSPost2010Prop54
  1
strokes_ogs.tif
102
RTVSPost2010PropOp54
 70
     1
102
RTVSPost2010Prop55
280
     0
102
RTVSPost2010PropOp55
 70
     1
102
RTVSPost2010Prop56
140
1.0
102
RTVSPost2010PropOp56
 70
     1
102
RTVSPost2010Prop57
140
1.0
102
RTVSPost2010PropOp57
 70
     1
102
RTVSPropertyOp0
 70
     1
102
RTVSPropertyOp1
 70
     1
102
RTVSPropertyOp2
 70
     1
102
RTVSPropertyOp3
 70
     1
102
RTVSPropertyOp4
 70
     1
102
RTVSPropertyOp5
 70
     1
102
RTVSPropertyOp6
 70
     1
102
RTVSPropertyOp7
 70
     1
102
RTVSPropertyOp8
 70
     1
102
RTVSPropertyOp9
 70
     1
102
RTVSPropertyOp10
 70
     1
102
RTVSPropertyOp11
 70
     1
102
RTVSPropertyOp12
 70
     1
102
RTVSPropertyOp13
 70
     1
102
RTVSPropertyOp14
 70
     1
102
RTVSPropertyOp15
 70
     1
102
RTVSPropertyOp16
 70
     1
102
RTVSPropertyOp17
 70
     1
102
RTVSPropertyOp18
 70
     1
102
RTVSPropertyOp19
 70
     1
102
RTVSPropertyOp20
 70
     1
102
RTVSPropertyOp21
 70
     1
102
RTVSPropertyOp22
 70
     1
102
RTVSPropertyOp23
 70
     1
102
RTVSPropertyOp24
 70
     1
102
RTVSPropertyOp25
 70
     1
102
RTVSPropertyOp26
 70
     1
102
RTVSPropertyOp27
 70
     1
102
RTVSPropertyOp28
 70
     1
102
RTVSPropertyOp29
 70
     1
102
RTVSPropertyOp30
 70
     1
102
RTVSPropertyOp31
 70
     1
102
RTVSPropertyOp32
 70
     1
102
RTVSPropertyOp33
 70
     1
102
RTVSPropertyOp34
 70
     1
102
RTVSPropertyOp35
 70
     1
102
RTVSPropertyOp36
 70
     1
102
RTVSPropertyOp37
 70
     1
102
RTVSPropertyOp38
 70
     1
102
RTVSPropertyOp39
 70
     1
102
RTVSPropertyOp40
 70
     1
102
RTVSPropertyOp41
 70
     1
102
RTVSPropertyOp42
 70
     1
102
RTVSPropertyOp43
 70
     1
102
RTVSPropertyOp44
 70
     1
102
RTVSPropertyOp45
 70
     1
102
RTVSPropertyOp46
 70
     1
102
RTVSPropertyOp47
 70
     1
102
RTVSPropertyOp48
 70
     1
102
RTVSPropertyOp49
 70
     1
102
RTVSPropertyOp50
 70
     1
102
RTVSPropertyOp51
 70
     0
102
RTVSPropertyOp52
 70
     0
102
RTVSPropertyOp53
 70
     1
102
RTVSPropertyOp54
 70
     1
102
RTVSPropertyOp55
 70
     1
102
RTVSPropertyOp56
 70
     1
102
RTVSPropertyOp57
 70
     1
102
RTVSPropertyOp58
 70
     1
102
RTVSPropertyOp59
 70
     1
102
RTVSPropertyOp60
 70
     1
102
RTVSPropertyOp61
 70
     1
102
RTVSPropertyOp62
 70
     1
  0
XRECORD
  5
499
102
{ACAD_REACTORS
330
498
102
}
330
498
100
AcDbXrecord
280
     1
102
RTVSPost2010Prop28
280
     0
102
RTVSPost2010PropOp28
 70
     1
102
RTVSPost2010Prop29
280
     1
102
RTVSPost2010PropOp29
 70
     1
102
RTVSPost2010Prop30
280
     1
102
RTVSPost2010PropOp30
 70
     1
102
RTVSPost2010Prop31
280
     0
102
RTVSPost2010PropOp31
 70
     1
102
RTVSPost2010Prop32
280
     0
102
RTVSPost2010PropOp32
 70
     1
102
RTVSPost2010Prop33
280
     0
102
RTVSPost2010PropOp33
 70
     1
102
RTVSPost2010Prop34
280
     0
102
RTVSPost2010PropOp34
 70
     1
102
RTVSPost2010Prop35
280
     0
102
RTVSPost2010PropOp35
 70
     1
102
RTVSPost2010Prop36
280
     0
102
RTVSPost2010PropOp36
 70
     1
102
RTVSPost2010Prop37
 90
       50
102
RTVSPost2010PropOp37
 70
     1
102
RTVSPost2010Prop38
140
0.0
102
RTVSPost2010PropOp38
 70
     1
102
RTVSPost2010Prop39
140
1.0
102
RTVSPost2010PropOp39
 70
     1
102
RTVSPost2010Prop40
 90
        0
102
RTVSPost2010PropOp40
 70
     1
102
RTVSPost2010Prop41ColorIndex
 90
       18
102
RTVSPost2010Prop41ColorRGB
 90
        0
102
RTVSPost2010PropOp41
 70
     1
102
RTVSPost2010Prop42
 90
       50
102
RTVSPost2010PropOp42
 70
     1
102
RTVSPost2010Prop43
 90
        3
102
RTVSPost2010PropOp43
 70
     1
102
RTVSPost2010Prop44ColorIndex
 90
        5
102
RTVSPost2010Prop44ColorRGB
 90
      255
102
RTVSPost2010PropOp44
 70
     1
102
RTVSPost2010Prop45
280
     0
102
RTVSPost2010PropOp45
 70
     1
102
RTVSPost2010Prop46
 90
       50
102
RTVSPost2010PropOp46
 70
     1
102
RTVSPost2010Prop47
 90
       50
102
RTVSPost2010PropOp47
 70
     1
102
RTVSPost2010Prop48
 90
       50
102
RTVSPost2010PropOp48
 70
     1
102
RTVSPost2010Prop49
280
     0
102
RTVSPost2010PropOp49
 70
     1
102
RTVSPost2010Prop50
 90
       50
102
RTVSPost2010PropOp50
 70
     1
102
RTVSPost2010Prop51ColorIndex
 90
      256
102
RTVSPost2010Prop51ColorRGB
 90
-16777216
102
RTVSPost2010PropOp51
 70
     0
102
RTVSPost2010Prop52
140
1.0
102
RTVSPost2010PropOp52
 70
     0
102
RTVSPost2010Prop53
 90
        2
102
RTVSPost2010PropOp53
 70
     1
102
RTVSPost2010Prop54
  1
strokes_ogs.tif
102
RTVSPost2010PropOp54
 70
     1
102
RTVSPost2010Prop55
280
     0
102
RTVSPost2010PropOp55
 70
     1
102
RTVSPost2010Prop56
140
1.0
102
RTVSPost2010PropOp56
 70
     1
102
RTVSPost2010Prop57
140
1.0
102
RTVSPost2010PropOp57
 70
     1
102
RTVSPropertyOp0
 70
     1
102
RTVSPropertyOp1
 70
     1
102
RTVSPropertyOp2
 70
     1
102
RTVSPropertyOp3
 70
     1
102
RTVSPropertyOp4
 70
     1
102
RTVSPropertyOp5
 70
     1
102
RTVSPropertyOp6
 70
     1
102
RTVSPropertyOp7
 70
     1
102
RTVSPropertyOp8
 70
     1
102
RTVSPropertyOp9
 70
     1
102
RTVSPropertyOp10
 70
     1
102
RTVSPropertyOp11
 70
     1
102
RTVSPropertyOp12
 70
     1
102
RTVSPropertyOp13
 70
     1
102
RTVSPropertyOp14
 70
     1
102
RTVSPropertyOp15
 70
     1
102
RTVSPropertyOp16
 70
     1
102
RTVSPropertyOp17
 70
     1
102
RTVSPropertyOp18
 70
     1
102
RTVSPropertyOp19
 70
     1
102
RTVSPropertyOp20
 70
     1
102
RTVSPropertyOp21
 70
     1
102
RTVSPropertyOp22
 70
     1
102
RTVSPropertyOp23
 70
     1
102
RTVSPropertyOp24
 70
     1
102
RTVSPropertyOp25
 70
     1
102
RTVSPropertyOp26
 70
     1
102
RTVSPropertyOp27
 70
     1
102
RTVSPropertyOp28
 70
     1
102
RTVSPropertyOp29
 70
     1
102
RTVSPropertyOp30
 70
     1
102
RTVSPropertyOp31
 70
     1
102
RTVSPropertyOp32
 70
     1
102
RTVSPropertyOp33
 70
     1
102
RTVSPropertyOp34
 70
     1
102
RTVSPropertyOp35
 70
     1
102
RTVSPropertyOp36
 70
     1
102
RTVSPropertyOp37
 70
     1
102
RTVSPropertyOp38
 70
     1
102
RTVSPropertyOp39
 70
     1
102
RTVSPropertyOp40
 70
     1
102
RTVSPropertyOp41
 70
     1
102
RTVSPropertyOp42
 70
     1
102
RTVSPropertyOp43
 70
     1
102
RTVSPropertyOp44
 70
     1
102
RTVSPropertyOp45
 70
     1
102
RTVSPropertyOp46
 70
     1
102
RTVSPropertyOp47
 70
     1
102
RTVSPropertyOp48
 70
     1
102
RTVSPropertyOp49
 70
     1
102
RTVSPropertyOp50
 70
     1
102
RTVSPropertyOp51
 70
     0
102
RTVSPropertyOp52
 70
     0
102
RTVSPropertyOp53
 70
     1
102
RTVSPropertyOp54
 70
     1
102
RTVSPropertyOp55
 70
     1
102
RTVSPropertyOp56
 70
     1
102
RTVSPropertyOp57
 70
     1
102
RTVSPropertyOp58
 70
     1
102
RTVSPropertyOp59
 70
     1
102
RTVSPropertyOp60
 70
     1
102
RTVSPropertyOp61
 70
     1
102
RTVSPropertyOp62
 70
     1
  0
XRECORD
  5
49D
102
{ACAD_REACTORS
330
49C
102
}
330
49C
100
AcDbXrecord
280
     1
102
RTVSPost2010Prop28
280
     0
102
RTVSPost2010PropOp28
 70
     1
102
RTVSPost2010Prop29
280
     1
102
RTVSPost2010PropOp29
 70
     1
102
RTVSPost2010Prop30
280
     1
102
RTVSPost2010PropOp30
 70
     1
102
RTVSPost2010Prop31
280
     0
102
RTVSPost2010PropOp31
 70
     1
102
RTVSPost2010Prop32
280
     0
102
RTVSPost2010PropOp32
 70
     1
102
RTVSPost2010Prop33
280
     0
102
RTVSPost2010PropOp33
 70
     1
102
RTVSPost2010Prop34
280
     0
102
RTVSPost2010PropOp34
 70
     1
102
RTVSPost2010Prop35
280
     0
102
RTVSPost2010PropOp35
 70
     1
102
RTVSPost2010Prop36
280
     0
102
RTVSPost2010PropOp36
 70
     1
102
RTVSPost2010Prop37
 90
       50
102
RTVSPost2010PropOp37
 70
     1
102
RTVSPost2010Prop38
140
0.0
102
RTVSPost2010PropOp38
 70
     1
102
RTVSPost2010Prop39
140
1.0
102
RTVSPost2010PropOp39
 70
     1
102
RTVSPost2010Prop40
 90
        0
102
RTVSPost2010PropOp40
 70
     1
102
RTVSPost2010Prop41ColorIndex
 90
       18
102
RTVSPost2010Prop41ColorRGB
 90
        0
102
RTVSPost2010PropOp41
 70
     1
102
RTVSPost2010Prop42
 90
       50
102
RTVSPost2010PropOp42
 70
     1
102
RTVSPost2010Prop43
 90
        3
102
RTVSPost2010PropOp43
 70
     1
102
RTVSPost2010Prop44ColorIndex
 90
        5
102
RTVSPost2010Prop44ColorRGB
 90
      255
102
RTVSPost2010PropOp44
 70
     1
102
RTVSPost2010Prop45
280
     0
102
RTVSPost2010PropOp45
 70
     1
102
RTVSPost2010Prop46
 90
       50
102
RTVSPost2010PropOp46
 70
     1
102
RTVSPost2010Prop47
 90
       50
102
RTVSPost2010PropOp47
 70
     1
102
RTVSPost2010Prop48
 90
       50
102
RTVSPost2010PropOp48
 70
     1
102
RTVSPost2010Prop49
280
     0
102
RTVSPost2010PropOp49
 70
     1
102
RTVSPost2010Prop50
 90
       50
102
RTVSPost2010PropOp50
 70
     1
102
RTVSPost2010Prop51ColorIndex
 90
      256
102
RTVSPost2010Prop51ColorRGB
 90
-16777216
102
RTVSPost2010PropOp51
 70
     0
102
RTVSPost2010Prop52
140
1.0
102
RTVSPost2010PropOp52
 70
     0
102
RTVSPost2010Prop53
 90
        2
102
RTVSPost2010PropOp53
 70
     1
102
RTVSPost2010Prop54
  1
strokes_ogs.tif
102
RTVSPost2010PropOp54
 70
     1
102
RTVSPost2010Prop55
280
     0
102
RTVSPost2010PropOp55
 70
     1
102
RTVSPost2010Prop56
140
1.0
102
RTVSPost2010PropOp56
 70
     1
102
RTVSPost2010Prop57
140
1.0
102
RTVSPost2010PropOp57
 70
     1
102
RTVSPropertyOp0
 70
     1
102
RTVSPropertyOp1
 70
     1
102
RTVSPropertyOp2
 70
     1
102
RTVSPropertyOp3
 70
     1
102
RTVSPropertyOp4
 70
     1
102
RTVSPropertyOp5
 70
     1
102
RTVSPropertyOp6
 70
     1
102
RTVSPropertyOp7
 70
     1
102
RTVSPropertyOp8
 70
     1
102
RTVSPropertyOp9
 70
     1
102
RTVSPropertyOp10
 70
     1
102
RTVSPropertyOp11
 70
     1
102
RTVSPropertyOp12
 70
     1
102
RTVSPropertyOp13
 70
     1
102
RTVSPropertyOp14
 70
     1
102
RTVSPropertyOp15
 70
     1
102
RTVSPropertyOp16
 70
     1
102
RTVSPropertyOp17
 70
     1
102
RTVSPropertyOp18
 70
     1
102
RTVSPropertyOp19
 70
     1
102
RTVSPropertyOp20
 70
     1
102
RTVSPropertyOp21
 70
     1
102
RTVSPropertyOp22
 70
     1
102
RTVSPropertyOp23
 70
     1
102
RTVSPropertyOp24
 70
     1
102
RTVSPropertyOp25
 70
     1
102
RTVSPropertyOp26
 70
     1
102
RTVSPropertyOp27
 70
     1
102
RTVSPropertyOp28
 70
     1
102
RTVSPropertyOp29
 70
     1
102
RTVSPropertyOp30
 70
     1
102
RTVSPropertyOp31
 70
     1
102
RTVSPropertyOp32
 70
     1
102
RTVSPropertyOp33
 70
     1
102
RTVSPropertyOp34
 70
     1
102
RTVSPropertyOp35
 70
     1
102
RTVSPropertyOp36
 70
     1
102
RTVSPropertyOp37
 70
     1
102
RTVSPropertyOp38
 70
     1
102
RTVSPropertyOp39
 70
     1
102
RTVSPropertyOp40
 70
     1
102
RTVSPropertyOp41
 70
     1
102
RTVSPropertyOp42
 70
     1
102
RTVSPropertyOp43
 70
     1
102
RTVSPropertyOp44
 70
     1
102
RTVSPropertyOp45
 70
     1
102
RTVSPropertyOp46
 70
     1
102
RTVSPropertyOp47
 70
     1
102
RTVSPropertyOp48
 70
     1
102
RTVSPropertyOp49
 70
     1
102
RTVSPropertyOp50
 70
     1
102
RTVSPropertyOp51
 70
     0
102
RTVSPropertyOp52
 70
     0
102
RTVSPropertyOp53
 70
     1
102
RTVSPropertyOp54
 70
     1
102
RTVSPropertyOp55
 70
     1
102
RTVSPropertyOp56
 70
     1
102
RTVSPropertyOp57
 70
     1
102
RTVSPropertyOp58
 70
     1
102
RTVSPropertyOp59
 70
     1
102
RTVSPropertyOp60
 70
     1
102
RTVSPropertyOp61
 70
     1
102
RTVSPropertyOp62
 70
     1
  0
XRECORD
  5
4B7
102
{ACAD_REACTORS
330
4B6
102
}
330
4B6
100
AcDbXrecord
280
     1
102
RTVSPost2010Prop28
280
     0
102
RTVSPost2010PropOp28
 70
     1
102
RTVSPost2010Prop29
280
     1
102
RTVSPost2010PropOp29
 70
     1
102
RTVSPost2010Prop30
280
     1
102
RTVSPost2010PropOp30
 70
     1
102
RTVSPost2010Prop31
280
     0
102
RTVSPost2010PropOp31
 70
     1
102
RTVSPost2010Prop32
280
     0
102
RTVSPost2010PropOp32
 70
     1
102
RTVSPost2010Prop33
280
     0
102
RTVSPost2010PropOp33
 70
     1
102
RTVSPost2010Prop34
280
     0
102
RTVSPost2010PropOp34
 70
     1
102
RTVSPost2010Prop35
280
     0
102
RTVSPost2010PropOp35
 70
     1
102
RTVSPost2010Prop36
280
     0
102
RTVSPost2010PropOp36
 70
     1
102
RTVSPost2010Prop37
 90
       50
102
RTVSPost2010PropOp37
 70
     0
102
RTVSPost2010Prop38
140
0.0
102
RTVSPost2010PropOp38
 70
     0
102
RTVSPost2010Prop39
140
1.0
102
RTVSPost2010PropOp39
 70
     0
102
RTVSPost2010Prop40
 90
        0
102
RTVSPost2010PropOp40
 70
     0
102
RTVSPost2010Prop41ColorIndex
 90
       18
102
RTVSPost2010Prop41ColorRGB
 90
        0
102
RTVSPost2010PropOp41
 70
     0
102
RTVSPost2010Prop42
 90
       50
102
RTVSPost2010PropOp42
 70
     0
102
RTVSPost2010Prop43
 90
        3
102
RTVSPost2010PropOp43
 70
     0
102
RTVSPost2010Prop44ColorIndex
 90
        5
102
RTVSPost2010Prop44ColorRGB
 90
      255
102
RTVSPost2010PropOp44
 70
     0
102
RTVSPost2010Prop45
280
     0
102
RTVSPost2010PropOp45
 70
     1
102
RTVSPost2010Prop46
 90
       50
102
RTVSPost2010PropOp46
 70
     0
102
RTVSPost2010Prop47
 90
       50
102
RTVSPost2010PropOp47
 70
     0
102
RTVSPost2010Prop48
 90
       50
102
RTVSPost2010PropOp48
 70
     0
102
RTVSPost2010Prop49
280
     0
102
RTVSPost2010PropOp49
 70
     1
102
RTVSPost2010Prop50
 90
       50
102
RTVSPost2010PropOp50
 70
     0
102
RTVSPost2010Prop51ColorIndex
 90
      256
102
RTVSPost2010Prop51ColorRGB
 90
-16777216
102
RTVSPost2010PropOp51
 70
     0
102
RTVSPost2010Prop52
140
1.0
102
RTVSPost2010PropOp52
 70
     0
102
RTVSPost2010Prop53
 90
        2
102
RTVSPost2010PropOp53
 70
     0
102
RTVSPost2010Prop54
  1
strokes_ogs.tif
102
RTVSPost2010PropOp54
 70
     0
102
RTVSPost2010Prop55
280
     0
102
RTVSPost2010PropOp55
 70
     1
102
RTVSPost2010Prop56
140
1.0
102
RTVSPost2010PropOp56
 70
     0
102
RTVSPost2010Prop57
140
1.0
102
RTVSPost2010PropOp57
 70
     0
102
RTVSPropertyOp0
 70
     0
102
RTVSPropertyOp1
 70
     0
102
RTVSPropertyOp2
 70
     0
102
RTVSPropertyOp3
 70
     0
102
RTVSPropertyOp4
 70
     0
102
RTVSPropertyOp5
 70
     0
102
RTVSPropertyOp6
 70
     0
102
RTVSPropertyOp7
 70
     0
102
RTVSPropertyOp8
 70
     0
102
RTVSPropertyOp9
 70
     0
102
RTVSPropertyOp10
 70
     0
102
RTVSPropertyOp11
 70
     0
102
RTVSPropertyOp12
 70
     0
102
RTVSPropertyOp13
 70
     0
102
RTVSPropertyOp14
 70
     2
102
RTVSPropertyOp15
 70
     0
102
RTVSPropertyOp16
 70
     0
102
RTVSPropertyOp17
 70
     0
102
RTVSPropertyOp18
 70
     0
102
RTVSPropertyOp19
 70
     0
102
RTVSPropertyOp20
 70
     0
102
RTVSPropertyOp21
 70
     0
102
RTVSPropertyOp22
 70
     0
102
RTVSPropertyOp23
 70
     0
102
RTVSPropertyOp24
 70
     0
102
RTVSPropertyOp25
 70
     0
102
RTVSPropertyOp26
 70
     0
102
RTVSPropertyOp27
 70
     0
102
RTVSPropertyOp28
 70
     1
102
RTVSPropertyOp29
 70
     1
102
RTVSPropertyOp30
 70
     1
102
RTVSPropertyOp31
 70
     1
102
RTVSPropertyOp32
 70
     1
102
RTVSPropertyOp33
 70
     1
102
RTVSPropertyOp34
 70
     1
102
RTVSPropertyOp35
 70
     1
102
RTVSPropertyOp36
 70
     1
102
RTVSPropertyOp37
 70
     0
102
RTVSPropertyOp38
 70
     0
102
RTVSPropertyOp39
 70
     0
102
RTVSPropertyOp40
 70
     0
102
RTVSPropertyOp41
 70
     0
102
RTVSPropertyOp42
 70
     0
102
RTVSPropertyOp43
 70
     0
102
RTVSPropertyOp44
 70
     0
102
RTVSPropertyOp45
 70
     1
102
RTVSPropertyOp46
 70
     0
102
RTVSPropertyOp47
 70
     0
102
RTVSPropertyOp48
 70
     0
102
RTVSPropertyOp49
 70
     1
102
RTVSPropertyOp50
 70
     0
102
RTVSPropertyOp51
 70
     0
102
RTVSPropertyOp52
 70
     0
102
RTVSPropertyOp53
 70
     0
102
RTVSPropertyOp54
 70
     0
102
RTVSPropertyOp55
 70
     1
102
RTVSPropertyOp56
 70
     0
102
RTVSPropertyOp57
 70
     0
102
RTVSPropertyOp58
 70
     0
102
RTVSPropertyOp59
 70
     0
102
RTVSPropertyOp60
 70
     0
102
RTVSPropertyOp61
 70
     0
102
RTVSPropertyOp62
 70
     0
  0
XRECORD
  5
4A5
102
{ACAD_REACTORS
330
4A4
102
}
330
4A4
100
AcDbXrecord
280
     1
102
RTVSPost2010Prop28
280
     0
102
RTVSPost2010PropOp28
 70
     1
102
RTVSPost2010Prop29
280
     1
102
RTVSPost2010PropOp29
 70
     1
102
RTVSPost2010Prop30
280
     1
102
RTVSPost2010PropOp30
 70
     1
102
RTVSPost2010Prop31
280
     0
102
RTVSPost2010PropOp31
 70
     1
102
RTVSPost2010Prop32
280
     0
102
RTVSPost2010PropOp32
 70
     1
102
RTVSPost2010Prop33
280
     0
102
RTVSPost2010PropOp33
 70
     1
102
RTVSPost2010Prop34
280
     0
102
RTVSPost2010PropOp34
 70
     1
102
RTVSPost2010Prop35
280
     0
102
RTVSPost2010PropOp35
 70
     1
102
RTVSPost2010Prop36
280
     0
102
RTVSPost2010PropOp36
 70
     1
102
RTVSPost2010Prop37
 90
       50
102
RTVSPost2010PropOp37
 70
     1
102
RTVSPost2010Prop38
140
0.0
102
RTVSPost2010PropOp38
 70
     1
102
RTVSPost2010Prop39
140
1.0
102
RTVSPost2010PropOp39
 70
     1
102
RTVSPost2010Prop40
 90
        0
102
RTVSPost2010PropOp40
 70
     1
102
RTVSPost2010Prop41ColorIndex
 90
       18
102
RTVSPost2010Prop41ColorRGB
 90
        0
102
RTVSPost2010PropOp41
 70
     1
102
RTVSPost2010Prop42
 90
       50
102
RTVSPost2010PropOp42
 70
     1
102
RTVSPost2010Prop43
 90
        3
102
RTVSPost2010PropOp43
 70
     1
102
RTVSPost2010Prop44ColorIndex
 90
        5
102
RTVSPost2010Prop44ColorRGB
 90
      255
102
RTVSPost2010PropOp44
 70
     1
102
RTVSPost2010Prop45
280
     0
102
RTVSPost2010PropOp45
 70
     1
102
RTVSPost2010Prop46
 90
       50
102
RTVSPost2010PropOp46
 70
     1
102
RTVSPost2010Prop47
 90
       50
102
RTVSPost2010PropOp47
 70
     1
102
RTVSPost2010Prop48
 90
       50
102
RTVSPost2010PropOp48
 70
     1
102
RTVSPost2010Prop49
280
     0
102
RTVSPost2010PropOp49
 70
     1
102
RTVSPost2010Prop50
 90
       50
102
RTVSPost2010PropOp50
 70
     1
102
RTVSPost2010Prop51ColorIndex
 90
      256
102
RTVSPost2010Prop51ColorRGB
 90
-16777216
102
RTVSPost2010PropOp51
 70
     0
102
RTVSPost2010Prop52
140
1.0
102
RTVSPost2010PropOp52
 70
     0
102
RTVSPost2010Prop53
 90
        2
102
RTVSPost2010PropOp53
 70
     1
102
RTVSPost2010Prop54
  1
strokes_ogs.tif
102
RTVSPost2010PropOp54
 70
     1
102
RTVSPost2010Prop55
280
     0
102
RTVSPost2010PropOp55
 70
     1
102
RTVSPost2010Prop56
140
1.0
102
RTVSPost2010PropOp56
 70
     1
102
RTVSPost2010Prop57
140
1.0
102
RTVSPost2010PropOp57
 70
     1
102
RTVSPropertyOp0
 70
     1
102
RTVSPropertyOp1
 70
     1
102
RTVSPropertyOp2
 70
     1
102
RTVSPropertyOp3
 70
     1
102
RTVSPropertyOp4
 70
     1
102
RTVSPropertyOp5
 70
     1
102
RTVSPropertyOp6
 70
     1
102
RTVSPropertyOp7
 70
     1
102
RTVSPropertyOp8
 70
     1
102
RTVSPropertyOp9
 70
     1
102
RTVSPropertyOp10
 70
     1
102
RTVSPropertyOp11
 70
     1
102
RTVSPropertyOp12
 70
     1
102
RTVSPropertyOp13
 70
     1
102
RTVSPropertyOp14
 70
     1
102
RTVSPropertyOp15
 70
     1
102
RTVSPropertyOp16
 70
     1
102
RTVSPropertyOp17
 70
     1
102
RTVSPropertyOp18
 70
     1
102
RTVSPropertyOp19
 70
     1
102
RTVSPropertyOp20
 70
     1
102
RTVSPropertyOp21
 70
     1
102
RTVSPropertyOp22
 70
     1
102
RTVSPropertyOp23
 70
     1
102
RTVSPropertyOp24
 70
     1
102
RTVSPropertyOp25
 70
     1
102
RTVSPropertyOp26
 70
     1
102
RTVSPropertyOp27
 70
     1
102
RTVSPropertyOp28
 70
     1
102
RTVSPropertyOp29
 70
     1
102
RTVSPropertyOp30
 70
     1
102
RTVSPropertyOp31
 70
     1
102
RTVSPropertyOp32
 70
     1
102
RTVSPropertyOp33
 70
     1
102
RTVSPropertyOp34
 70
     1
102
RTVSPropertyOp35
 70
     1
102
RTVSPropertyOp36
 70
     1
102
RTVSPropertyOp37
 70
     1
102
RTVSPropertyOp38
 70
     1
102
RTVSPropertyOp39
 70
     1
102
RTVSPropertyOp40
 70
     1
102
RTVSPropertyOp41
 70
     1
102
RTVSPropertyOp42
 70
     1
102
RTVSPropertyOp43
 70
     1
102
RTVSPropertyOp44
 70
     1
102
RTVSPropertyOp45
 70
     1
102
RTVSPropertyOp46
 70
     1
102
RTVSPropertyOp47
 70
     1
102
RTVSPropertyOp48
 70
     1
102
RTVSPropertyOp49
 70
     1
102
RTVSPropertyOp50
 70
     1
102
RTVSPropertyOp51
 70
     0
102
RTVSPropertyOp52
 70
     0
102
RTVSPropertyOp53
 70
     1
102
RTVSPropertyOp54
 70
     1
102
RTVSPropertyOp55
 70
     1
102
RTVSPropertyOp56
 70
     1
102
RTVSPropertyOp57
 70
     1
102
RTVSPropertyOp58
 70
     1
102
RTVSPropertyOp59
 70
     1
102
RTVSPropertyOp60
 70
     1
102
RTVSPropertyOp61
 70
     1
102
RTVSPropertyOp62
 70
     1
  0
XRECORD
  5
489
102
{ACAD_REACTORS
330
488
102
}
330
488
100
AcDbXrecord
280
     1
102
RTVSPost2010Prop28
280
     0
102
RTVSPost2010PropOp28
 70
     1
102
RTVSPost2010Prop29
280
     1
102
RTVSPost2010PropOp29
 70
     1
102
RTVSPost2010Prop30
280
     1
102
RTVSPost2010PropOp30
 70
     1
102
RTVSPost2010Prop31
280
     0
102
RTVSPost2010PropOp31
 70
     1
102
RTVSPost2010Prop32
280
     0
102
RTVSPost2010PropOp32
 70
     1
102
RTVSPost2010Prop33
280
     0
102
RTVSPost2010PropOp33
 70
     1
102
RTVSPost2010Prop34
280
     0
102
RTVSPost2010PropOp34
 70
     1
102
RTVSPost2010Prop35
280
     0
102
RTVSPost2010PropOp35
 70
     1
102
RTVSPost2010Prop36
280
     0
102
RTVSPost2010PropOp36
 70
     1
102
RTVSPost2010Prop37
 90
       50
102
RTVSPost2010PropOp37
 70
     1
102
RTVSPost2010Prop38
140
0.0
102
RTVSPost2010PropOp38
 70
     1
102
RTVSPost2010Prop39
140
1.0
102
RTVSPost2010PropOp39
 70
     1
102
RTVSPost2010Prop40
 90
        0
102
RTVSPost2010PropOp40
 70
     1
102
RTVSPost2010Prop41ColorIndex
 90
       18
102
RTVSPost2010Prop41ColorRGB
 90
        0
102
RTVSPost2010PropOp41
 70
     1
102
RTVSPost2010Prop42
 90
       50
102
RTVSPost2010PropOp42
 70
     1
102
RTVSPost2010Prop43
 90
        3
102
RTVSPost2010PropOp43
 70
     1
102
RTVSPost2010Prop44ColorIndex
 90
        5
102
RTVSPost2010Prop44ColorRGB
 90
      255
102
RTVSPost2010PropOp44
 70
     1
102
RTVSPost2010Prop45
280
     0
102
RTVSPost2010PropOp45
 70
     1
102
RTVSPost2010Prop46
 90
       50
102
RTVSPost2010PropOp46
 70
     1
102
RTVSPost2010Prop47
 90
       50
102
RTVSPost2010PropOp47
 70
     1
102
RTVSPost2010Prop48
 90
       50
102
RTVSPost2010PropOp48
 70
     1
102
RTVSPost2010Prop49
280
     0
102
RTVSPost2010PropOp49
 70
     1
102
RTVSPost2010Prop50
 90
       50
102
RTVSPost2010PropOp50
 70
     1
102
RTVSPost2010Prop51ColorIndex
 90
      256
102
RTVSPost2010Prop51ColorRGB
 90
-16777216
102
RTVSPost2010PropOp51
 70
     0
102
RTVSPost2010Prop52
140
1.0
102
RTVSPost2010PropOp52
 70
     0
102
RTVSPost2010Prop53
 90
        2
102
RTVSPost2010PropOp53
 70
     1
102
RTVSPost2010Prop54
  1
strokes_ogs.tif
102
RTVSPost2010PropOp54
 70
     1
102
RTVSPost2010Prop55
280
     0
102
RTVSPost2010PropOp55
 70
     1
102
RTVSPost2010Prop56
140
1.0
102
RTVSPost2010PropOp56
 70
     1
102
RTVSPost2010Prop57
140
1.0
102
RTVSPost2010PropOp57
 70
     1
102
RTVSPropertyOp0
 70
     1
102
RTVSPropertyOp1
 70
     1
102
RTVSPropertyOp2
 70
     1
102
RTVSPropertyOp3
 70
     1
102
RTVSPropertyOp4
 70
     1
102
RTVSPropertyOp5
 70
     1
102
RTVSPropertyOp6
 70
     1
102
RTVSPropertyOp7
 70
     1
102
RTVSPropertyOp8
 70
     1
102
RTVSPropertyOp9
 70
     1
102
RTVSPropertyOp10
 70
     1
102
RTVSPropertyOp11
 70
     1
102
RTVSPropertyOp12
 70
     1
102
RTVSPropertyOp13
 70
     1
102
RTVSPropertyOp14
 70
     1
102
RTVSPropertyOp15
 70
     1
102
RTVSPropertyOp16
 70
     1
102
RTVSPropertyOp17
 70
     1
102
RTVSPropertyOp18
 70
     1
102
RTVSPropertyOp19
 70
     1
102
RTVSPropertyOp20
 70
     1
102
RTVSPropertyOp21
 70
     1
102
RTVSPropertyOp22
 70
     1
102
RTVSPropertyOp23
 70
     1
102
RTVSPropertyOp24
 70
     1
102
RTVSPropertyOp25
 70
     1
102
RTVSPropertyOp26
 70
     1
102
RTVSPropertyOp27
 70
     1
102
RTVSPropertyOp28
 70
     1
102
RTVSPropertyOp29
 70
     1
102
RTVSPropertyOp30
 70
     1
102
RTVSPropertyOp31
 70
     1
102
RTVSPropertyOp32
 70
     1
102
RTVSPropertyOp33
 70
     1
102
RTVSPropertyOp34
 70
     1
102
RTVSPropertyOp35
 70
     1
102
RTVSPropertyOp36
 70
     1
102
RTVSPropertyOp37
 70
     1
102
RTVSPropertyOp38
 70
     1
102
RTVSPropertyOp39
 70
     1
102
RTVSPropertyOp40
 70
     1
102
RTVSPropertyOp41
 70
     1
102
RTVSPropertyOp42
 70
     1
102
RTVSPropertyOp43
 70
     1
102
RTVSPropertyOp44
 70
     1
102
RTVSPropertyOp45
 70
     1
102
RTVSPropertyOp46
 70
     1
102
RTVSPropertyOp47
 70
     1
102
RTVSPropertyOp48
 70
     1
102
RTVSPropertyOp49
 70
     1
102
RTVSPropertyOp50
 70
     1
102
RTVSPropertyOp51
 70
     0
102
RTVSPropertyOp52
 70
     0
102
RTVSPropertyOp53
 70
     1
102
RTVSPropertyOp54
 70
     1
102
RTVSPropertyOp55
 70
     1
102
RTVSPropertyOp56
 70
     1
102
RTVSPropertyOp57
 70
     1
102
RTVSPropertyOp58
 70
     1
102
RTVSPropertyOp59
 70
     1
102
RTVSPropertyOp60
 70
     1
102
RTVSPropertyOp61
 70
     1
102
RTVSPropertyOp62
 70
     1
  0
XRECORD
  5
48B
102
{ACAD_REACTORS
330
48A
102
}
330
48A
100
AcDbXrecord
280
     1
102
RTVSPost2010Prop28
280
     0
102
RTVSPost2010PropOp28
 70
     1
102
RTVSPost2010Prop29
280
     1
102
RTVSPost2010PropOp29
 70
     1
102
RTVSPost2010Prop30
280
     1
102
RTVSPost2010PropOp30
 70
     1
102
RTVSPost2010Prop31
280
     0
102
RTVSPost2010PropOp31
 70
     1
102
RTVSPost2010Prop32
280
     0
102
RTVSPost2010PropOp32
 70
     1
102
RTVSPost2010Prop33
280
     0
102
RTVSPost2010PropOp33
 70
     1
102
RTVSPost2010Prop34
280
     0
102
RTVSPost2010PropOp34
 70
     1
102
RTVSPost2010Prop35
280
     0
102
RTVSPost2010PropOp35
 70
     1
102
RTVSPost2010Prop36
280
     0
102
RTVSPost2010PropOp36
 70
     1
102
RTVSPost2010Prop37
 90
       50
102
RTVSPost2010PropOp37
 70
     1
102
RTVSPost2010Prop38
140
0.0
102
RTVSPost2010PropOp38
 70
     1
102
RTVSPost2010Prop39
140
1.0
102
RTVSPost2010PropOp39
 70
     1
102
RTVSPost2010Prop40
 90
        0
102
RTVSPost2010PropOp40
 70
     1
102
RTVSPost2010Prop41ColorIndex
 90
       18
102
RTVSPost2010Prop41ColorRGB
 90
        0
102
RTVSPost2010PropOp41
 70
     1
102
RTVSPost2010Prop42
 90
       50
102
RTVSPost2010PropOp42
 70
     1
102
RTVSPost2010Prop43
 90
        3
102
RTVSPost2010PropOp43
 70
     1
102
RTVSPost2010Prop44ColorIndex
 90
        5
102
RTVSPost2010Prop44ColorRGB
 90
      255
102
RTVSPost2010PropOp44
 70
     1
102
RTVSPost2010Prop45
280
     0
102
RTVSPost2010PropOp45
 70
     1
102
RTVSPost2010Prop46
 90
       50
102
RTVSPost2010PropOp46
 70
     1
102
RTVSPost2010Prop47
 90
       50
102
RTVSPost2010PropOp47
 70
     1
102
RTVSPost2010Prop48
 90
       50
102
RTVSPost2010PropOp48
 70
     1
102
RTVSPost2010Prop49
280
     0
102
RTVSPost2010PropOp49
 70
     1
102
RTVSPost2010Prop50
 90
       50
102
RTVSPost2010PropOp50
 70
     1
102
RTVSPost2010Prop51ColorIndex
 90
      256
102
RTVSPost2010Prop51ColorRGB
 90
-16777216
102
RTVSPost2010PropOp51
 70
     0
102
RTVSPost2010Prop52
140
1.0
102
RTVSPost2010PropOp52
 70
     0
102
RTVSPost2010Prop53
 90
        2
102
RTVSPost2010PropOp53
 70
     1
102
RTVSPost2010Prop54
  1
strokes_ogs.tif
102
RTVSPost2010PropOp54
 70
     1
102
RTVSPost2010Prop55
280
     0
102
RTVSPost2010PropOp55
 70
     1
102
RTVSPost2010Prop56
140
1.0
102
RTVSPost2010PropOp56
 70
     1
102
RTVSPost2010Prop57
140
1.0
102
RTVSPost2010PropOp57
 70
     1
102
RTVSPropertyOp0
 70
     1
102
RTVSPropertyOp1
 70
     1
102
RTVSPropertyOp2
 70
     1
102
RTVSPropertyOp3
 70
     1
102
RTVSPropertyOp4
 70
     1
102
RTVSPropertyOp5
 70
     1
102
RTVSPropertyOp6
 70
     1
102
RTVSPropertyOp7
 70
     1
102
RTVSPropertyOp8
 70
     1
102
RTVSPropertyOp9
 70
     1
102
RTVSPropertyOp10
 70
     1
102
RTVSPropertyOp11
 70
     1
102
RTVSPropertyOp12
 70
     1
102
RTVSPropertyOp13
 70
     1
102
RTVSPropertyOp14
 70
     1
102
RTVSPropertyOp15
 70
     1
102
RTVSPropertyOp16
 70
     1
102
RTVSPropertyOp17
 70
     1
102
RTVSPropertyOp18
 70
     1
102
RTVSPropertyOp19
 70
     1
102
RTVSPropertyOp20
 70
     1
102
RTVSPropertyOp21
 70
     1
102
RTVSPropertyOp22
 70
     1
102
RTVSPropertyOp23
 70
     1
102
RTVSPropertyOp24
 70
     1
102
RTVSPropertyOp25
 70
     1
102
RTVSPropertyOp26
 70
     1
102
RTVSPropertyOp27
 70
     1
102
RTVSPropertyOp28
 70
     1
102
RTVSPropertyOp29
 70
     1
102
RTVSPropertyOp30
 70
     1
102
RTVSPropertyOp31
 70
     1
102
RTVSPropertyOp32
 70
     1
102
RTVSPropertyOp33
 70
     1
102
RTVSPropertyOp34
 70
     1
102
RTVSPropertyOp35
 70
     1
102
RTVSPropertyOp36
 70
     1
102
RTVSPropertyOp37
 70
     1
102
RTVSPropertyOp38
 70
     1
102
RTVSPropertyOp39
 70
     1
102
RTVSPropertyOp40
 70
     1
102
RTVSPropertyOp41
 70
     1
102
RTVSPropertyOp42
 70
     1
102
RTVSPropertyOp43
 70
     1
102
RTVSPropertyOp44
 70
     1
102
RTVSPropertyOp45
 70
     1
102
RTVSPropertyOp46
 70
     1
102
RTVSPropertyOp47
 70
     1
102
RTVSPropertyOp48
 70
     1
102
RTVSPropertyOp49
 70
     1
102
RTVSPropertyOp50
 70
     1
102
RTVSPropertyOp51
 70
     0
102
RTVSPropertyOp52
 70
     0
102
RTVSPropertyOp53
 70
     1
102
RTVSPropertyOp54
 70
     1
102
RTVSPropertyOp55
 70
     1
102
RTVSPropertyOp56
 70
     1
102
RTVSPropertyOp57
 70
     1
102
RTVSPropertyOp58
 70
     1
102
RTVSPropertyOp59
 70
     1
102
RTVSPropertyOp60
 70
     1
102
RTVSPropertyOp61
 70
     1
102
RTVSPropertyOp62
 70
     1
  0
XRECORD
  5
48D
102
{ACAD_REACTORS
330
48C
102
}
330
48C
100
AcDbXrecord
280
     1
102
RTVSPost2010Prop28
280
     0
102
RTVSPost2010PropOp28
 70
     1
102
RTVSPost2010Prop29
280
     1
102
RTVSPost2010PropOp29
 70
     1
102
RTVSPost2010Prop30
280
     1
102
RTVSPost2010PropOp30
 70
     1
102
RTVSPost2010Prop31
280
     0
102
RTVSPost2010PropOp31
 70
     1
102
RTVSPost2010Prop32
280
     0
102
RTVSPost2010PropOp32
 70
     1
102
RTVSPost2010Prop33
280
     0
102
RTVSPost2010PropOp33
 70
     1
102
RTVSPost2010Prop34
280
     0
102
RTVSPost2010PropOp34
 70
     1
102
RTVSPost2010Prop35
280
     0
102
RTVSPost2010PropOp35
 70
     1
102
RTVSPost2010Prop36
280
     0
102
RTVSPost2010PropOp36
 70
     1
102
RTVSPost2010Prop37
 90
       50
102
RTVSPost2010PropOp37
 70
     1
102
RTVSPost2010Prop38
140
0.0
102
RTVSPost2010PropOp38
 70
     1
102
RTVSPost2010Prop39
140
1.0
102
RTVSPost2010PropOp39
 70
     1
102
RTVSPost2010Prop40
 90
        0
102
RTVSPost2010PropOp40
 70
     1
102
RTVSPost2010Prop41ColorIndex
 90
       18
102
RTVSPost2010Prop41ColorRGB
 90
        0
102
RTVSPost2010PropOp41
 70
     1
102
RTVSPost2010Prop42
 90
       50
102
RTVSPost2010PropOp42
 70
     1
102
RTVSPost2010Prop43
 90
        3
102
RTVSPost2010PropOp43
 70
     1
102
RTVSPost2010Prop44ColorIndex
 90
        5
102
RTVSPost2010Prop44ColorRGB
 90
      255
102
RTVSPost2010PropOp44
 70
     1
102
RTVSPost2010Prop45
280
     0
102
RTVSPost2010PropOp45
 70
     1
102
RTVSPost2010Prop46
 90
       50
102
RTVSPost2010PropOp46
 70
     1
102
RTVSPost2010Prop47
 90
       50
102
RTVSPost2010PropOp47
 70
     1
102
RTVSPost2010Prop48
 90
       50
102
RTVSPost2010PropOp48
 70
     1
102
RTVSPost2010Prop49
280
     0
102
RTVSPost2010PropOp49
 70
     1
102
RTVSPost2010Prop50
 90
       50
102
RTVSPost2010PropOp50
 70
     1
102
RTVSPost2010Prop51ColorIndex
 90
      256
102
RTVSPost2010Prop51ColorRGB
 90
-16777216
102
RTVSPost2010PropOp51
 70
     0
102
RTVSPost2010Prop52
140
1.0
102
RTVSPost2010PropOp52
 70
     0
102
RTVSPost2010Prop53
 90
        2
102
RTVSPost2010PropOp53
 70
     1
102
RTVSPost2010Prop54
  1
strokes_ogs.tif
102
RTVSPost2010PropOp54
 70
     1
102
RTVSPost2010Prop55
280
     0
102
RTVSPost2010PropOp55
 70
     1
102
RTVSPost2010Prop56
140
1.0
102
RTVSPost2010PropOp56
 70
     1
102
RTVSPost2010Prop57
140
1.0
102
RTVSPost2010PropOp57
 70
     1
102
RTVSPropertyOp0
 70
     1
102
RTVSPropertyOp1
 70
     1
102
RTVSPropertyOp2
 70
     1
102
RTVSPropertyOp3
 70
     1
102
RTVSPropertyOp4
 70
     1
102
RTVSPropertyOp5
 70
     1
102
RTVSPropertyOp6
 70
     1
102
RTVSPropertyOp7
 70
     1
102
RTVSPropertyOp8
 70
     1
102
RTVSPropertyOp9
 70
     1
102
RTVSPropertyOp10
 70
     1
102
RTVSPropertyOp11
 70
     1
102
RTVSPropertyOp12
 70
     1
102
RTVSPropertyOp13
 70
     1
102
RTVSPropertyOp14
 70
     1
102
RTVSPropertyOp15
 70
     1
102
RTVSPropertyOp16
 70
     1
102
RTVSPropertyOp17
 70
     1
102
RTVSPropertyOp18
 70
     1
102
RTVSPropertyOp19
 70
     1
102
RTVSPropertyOp20
 70
     1
102
RTVSPropertyOp21
 70
     1
102
RTVSPropertyOp22
 70
     1
102
RTVSPropertyOp23
 70
     1
102
RTVSPropertyOp24
 70
     1
102
RTVSPropertyOp25
 70
     1
102
RTVSPropertyOp26
 70
     1
102
RTVSPropertyOp27
 70
     1
102
RTVSPropertyOp28
 70
     1
102
RTVSPropertyOp29
 70
     1
102
RTVSPropertyOp30
 70
     1
102
RTVSPropertyOp31
 70
     1
102
RTVSPropertyOp32
 70
     1
102
RTVSPropertyOp33
 70
     1
102
RTVSPropertyOp34
 70
     1
102
RTVSPropertyOp35
 70
     1
102
RTVSPropertyOp36
 70
     1
102
RTVSPropertyOp37
 70
     1
102
RTVSPropertyOp38
 70
     1
102
RTVSPropertyOp39
 70
     1
102
RTVSPropertyOp40
 70
     1
102
RTVSPropertyOp41
 70
     1
102
RTVSPropertyOp42
 70
     1
102
RTVSPropertyOp43
 70
     1
102
RTVSPropertyOp44
 70
     1
102
RTVSPropertyOp45
 70
     1
102
RTVSPropertyOp46
 70
     1
102
RTVSPropertyOp47
 70
     1
102
RTVSPropertyOp48
 70
     1
102
RTVSPropertyOp49
 70
     1
102
RTVSPropertyOp50
 70
     1
102
RTVSPropertyOp51
 70
     0
102
RTVSPropertyOp52
 70
     0
102
RTVSPropertyOp53
 70
     1
102
RTVSPropertyOp54
 70
     1
102
RTVSPropertyOp55
 70
     1
102
RTVSPropertyOp56
 70
     1
102
RTVSPropertyOp57
 70
     1
102
RTVSPropertyOp58
 70
     1
102
RTVSPropertyOp59
 70
     1
102
RTVSPropertyOp60
 70
     1
102
RTVSPropertyOp61
 70
     1
102
RTVSPropertyOp62
 70
     1
  0
XRECORD
  5
48F
102
{ACAD_REACTORS
330
48E
102
}
330
48E
100
AcDbXrecord
280
     1
102
RTVSPost2010Prop28
280
     0
102
RTVSPost2010PropOp28
 70
     1
102
RTVSPost2010Prop29
280
     1
102
RTVSPost2010PropOp29
 70
     1
102
RTVSPost2010Prop30
280
     1
102
RTVSPost2010PropOp30
 70
     1
102
RTVSPost2010Prop31
280
     0
102
RTVSPost2010PropOp31
 70
     1
102
RTVSPost2010Prop32
280
     0
102
RTVSPost2010PropOp32
 70
     1
102
RTVSPost2010Prop33
280
     0
102
RTVSPost2010PropOp33
 70
     1
102
RTVSPost2010Prop34
280
     0
102
RTVSPost2010PropOp34
 70
     1
102
RTVSPost2010Prop35
280
     0
102
RTVSPost2010PropOp35
 70
     1
102
RTVSPost2010Prop36
280
     0
102
RTVSPost2010PropOp36
 70
     1
102
RTVSPost2010Prop37
 90
       50
102
RTVSPost2010PropOp37
 70
     1
102
RTVSPost2010Prop38
140
0.0
102
RTVSPost2010PropOp38
 70
     1
102
RTVSPost2010Prop39
140
1.0
102
RTVSPost2010PropOp39
 70
     1
102
RTVSPost2010Prop40
 90
        0
102
RTVSPost2010PropOp40
 70
     1
102
RTVSPost2010Prop41ColorIndex
 90
       18
102
RTVSPost2010Prop41ColorRGB
 90
        0
102
RTVSPost2010PropOp41
 70
     1
102
RTVSPost2010Prop42
 90
       50
102
RTVSPost2010PropOp42
 70
     1
102
RTVSPost2010Prop43
 90
        3
102
RTVSPost2010PropOp43
 70
     1
102
RTVSPost2010Prop44ColorIndex
 90
        5
102
RTVSPost2010Prop44ColorRGB
 90
      255
102
RTVSPost2010PropOp44
 70
     1
102
RTVSPost2010Prop45
280
     0
102
RTVSPost2010PropOp45
 70
     1
102
RTVSPost2010Prop46
 90
       50
102
RTVSPost2010PropOp46
 70
     1
102
RTVSPost2010Prop47
 90
       50
102
RTVSPost2010PropOp47
 70
     1
102
RTVSPost2010Prop48
 90
       50
102
RTVSPost2010PropOp48
 70
     1
102
RTVSPost2010Prop49
280
     0
102
RTVSPost2010PropOp49
 70
     1
102
RTVSPost2010Prop50
 90
       50
102
RTVSPost2010PropOp50
 70
     1
102
RTVSPost2010Prop51ColorIndex
 90
      256
102
RTVSPost2010Prop51ColorRGB
 90
-16777216
102
RTVSPost2010PropOp51
 70
     0
102
RTVSPost2010Prop52
140
1.0
102
RTVSPost2010PropOp52
 70
     0
102
RTVSPost2010Prop53
 90
        2
102
RTVSPost2010PropOp53
 70
     1
102
RTVSPost2010Prop54
  1
strokes_ogs.tif
102
RTVSPost2010PropOp54
 70
     1
102
RTVSPost2010Prop55
280
     0
102
RTVSPost2010PropOp55
 70
     1
102
RTVSPost2010Prop56
140
1.0
102
RTVSPost2010PropOp56
 70
     1
102
RTVSPost2010Prop57
140
1.0
102
RTVSPost2010PropOp57
 70
     1
102
RTVSPropertyOp0
 70
     1
102
RTVSPropertyOp1
 70
     1
102
RTVSPropertyOp2
 70
     1
102
RTVSPropertyOp3
 70
     1
102
RTVSPropertyOp4
 70
     1
102
RTVSPropertyOp5
 70
     1
102
RTVSPropertyOp6
 70
     1
102
RTVSPropertyOp7
 70
     1
102
RTVSPropertyOp8
 70
     1
102
RTVSPropertyOp9
 70
     1
102
RTVSPropertyOp10
 70
     1
102
RTVSPropertyOp11
 70
     1
102
RTVSPropertyOp12
 70
     1
102
RTVSPropertyOp13
 70
     1
102
RTVSPropertyOp14
 70
     1
102
RTVSPropertyOp15
 70
     1
102
RTVSPropertyOp16
 70
     1
102
RTVSPropertyOp17
 70
     1
102
RTVSPropertyOp18
 70
     1
102
RTVSPropertyOp19
 70
     1
102
RTVSPropertyOp20
 70
     1
102
RTVSPropertyOp21
 70
     1
102
RTVSPropertyOp22
 70
     1
102
RTVSPropertyOp23
 70
     1
102
RTVSPropertyOp24
 70
     1
102
RTVSPropertyOp25
 70
     1
102
RTVSPropertyOp26
 70
     1
102
RTVSPropertyOp27
 70
     1
102
RTVSPropertyOp28
 70
     1
102
RTVSPropertyOp29
 70
     1
102
RTVSPropertyOp30
 70
     1
102
RTVSPropertyOp31
 70
     1
102
RTVSPropertyOp32
 70
     1
102
RTVSPropertyOp33
 70
     1
102
RTVSPropertyOp34
 70
     1
102
RTVSPropertyOp35
 70
     1
102
RTVSPropertyOp36
 70
     1
102
RTVSPropertyOp37
 70
     1
102
RTVSPropertyOp38
 70
     1
102
RTVSPropertyOp39
 70
     1
102
RTVSPropertyOp40
 70
     1
102
RTVSPropertyOp41
 70
     1
102
RTVSPropertyOp42
 70
     1
102
RTVSPropertyOp43
 70
     1
102
RTVSPropertyOp44
 70
     1
102
RTVSPropertyOp45
 70
     1
102
RTVSPropertyOp46
 70
     1
102
RTVSPropertyOp47
 70
     1
102
RTVSPropertyOp48
 70
     1
102
RTVSPropertyOp49
 70
     1
102
RTVSPropertyOp50
 70
     1
102
RTVSPropertyOp51
 70
     0
102
RTVSPropertyOp52
 70
     0
102
RTVSPropertyOp53
 70
     1
102
RTVSPropertyOp54
 70
     1
102
RTVSPropertyOp55
 70
     1
102
RTVSPropertyOp56
 70
     1
102
RTVSPropertyOp57
 70
     1
102
RTVSPropertyOp58
 70
     1
102
RTVSPropertyOp59
 70
     1
102
RTVSPropertyOp60
 70
     1
102
RTVSPropertyOp61
 70
     1
102
RTVSPropertyOp62
 70
     1
  0
XRECORD
  5
497
102
{ACAD_REACTORS
330
496
102
}
330
496
100
AcDbXrecord
280
     1
102
RTVSPost2010Prop28
280
     0
102
RTVSPost2010PropOp28
 70
     1
102
RTVSPost2010Prop29
280
     1
102
RTVSPost2010PropOp29
 70
     1
102
RTVSPost2010Prop30
280
     1
102
RTVSPost2010PropOp30
 70
     1
102
RTVSPost2010Prop31
280
     0
102
RTVSPost2010PropOp31
 70
     1
102
RTVSPost2010Prop32
280
     0
102
RTVSPost2010PropOp32
 70
     1
102
RTVSPost2010Prop33
280
     0
102
RTVSPost2010PropOp33
 70
     1
102
RTVSPost2010Prop34
280
     0
102
RTVSPost2010PropOp34
 70
     1
102
RTVSPost2010Prop35
280
     0
102
RTVSPost2010PropOp35
 70
     1
102
RTVSPost2010Prop36
280
     0
102
RTVSPost2010PropOp36
 70
     1
102
RTVSPost2010Prop37
 90
       50
102
RTVSPost2010PropOp37
 70
     1
102
RTVSPost2010Prop38
140
0.0
102
RTVSPost2010PropOp38
 70
     1
102
RTVSPost2010Prop39
140
1.0
102
RTVSPost2010PropOp39
 70
     1
102
RTVSPost2010Prop40
 90
        0
102
RTVSPost2010PropOp40
 70
     1
102
RTVSPost2010Prop41ColorIndex
 90
       18
102
RTVSPost2010Prop41ColorRGB
 90
        0
102
RTVSPost2010PropOp41
 70
     1
102
RTVSPost2010Prop42
 90
       50
102
RTVSPost2010PropOp42
 70
     1
102
RTVSPost2010Prop43
 90
        3
102
RTVSPost2010PropOp43
 70
     1
102
RTVSPost2010Prop44ColorIndex
 90
        5
102
RTVSPost2010Prop44ColorRGB
 90
      255
102
RTVSPost2010PropOp44
 70
     1
102
RTVSPost2010Prop45
280
     0
102
RTVSPost2010PropOp45
 70
     1
102
RTVSPost2010Prop46
 90
       50
102
RTVSPost2010PropOp46
 70
     1
102
RTVSPost2010Prop47
 90
       50
102
RTVSPost2010PropOp47
 70
     1
102
RTVSPost2010Prop48
 90
       50
102
RTVSPost2010PropOp48
 70
     1
102
RTVSPost2010Prop49
280
     0
102
RTVSPost2010PropOp49
 70
     1
102
RTVSPost2010Prop50
 90
       50
102
RTVSPost2010PropOp50
 70
     1
102
RTVSPost2010Prop51ColorIndex
 90
      256
102
RTVSPost2010Prop51ColorRGB
 90
-16777216
102
RTVSPost2010PropOp51
 70
     0
102
RTVSPost2010Prop52
140
1.0
102
RTVSPost2010PropOp52
 70
     0
102
RTVSPost2010Prop53
 90
        2
102
RTVSPost2010PropOp53
 70
     1
102
RTVSPost2010Prop54
  1
strokes_ogs.tif
102
RTVSPost2010PropOp54
 70
     1
102
RTVSPost2010Prop55
280
     0
102
RTVSPost2010PropOp55
 70
     1
102
RTVSPost2010Prop56
140
1.0
102
RTVSPost2010PropOp56
 70
     1
102
RTVSPost2010Prop57
140
1.0
102
RTVSPost2010PropOp57
 70
     1
102
RTVSPropertyOp0
 70
     1
102
RTVSPropertyOp1
 70
     1
102
RTVSPropertyOp2
 70
     1
102
RTVSPropertyOp3
 70
     1
102
RTVSPropertyOp4
 70
     1
102
RTVSPropertyOp5
 70
     1
102
RTVSPropertyOp6
 70
     1
102
RTVSPropertyOp7
 70
     1
102
RTVSPropertyOp8
 70
     1
102
RTVSPropertyOp9
 70
     1
102
RTVSPropertyOp10
 70
     1
102
RTVSPropertyOp11
 70
     1
102
RTVSPropertyOp12
 70
     1
102
RTVSPropertyOp13
 70
     1
102
RTVSPropertyOp14
 70
     1
102
RTVSPropertyOp15
 70
     1
102
RTVSPropertyOp16
 70
     1
102
RTVSPropertyOp17
 70
     1
102
RTVSPropertyOp18
 70
     1
102
RTVSPropertyOp19
 70
     1
102
RTVSPropertyOp20
 70
     1
102
RTVSPropertyOp21
 70
     1
102
RTVSPropertyOp22
 70
     1
102
RTVSPropertyOp23
 70
     1
102
RTVSPropertyOp24
 70
     1
102
RTVSPropertyOp25
 70
     1
102
RTVSPropertyOp26
 70
     1
102
RTVSPropertyOp27
 70
     1
102
RTVSPropertyOp28
 70
     1
102
RTVSPropertyOp29
 70
     1
102
RTVSPropertyOp30
 70
     1
102
RTVSPropertyOp31
 70
     1
102
RTVSPropertyOp32
 70
     1
102
RTVSPropertyOp33
 70
     1
102
RTVSPropertyOp34
 70
     1
102
RTVSPropertyOp35
 70
     1
102
RTVSPropertyOp36
 70
     1
102
RTVSPropertyOp37
 70
     1
102
RTVSPropertyOp38
 70
     1
102
RTVSPropertyOp39
 70
     1
102
RTVSPropertyOp40
 70
     1
102
RTVSPropertyOp41
 70
     1
102
RTVSPropertyOp42
 70
     1
102
RTVSPropertyOp43
 70
     1
102
RTVSPropertyOp44
 70
     1
102
RTVSPropertyOp45
 70
     1
102
RTVSPropertyOp46
 70
     1
102
RTVSPropertyOp47
 70
     1
102
RTVSPropertyOp48
 70
     1
102
RTVSPropertyOp49
 70
     1
102
RTVSPropertyOp50
 70
     1
102
RTVSPropertyOp51
 70
     0
102
RTVSPropertyOp52
 70
     0
102
RTVSPropertyOp53
 70
     1
102
RTVSPropertyOp54
 70
     1
102
RTVSPropertyOp55
 70
     1
102
RTVSPropertyOp56
 70
     1
102
RTVSPropertyOp57
 70
     1
102
RTVSPropertyOp58
 70
     1
102
RTVSPropertyOp59
 70
     1
102
RTVSPropertyOp60
 70
     1
102
RTVSPropertyOp61
 70
     1
102
RTVSPropertyOp62
 70
     1
  0
XRECORD
  5
4B3
102
{ACAD_REACTORS
330
4B2
102
}
330
4B2
100
AcDbXrecord
280
     1
102
RTVSPost2010Prop28
280
     0
102
RTVSPost2010PropOp28
 70
     1
102
RTVSPost2010Prop29
280
     1
102
RTVSPost2010PropOp29
 70
     1
102
RTVSPost2010Prop30
280
     1
102
RTVSPost2010PropOp30
 70
     1
102
RTVSPost2010Prop31
280
     0
102
RTVSPost2010PropOp31
 70
     1
102
RTVSPost2010Prop32
280
     0
102
RTVSPost2010PropOp32
 70
     1
102
RTVSPost2010Prop33
280
     0
102
RTVSPost2010PropOp33
 70
     1
102
RTVSPost2010Prop34
280
     0
102
RTVSPost2010PropOp34
 70
     1
102
RTVSPost2010Prop35
280
     0
102
RTVSPost2010PropOp35
 70
     1
102
RTVSPost2010Prop36
280
     0
102
RTVSPost2010PropOp36
 70
     1
102
RTVSPost2010Prop37
 90
       50
102
RTVSPost2010PropOp37
 70
     0
102
RTVSPost2010Prop38
140
0.0
102
RTVSPost2010PropOp38
 70
     0
102
RTVSPost2010Prop39
140
1.0
102
RTVSPost2010PropOp39
 70
     0
102
RTVSPost2010Prop40
 90
        0
102
RTVSPost2010PropOp40
 70
     0
102
RTVSPost2010Prop41ColorIndex
 90
       18
102
RTVSPost2010Prop41ColorRGB
 90
        0
102
RTVSPost2010PropOp41
 70
     0
102
RTVSPost2010Prop42
 90
       50
102
RTVSPost2010PropOp42
 70
     0
102
RTVSPost2010Prop43
 90
        3
102
RTVSPost2010PropOp43
 70
     0
102
RTVSPost2010Prop44ColorIndex
 90
        5
102
RTVSPost2010Prop44ColorRGB
 90
      255
102
RTVSPost2010PropOp44
 70
     0
102
RTVSPost2010Prop45
280
     0
102
RTVSPost2010PropOp45
 70
     1
102
RTVSPost2010Prop46
 90
       50
102
RTVSPost2010PropOp46
 70
     0
102
RTVSPost2010Prop47
 90
       50
102
RTVSPost2010PropOp47
 70
     0
102
RTVSPost2010Prop48
 90
       50
102
RTVSPost2010PropOp48
 70
     0
102
RTVSPost2010Prop49
280
     0
102
RTVSPost2010PropOp49
 70
     1
102
RTVSPost2010Prop50
 90
       50
102
RTVSPost2010PropOp50
 70
     0
102
RTVSPost2010Prop51ColorIndex
 90
      256
102
RTVSPost2010Prop51ColorRGB
 90
-16777216
102
RTVSPost2010PropOp51
 70
     0
102
RTVSPost2010Prop52
140
1.0
102
RTVSPost2010PropOp52
 70
     0
102
RTVSPost2010Prop53
 90
        2
102
RTVSPost2010PropOp53
 70
     0
102
RTVSPost2010Prop54
  1
strokes_ogs.tif
102
RTVSPost2010PropOp54
 70
     0
102
RTVSPost2010Prop55
280
     0
102
RTVSPost2010PropOp55
 70
     1
102
RTVSPost2010Prop56
140
1.0
102
RTVSPost2010PropOp56
 70
     0
102
RTVSPost2010Prop57
140
1.0
102
RTVSPost2010PropOp57
 70
     0
102
RTVSPropertyOp0
 70
     0
102
RTVSPropertyOp1
 70
     0
102
RTVSPropertyOp2
 70
     0
102
RTVSPropertyOp3
 70
     0
102
RTVSPropertyOp4
 70
     0
102
RTVSPropertyOp5
 70
     0
102
RTVSPropertyOp6
 70
     0
102
RTVSPropertyOp7
 70
     0
102
RTVSPropertyOp8
 70
     0
102
RTVSPropertyOp9
 70
     0
102
RTVSPropertyOp10
 70
     0
102
RTVSPropertyOp11
 70
     0
102
RTVSPropertyOp12
 70
     0
102
RTVSPropertyOp13
 70
     0
102
RTVSPropertyOp14
 70
     2
102
RTVSPropertyOp15
 70
     0
102
RTVSPropertyOp16
 70
     0
102
RTVSPropertyOp17
 70
     0
102
RTVSPropertyOp18
 70
     0
102
RTVSPropertyOp19
 70
     0
102
RTVSPropertyOp20
 70
     0
102
RTVSPropertyOp21
 70
     0
102
RTVSPropertyOp22
 70
     0
102
RTVSPropertyOp23
 70
     0
102
RTVSPropertyOp24
 70
     0
102
RTVSPropertyOp25
 70
     0
102
RTVSPropertyOp26
 70
     0
102
RTVSPropertyOp27
 70
     0
102
RTVSPropertyOp28
 70
     1
102
RTVSPropertyOp29
 70
     1
102
RTVSPropertyOp30
 70
     1
102
RTVSPropertyOp31
 70
     1
102
RTVSPropertyOp32
 70
     1
102
RTVSPropertyOp33
 70
     1
102
RTVSPropertyOp34
 70
     1
102
RTVSPropertyOp35
 70
     1
102
RTVSPropertyOp36
 70
     1
102
RTVSPropertyOp37
 70
     0
102
RTVSPropertyOp38
 70
     0
102
RTVSPropertyOp39
 70
     0
102
RTVSPropertyOp40
 70
     0
102
RTVSPropertyOp41
 70
     0
102
RTVSPropertyOp42
 70
     0
102
RTVSPropertyOp43
 70
     0
102
RTVSPropertyOp44
 70
     0
102
RTVSPropertyOp45
 70
     1
102
RTVSPropertyOp46
 70
     0
102
RTVSPropertyOp47
 70
     0
102
RTVSPropertyOp48
 70
     0
102
RTVSPropertyOp49
 70
     1
102
RTVSPropertyOp50
 70
     0
102
RTVSPropertyOp51
 70
     0
102
RTVSPropertyOp52
 70
     0
102
RTVSPropertyOp53
 70
     0
102
RTVSPropertyOp54
 70
     0
102
RTVSPropertyOp55
 70
     1
102
RTVSPropertyOp56
 70
     0
102
RTVSPropertyOp57
 70
     0
102
RTVSPropertyOp58
 70
     0
102
RTVSPropertyOp59
 70
     0
102
RTVSPropertyOp60
 70
     0
102
RTVSPropertyOp61
 70
     0
102
RTVSPropertyOp62
 70
     0
  0
XRECORD
  5
4A3
102
{ACAD_REACTORS
330
4A2
102
}
330
4A2
100
AcDbXrecord
280
     1
102
RTVSPost2010Prop28
280
     0
102
RTVSPost2010PropOp28
 70
     1
102
RTVSPost2010Prop29
280
     1
102
RTVSPost2010PropOp29
 70
     1
102
RTVSPost2010Prop30
280
     1
102
RTVSPost2010PropOp30
 70
     1
102
RTVSPost2010Prop31
280
     0
102
RTVSPost2010PropOp31
 70
     1
102
RTVSPost2010Prop32
280
     0
102
RTVSPost2010PropOp32
 70
     1
102
RTVSPost2010Prop33
280
     0
102
RTVSPost2010PropOp33
 70
     1
102
RTVSPost2010Prop34
280
     0
102
RTVSPost2010PropOp34
 70
     1
102
RTVSPost2010Prop35
280
     0
102
RTVSPost2010PropOp35
 70
     1
102
RTVSPost2010Prop36
280
     0
102
RTVSPost2010PropOp36
 70
     1
102
RTVSPost2010Prop37
 90
       50
102
RTVSPost2010PropOp37
 70
     1
102
RTVSPost2010Prop38
140
0.0
102
RTVSPost2010PropOp38
 70
     1
102
RTVSPost2010Prop39
140
1.0
102
RTVSPost2010PropOp39
 70
     1
102
RTVSPost2010Prop40
 90
        0
102
RTVSPost2010PropOp40
 70
     1
102
RTVSPost2010Prop41ColorIndex
 90
       18
102
RTVSPost2010Prop41ColorRGB
 90
        0
102
RTVSPost2010PropOp41
 70
     1
102
RTVSPost2010Prop42
 90
       50
102
RTVSPost2010PropOp42
 70
     1
102
RTVSPost2010Prop43
 90
        3
102
RTVSPost2010PropOp43
 70
     1
102
RTVSPost2010Prop44ColorIndex
 90
        5
102
RTVSPost2010Prop44ColorRGB
 90
      255
102
RTVSPost2010PropOp44
 70
     1
102
RTVSPost2010Prop45
280
     0
102
RTVSPost2010PropOp45
 70
     1
102
RTVSPost2010Prop46
 90
       50
102
RTVSPost2010PropOp46
 70
     1
102
RTVSPost2010Prop47
 90
       50
102
RTVSPost2010PropOp47
 70
     1
102
RTVSPost2010Prop48
 90
       50
102
RTVSPost2010PropOp48
 70
     1
102
RTVSPost2010Prop49
280
     0
102
RTVSPost2010PropOp49
 70
     1
102
RTVSPost2010Prop50
 90
       50
102
RTVSPost2010PropOp50
 70
     1
102
RTVSPost2010Prop51ColorIndex
 90
      256
102
RTVSPost2010Prop51ColorRGB
 90
-16777216
102
RTVSPost2010PropOp51
 70
     0
102
RTVSPost2010Prop52
140
1.0
102
RTVSPost2010PropOp52
 70
     0
102
RTVSPost2010Prop53
 90
        2
102
RTVSPost2010PropOp53
 70
     1
102
RTVSPost2010Prop54
  1
strokes_ogs.tif
102
RTVSPost2010PropOp54
 70
     1
102
RTVSPost2010Prop55
280
     0
102
RTVSPost2010PropOp55
 70
     1
102
RTVSPost2010Prop56
140
1.0
102
RTVSPost2010PropOp56
 70
     1
102
RTVSPost2010Prop57
140
1.0
102
RTVSPost2010PropOp57
 70
     1
102
RTVSPropertyOp0
 70
     1
102
RTVSPropertyOp1
 70
     1
102
RTVSPropertyOp2
 70
     1
102
RTVSPropertyOp3
 70
     1
102
RTVSPropertyOp4
 70
     1
102
RTVSPropertyOp5
 70
     1
102
RTVSPropertyOp6
 70
     1
102
RTVSPropertyOp7
 70
     1
102
RTVSPropertyOp8
 70
     1
102
RTVSPropertyOp9
 70
     1
102
RTVSPropertyOp10
 70
     1
102
RTVSPropertyOp11
 70
     1
102
RTVSPropertyOp12
 70
     1
102
RTVSPropertyOp13
 70
     1
102
RTVSPropertyOp14
 70
     1
102
RTVSPropertyOp15
 70
     1
102
RTVSPropertyOp16
 70
     1
102
RTVSPropertyOp17
 70
     1
102
RTVSPropertyOp18
 70
     1
102
RTVSPropertyOp19
 70
     1
102
RTVSPropertyOp20
 70
     1
102
RTVSPropertyOp21
 70
     1
102
RTVSPropertyOp22
 70
     1
102
RTVSPropertyOp23
 70
     1
102
RTVSPropertyOp24
 70
     1
102
RTVSPropertyOp25
 70
     1
102
RTVSPropertyOp26
 70
     1
102
RTVSPropertyOp27
 70
     1
102
RTVSPropertyOp28
 70
     1
102
RTVSPropertyOp29
 70
     1
102
RTVSPropertyOp30
 70
     1
102
RTVSPropertyOp31
 70
     1
102
RTVSPropertyOp32
 70
     1
102
RTVSPropertyOp33
 70
     1
102
RTVSPropertyOp34
 70
     1
102
RTVSPropertyOp35
 70
     1
102
RTVSPropertyOp36
 70
     1
102
RTVSPropertyOp37
 70
     1
102
RTVSPropertyOp38
 70
     1
102
RTVSPropertyOp39
 70
     1
102
RTVSPropertyOp40
 70
     1
102
RTVSPropertyOp41
 70
     1
102
RTVSPropertyOp42
 70
     1
102
RTVSPropertyOp43
 70
     1
102
RTVSPropertyOp44
 70
     1
102
RTVSPropertyOp45
 70
     1
102
RTVSPropertyOp46
 70
     1
102
RTVSPropertyOp47
 70
     1
102
RTVSPropertyOp48
 70
     1
102
RTVSPropertyOp49
 70
     1
102
RTVSPropertyOp50
 70
     1
102
RTVSPropertyOp51
 70
     0
102
RTVSPropertyOp52
 70
     0
102
RTVSPropertyOp53
 70
     1
102
RTVSPropertyOp54
 70
     1
102
RTVSPropertyOp55
 70
     1
102
RTVSPropertyOp56
 70
     1
102
RTVSPropertyOp57
 70
     1
102
RTVSPropertyOp58
 70
     1
102
RTVSPropertyOp59
 70
     1
102
RTVSPropertyOp60
 70
     1
102
RTVSPropertyOp61
 70
     1
102
RTVSPropertyOp62
 70
     1
  0
XRECORD
  5
4B5
102
{ACAD_REACTORS
330
4B4
102
}
330
4B4
100
AcDbXrecord
280
     1
102
RTVSPost2010Prop28
280
     0
102
RTVSPost2010PropOp28
 70
     1
102
RTVSPost2010Prop29
280
     1
102
RTVSPost2010PropOp29
 70
     1
102
RTVSPost2010Prop30
280
     1
102
RTVSPost2010PropOp30
 70
     1
102
RTVSPost2010Prop31
280
     0
102
RTVSPost2010PropOp31
 70
     1
102
RTVSPost2010Prop32
280
     0
102
RTVSPost2010PropOp32
 70
     1
102
RTVSPost2010Prop33
280
     0
102
RTVSPost2010PropOp33
 70
     1
102
RTVSPost2010Prop34
280
     0
102
RTVSPost2010PropOp34
 70
     1
102
RTVSPost2010Prop35
280
     0
102
RTVSPost2010PropOp35
 70
     1
102
RTVSPost2010Prop36
280
     0
102
RTVSPost2010PropOp36
 70
     1
102
RTVSPost2010Prop37
 90
       50
102
RTVSPost2010PropOp37
 70
     0
102
RTVSPost2010Prop38
140
0.0
102
RTVSPost2010PropOp38
 70
     0
102
RTVSPost2010Prop39
140
1.0
102
RTVSPost2010PropOp39
 70
     0
102
RTVSPost2010Prop40
 90
        0
102
RTVSPost2010PropOp40
 70
     0
102
RTVSPost2010Prop41ColorIndex
 90
       18
102
RTVSPost2010Prop41ColorRGB
 90
        0
102
RTVSPost2010PropOp41
 70
     0
102
RTVSPost2010Prop42
 90
       50
102
RTVSPost2010PropOp42
 70
     0
102
RTVSPost2010Prop43
 90
        3
102
RTVSPost2010PropOp43
 70
     0
102
RTVSPost2010Prop44ColorIndex
 90
        5
102
RTVSPost2010Prop44ColorRGB
 90
      255
102
RTVSPost2010PropOp44
 70
     0
102
RTVSPost2010Prop45
280
     0
102
RTVSPost2010PropOp45
 70
     1
102
RTVSPost2010Prop46
 90
       50
102
RTVSPost2010PropOp46
 70
     0
102
RTVSPost2010Prop47
 90
       50
102
RTVSPost2010PropOp47
 70
     0
102
RTVSPost2010Prop48
 90
       50
102
RTVSPost2010PropOp48
 70
     0
102
RTVSPost2010Prop49
280
     0
102
RTVSPost2010PropOp49
 70
     1
102
RTVSPost2010Prop50
 90
       50
102
RTVSPost2010PropOp50
 70
     0
102
RTVSPost2010Prop51ColorIndex
 90
      256
102
RTVSPost2010Prop51ColorRGB
 90
-16777216
102
RTVSPost2010PropOp51
 70
     0
102
RTVSPost2010Prop52
140
1.0
102
RTVSPost2010PropOp52
 70
     0
102
RTVSPost2010Prop53
 90
        2
102
RTVSPost2010PropOp53
 70
     0
102
RTVSPost2010Prop54
  1
strokes_ogs.tif
102
RTVSPost2010PropOp54
 70
     0
102
RTVSPost2010Prop55
280
     0
102
RTVSPost2010PropOp55
 70
     1
102
RTVSPost2010Prop56
140
1.0
102
RTVSPost2010PropOp56
 70
     0
102
RTVSPost2010Prop57
140
1.0
102
RTVSPost2010PropOp57
 70
     0
102
RTVSPropertyOp0
 70
     0
102
RTVSPropertyOp1
 70
     0
102
RTVSPropertyOp2
 70
     0
102
RTVSPropertyOp3
 70
     0
102
RTVSPropertyOp4
 70
     0
102
RTVSPropertyOp5
 70
     0
102
RTVSPropertyOp6
 70
     0
102
RTVSPropertyOp7
 70
     0
102
RTVSPropertyOp8
 70
     0
102
RTVSPropertyOp9
 70
     0
102
RTVSPropertyOp10
 70
     0
102
RTVSPropertyOp11
 70
     0
102
RTVSPropertyOp12
 70
     0
102
RTVSPropertyOp13
 70
     0
102
RTVSPropertyOp14
 70
     2
102
RTVSPropertyOp15
 70
     0
102
RTVSPropertyOp16
 70
     0
102
RTVSPropertyOp17
 70
     0
102
RTVSPropertyOp18
 70
     0
102
RTVSPropertyOp19
 70
     0
102
RTVSPropertyOp20
 70
     0
102
RTVSPropertyOp21
 70
     0
102
RTVSPropertyOp22
 70
     0
102
RTVSPropertyOp23
 70
     0
102
RTVSPropertyOp24
 70
     0
102
RTVSPropertyOp25
 70
     0
102
RTVSPropertyOp26
 70
     0
102
RTVSPropertyOp27
 70
     0
102
RTVSPropertyOp28
 70
     1
102
RTVSPropertyOp29
 70
     1
102
RTVSPropertyOp30
 70
     1
102
RTVSPropertyOp31
 70
     1
102
RTVSPropertyOp32
 70
     1
102
RTVSPropertyOp33
 70
     1
102
RTVSPropertyOp34
 70
     1
102
RTVSPropertyOp35
 70
     1
102
RTVSPropertyOp36
 70
     1
102
RTVSPropertyOp37
 70
     0
102
RTVSPropertyOp38
 70
     0
102
RTVSPropertyOp39
 70
     0
102
RTVSPropertyOp40
 70
     0
102
RTVSPropertyOp41
 70
     0
102
RTVSPropertyOp42
 70
     0
102
RTVSPropertyOp43
 70
     0
102
RTVSPropertyOp44
 70
     0
102
RTVSPropertyOp45
 70
     1
102
RTVSPropertyOp46
 70
     0
102
RTVSPropertyOp47
 70
     0
102
RTVSPropertyOp48
 70
     0
102
RTVSPropertyOp49
 70
     1
102
RTVSPropertyOp50
 70
     0
102
RTVSPropertyOp51
 70
     0
102
RTVSPropertyOp52
 70
     0
102
RTVSPropertyOp53
 70
     0
102
RTVSPropertyOp54
 70
     0
102
RTVSPropertyOp55
 70
     1
102
RTVSPropertyOp56
 70
     0
102
RTVSPropertyOp57
 70
     0
102
RTVSPropertyOp58
 70
     0
102
RTVSPropertyOp59
 70
     0
102
RTVSPropertyOp60
 70
     0
102
RTVSPropertyOp61
 70
     0
102
RTVSPropertyOp62
 70
     0
  0
XRECORD
  5
49B
102
{ACAD_REACTORS
330
49A
102
}
330
49A
100
AcDbXrecord
280
     1
102
RTVSPost2010Prop28
280
     0
102
RTVSPost2010PropOp28
 70
     1
102
RTVSPost2010Prop29
280
     1
102
RTVSPost2010PropOp29
 70
     1
102
RTVSPost2010Prop30
280
     1
102
RTVSPost2010PropOp30
 70
     1
102
RTVSPost2010Prop31
280
     0
102
RTVSPost2010PropOp31
 70
     1
102
RTVSPost2010Prop32
280
     0
102
RTVSPost2010PropOp32
 70
     1
102
RTVSPost2010Prop33
280
     0
102
RTVSPost2010PropOp33
 70
     1
102
RTVSPost2010Prop34
280
     0
102
RTVSPost2010PropOp34
 70
     1
102
RTVSPost2010Prop35
280
     0
102
RTVSPost2010PropOp35
 70
     1
102
RTVSPost2010Prop36
280
     0
102
RTVSPost2010PropOp36
 70
     1
102
RTVSPost2010Prop37
 90
       50
102
RTVSPost2010PropOp37
 70
     1
102
RTVSPost2010Prop38
140
0.0
102
RTVSPost2010PropOp38
 70
     1
102
RTVSPost2010Prop39
140
1.0
102
RTVSPost2010PropOp39
 70
     1
102
RTVSPost2010Prop40
 90
        0
102
RTVSPost2010PropOp40
 70
     1
102
RTVSPost2010Prop41ColorIndex
 90
       18
102
RTVSPost2010Prop41ColorRGB
 90
        0
102
RTVSPost2010PropOp41
 70
     1
102
RTVSPost2010Prop42
 90
       50
102
RTVSPost2010PropOp42
 70
     1
102
RTVSPost2010Prop43
 90
        3
102
RTVSPost2010PropOp43
 70
     1
102
RTVSPost2010Prop44ColorIndex
 90
        5
102
RTVSPost2010Prop44ColorRGB
 90
      255
102
RTVSPost2010PropOp44
 70
     1
102
RTVSPost2010Prop45
280
     0
102
RTVSPost2010PropOp45
 70
     1
102
RTVSPost2010Prop46
 90
       50
102
RTVSPost2010PropOp46
 70
     1
102
RTVSPost2010Prop47
 90
       50
102
RTVSPost2010PropOp47
 70
     1
102
RTVSPost2010Prop48
 90
       50
102
RTVSPost2010PropOp48
 70
     1
102
RTVSPost2010Prop49
280
     0
102
RTVSPost2010PropOp49
 70
     1
102
RTVSPost2010Prop50
 90
       50
102
RTVSPost2010PropOp50
 70
     1
102
RTVSPost2010Prop51ColorIndex
 90
      256
102
RTVSPost2010Prop51ColorRGB
 90
-16777216
102
RTVSPost2010PropOp51
 70
     0
102
RTVSPost2010Prop52
140
1.0
102
RTVSPost2010PropOp52
 70
     0
102
RTVSPost2010Prop53
 90
        2
102
RTVSPost2010PropOp53
 70
     1
102
RTVSPost2010Prop54
  1
strokes_ogs.tif
102
RTVSPost2010PropOp54
 70
     1
102
RTVSPost2010Prop55
280
     0
102
RTVSPost2010PropOp55
 70
     1
102
RTVSPost2010Prop56
140
1.0
102
RTVSPost2010PropOp56
 70
     1
102
RTVSPost2010Prop57
140
1.0
102
RTVSPost2010PropOp57
 70
     1
102
RTVSPropertyOp0
 70
     1
102
RTVSPropertyOp1
 70
     1
102
RTVSPropertyOp2
 70
     1
102
RTVSPropertyOp3
 70
     1
102
RTVSPropertyOp4
 70
     1
102
RTVSPropertyOp5
 70
     1
102
RTVSPropertyOp6
 70
     1
102
RTVSPropertyOp7
 70
     1
102
RTVSPropertyOp8
 70
     1
102
RTVSPropertyOp9
 70
     1
102
RTVSPropertyOp10
 70
     1
102
RTVSPropertyOp11
 70
     1
102
RTVSPropertyOp12
 70
     1
102
RTVSPropertyOp13
 70
     1
102
RTVSPropertyOp14
 70
     1
102
RTVSPropertyOp15
 70
     1
102
RTVSPropertyOp16
 70
     1
102
RTVSPropertyOp17
 70
     1
102
RTVSPropertyOp18
 70
     1
102
RTVSPropertyOp19
 70
     1
102
RTVSPropertyOp20
 70
     1
102
RTVSPropertyOp21
 70
     1
102
RTVSPropertyOp22
 70
     1
102
RTVSPropertyOp23
 70
     1
102
RTVSPropertyOp24
 70
     1
102
RTVSPropertyOp25
 70
     1
102
RTVSPropertyOp26
 70
     1
102
RTVSPropertyOp27
 70
     1
102
RTVSPropertyOp28
 70
     1
102
RTVSPropertyOp29
 70
     1
102
RTVSPropertyOp30
 70
     1
102
RTVSPropertyOp31
 70
     1
102
RTVSPropertyOp32
 70
     1
102
RTVSPropertyOp33
 70
     1
102
RTVSPropertyOp34
 70
     1
102
RTVSPropertyOp35
 70
     1
102
RTVSPropertyOp36
 70
     1
102
RTVSPropertyOp37
 70
     1
102
RTVSPropertyOp38
 70
     1
102
RTVSPropertyOp39
 70
     1
102
RTVSPropertyOp40
 70
     1
102
RTVSPropertyOp41
 70
     1
102
RTVSPropertyOp42
 70
     1
102
RTVSPropertyOp43
 70
     1
102
RTVSPropertyOp44
 70
     1
102
RTVSPropertyOp45
 70
     1
102
RTVSPropertyOp46
 70
     1
102
RTVSPropertyOp47
 70
     1
102
RTVSPropertyOp48
 70
     1
102
RTVSPropertyOp49
 70
     1
102
RTVSPropertyOp50
 70
     1
102
RTVSPropertyOp51
 70
     0
102
RTVSPropertyOp52
 70
     0
102
RTVSPropertyOp53
 70
     1
102
RTVSPropertyOp54
 70
     1
102
RTVSPropertyOp55
 70
     1
102
RTVSPropertyOp56
 70
     1
102
RTVSPropertyOp57
 70
     1
102
RTVSPropertyOp58
 70
     1
102
RTVSPropertyOp59
 70
     1
102
RTVSPropertyOp60
 70
     1
102
RTVSPropertyOp61
 70
     1
102
RTVSPropertyOp62
 70
     1
  0
XRECORD
  5
4B1
102
{ACAD_REACTORS
330
4B0
102
}
330
4B0
100
AcDbXrecord
280
     1
102
RTVSPost2010Prop28
280
     0
102
RTVSPost2010PropOp28
 70
     1
102
RTVSPost2010Prop29
280
     1
102
RTVSPost2010PropOp29
 70
     1
102
RTVSPost2010Prop30
280
     1
102
RTVSPost2010PropOp30
 70
     1
102
RTVSPost2010Prop31
280
     0
102
RTVSPost2010PropOp31
 70
     1
102
RTVSPost2010Prop32
280
     0
102
RTVSPost2010PropOp32
 70
     1
102
RTVSPost2010Prop33
280
     0
102
RTVSPost2010PropOp33
 70
     1
102
RTVSPost2010Prop34
280
     0
102
RTVSPost2010PropOp34
 70
     1
102
RTVSPost2010Prop35
280
     0
102
RTVSPost2010PropOp35
 70
     1
102
RTVSPost2010Prop36
280
     0
102
RTVSPost2010PropOp36
 70
     1
102
RTVSPost2010Prop37
 90
       50
102
RTVSPost2010PropOp37
 70
     1
102
RTVSPost2010Prop38
140
0.0
102
RTVSPost2010PropOp38
 70
     1
102
RTVSPost2010Prop39
140
1.0
102
RTVSPost2010PropOp39
 70
     1
102
RTVSPost2010Prop40
 90
        0
102
RTVSPost2010PropOp40
 70
     1
102
RTVSPost2010Prop41ColorIndex
 90
       18
102
RTVSPost2010Prop41ColorRGB
 90
        0
102
RTVSPost2010PropOp41
 70
     1
102
RTVSPost2010Prop42
 90
       50
102
RTVSPost2010PropOp42
 70
     1
102
RTVSPost2010Prop43
 90
        3
102
RTVSPost2010PropOp43
 70
     1
102
RTVSPost2010Prop44ColorIndex
 90
        5
102
RTVSPost2010Prop44ColorRGB
 90
      255
102
RTVSPost2010PropOp44
 70
     1
102
RTVSPost2010Prop45
280
     0
102
RTVSPost2010PropOp45
 70
     1
102
RTVSPost2010Prop46
 90
       50
102
RTVSPost2010PropOp46
 70
     1
102
RTVSPost2010Prop47
 90
       50
102
RTVSPost2010PropOp47
 70
     1
102
RTVSPost2010Prop48
 90
       50
102
RTVSPost2010PropOp48
 70
     1
102
RTVSPost2010Prop49
280
     0
102
RTVSPost2010PropOp49
 70
     1
102
RTVSPost2010Prop50
 90
       50
102
RTVSPost2010PropOp50
 70
     1
102
RTVSPost2010Prop51ColorIndex
 90
      256
102
RTVSPost2010Prop51ColorRGB
 90
-16777216
102
RTVSPost2010PropOp51
 70
     0
102
RTVSPost2010Prop52
140
1.0
102
RTVSPost2010PropOp52
 70
     0
102
RTVSPost2010Prop53
 90
        2
102
RTVSPost2010PropOp53
 70
     1
102
RTVSPost2010Prop54
  1
strokes_ogs.tif
102
RTVSPost2010PropOp54
 70
     1
102
RTVSPost2010Prop55
280
     0
102
RTVSPost2010PropOp55
 70
     1
102
RTVSPost2010Prop56
140
1.0
102
RTVSPost2010PropOp56
 70
     1
102
RTVSPost2010Prop57
140
1.0
102
RTVSPost2010PropOp57
 70
     1
102
RTVSPropertyOp0
 70
     1
102
RTVSPropertyOp1
 70
     1
102
RTVSPropertyOp2
 70
     1
102
RTVSPropertyOp3
 70
     1
102
RTVSPropertyOp4
 70
     1
102
RTVSPropertyOp5
 70
     1
102
RTVSPropertyOp6
 70
     1
102
RTVSPropertyOp7
 70
     1
102
RTVSPropertyOp8
 70
     1
102
RTVSPropertyOp9
 70
     1
102
RTVSPropertyOp10
 70
     1
102
RTVSPropertyOp11
 70
     1
102
RTVSPropertyOp12
 70
     1
102
RTVSPropertyOp13
 70
     1
102
RTVSPropertyOp14
 70
     1
102
RTVSPropertyOp15
 70
     1
102
RTVSPropertyOp16
 70
     1
102
RTVSPropertyOp17
 70
     1
102
RTVSPropertyOp18
 70
     1
102
RTVSPropertyOp19
 70
     1
102
RTVSPropertyOp20
 70
     1
102
RTVSPropertyOp21
 70
     1
102
RTVSPropertyOp22
 70
     1
102
RTVSPropertyOp23
 70
     1
102
RTVSPropertyOp24
 70
     1
102
RTVSPropertyOp25
 70
     1
102
RTVSPropertyOp26
 70
     1
102
RTVSPropertyOp27
 70
     1
102
RTVSPropertyOp28
 70
     1
102
RTVSPropertyOp29
 70
     1
102
RTVSPropertyOp30
 70
     1
102
RTVSPropertyOp31
 70
     1
102
RTVSPropertyOp32
 70
     1
102
RTVSPropertyOp33
 70
     1
102
RTVSPropertyOp34
 70
     1
102
RTVSPropertyOp35
 70
     1
102
RTVSPropertyOp36
 70
     1
102
RTVSPropertyOp37
 70
     1
102
RTVSPropertyOp38
 70
     1
102
RTVSPropertyOp39
 70
     1
102
RTVSPropertyOp40
 70
     1
102
RTVSPropertyOp41
 70
     1
102
RTVSPropertyOp42
 70
     1
102
RTVSPropertyOp43
 70
     1
102
RTVSPropertyOp44
 70
     1
102
RTVSPropertyOp45
 70
     1
102
RTVSPropertyOp46
 70
     1
102
RTVSPropertyOp47
 70
     1
102
RTVSPropertyOp48
 70
     1
102
RTVSPropertyOp49
 70
     1
102
RTVSPropertyOp50
 70
     1
102
RTVSPropertyOp51
 70
     0
102
RTVSPropertyOp52
 70
     0
102
RTVSPropertyOp53
 70
     1
102
RTVSPropertyOp54
 70
     1
102
RTVSPropertyOp55
 70
     1
102
RTVSPropertyOp56
 70
     1
102
RTVSPropertyOp57
 70
     1
102
RTVSPropertyOp58
 70
     1
102
RTVSPropertyOp59
 70
     1
102
RTVSPropertyOp60
 70
     1
102
RTVSPropertyOp61
 70
     1
102
RTVSPropertyOp62
 70
     1
  0
XRECORD
  5
4AF
102
{ACAD_REACTORS
330
4AE
102
}
330
4AE
100
AcDbXrecord
280
     1
102
RTVSPost2010Prop28
280
     0
102
RTVSPost2010PropOp28
 70
     1
102
RTVSPost2010Prop29
280
     1
102
RTVSPost2010PropOp29
 70
     1
102
RTVSPost2010Prop30
280
     1
102
RTVSPost2010PropOp30
 70
     1
102
RTVSPost2010Prop31
280
     0
102
RTVSPost2010PropOp31
 70
     1
102
RTVSPost2010Prop32
280
     0
102
RTVSPost2010PropOp32
 70
     1
102
RTVSPost2010Prop33
280
     0
102
RTVSPost2010PropOp33
 70
     1
102
RTVSPost2010Prop34
280
     0
102
RTVSPost2010PropOp34
 70
     1
102
RTVSPost2010Prop35
280
     0
102
RTVSPost2010PropOp35
 70
     1
102
RTVSPost2010Prop36
280
     0
102
RTVSPost2010PropOp36
 70
     1
102
RTVSPost2010Prop37
 90
       50
102
RTVSPost2010PropOp37
 70
     1
102
RTVSPost2010Prop38
140
0.0
102
RTVSPost2010PropOp38
 70
     1
102
RTVSPost2010Prop39
140
1.0
102
RTVSPost2010PropOp39
 70
     1
102
RTVSPost2010Prop40
 90
        0
102
RTVSPost2010PropOp40
 70
     1
102
RTVSPost2010Prop41ColorIndex
 90
       18
102
RTVSPost2010Prop41ColorRGB
 90
        0
102
RTVSPost2010PropOp41
 70
     1
102
RTVSPost2010Prop42
 90
       50
102
RTVSPost2010PropOp42
 70
     1
102
RTVSPost2010Prop43
 90
        3
102
RTVSPost2010PropOp43
 70
     1
102
RTVSPost2010Prop44ColorIndex
 90
        5
102
RTVSPost2010Prop44ColorRGB
 90
      255
102
RTVSPost2010PropOp44
 70
     1
102
RTVSPost2010Prop45
280
     0
102
RTVSPost2010PropOp45
 70
     1
102
RTVSPost2010Prop46
 90
       50
102
RTVSPost2010PropOp46
 70
     1
102
RTVSPost2010Prop47
 90
       50
102
RTVSPost2010PropOp47
 70
     1
102
RTVSPost2010Prop48
 90
       50
102
RTVSPost2010PropOp48
 70
     1
102
RTVSPost2010Prop49
280
     0
102
RTVSPost2010PropOp49
 70
     1
102
RTVSPost2010Prop50
 90
       50
102
RTVSPost2010PropOp50
 70
     1
102
RTVSPost2010Prop51ColorIndex
 90
      256
102
RTVSPost2010Prop51ColorRGB
 90
-16777216
102
RTVSPost2010PropOp51
 70
     0
102
RTVSPost2010Prop52
140
1.0
102
RTVSPost2010PropOp52
 70
     0
102
RTVSPost2010Prop53
 90
        2
102
RTVSPost2010PropOp53
 70
     1
102
RTVSPost2010Prop54
  1
strokes_ogs.tif
102
RTVSPost2010PropOp54
 70
     1
102
RTVSPost2010Prop55
280
     0
102
RTVSPost2010PropOp55
 70
     1
102
RTVSPost2010Prop56
140
1.0
102
RTVSPost2010PropOp56
 70
     1
102
RTVSPost2010Prop57
140
1.0
102
RTVSPost2010PropOp57
 70
     1
102
RTVSPropertyOp0
 70
     1
102
RTVSPropertyOp1
 70
     1
102
RTVSPropertyOp2
 70
     1
102
RTVSPropertyOp3
 70
     1
102
RTVSPropertyOp4
 70
     1
102
RTVSPropertyOp5
 70
     1
102
RTVSPropertyOp6
 70
     1
102
RTVSPropertyOp7
 70
     1
102
RTVSPropertyOp8
 70
     1
102
RTVSPropertyOp9
 70
     1
102
RTVSPropertyOp10
 70
     1
102
RTVSPropertyOp11
 70
     1
102
RTVSPropertyOp12
 70
     1
102
RTVSPropertyOp13
 70
     1
102
RTVSPropertyOp14
 70
     1
102
RTVSPropertyOp15
 70
     1
102
RTVSPropertyOp16
 70
     1
102
RTVSPropertyOp17
 70
     1
102
RTVSPropertyOp18
 70
     1
102
RTVSPropertyOp19
 70
     1
102
RTVSPropertyOp20
 70
     1
102
RTVSPropertyOp21
 70
     1
102
RTVSPropertyOp22
 70
     1
102
RTVSPropertyOp23
 70
     1
102
RTVSPropertyOp24
 70
     1
102
RTVSPropertyOp25
 70
     1
102
RTVSPropertyOp26
 70
     1
102
RTVSPropertyOp27
 70
     1
102
RTVSPropertyOp28
 70
     1
102
RTVSPropertyOp29
 70
     1
102
RTVSPropertyOp30
 70
     1
102
RTVSPropertyOp31
 70
     1
102
RTVSPropertyOp32
 70
     1
102
RTVSPropertyOp33
 70
     1
102
RTVSPropertyOp34
 70
     1
102
RTVSPropertyOp35
 70
     1
102
RTVSPropertyOp36
 70
     1
102
RTVSPropertyOp37
 70
     1
102
RTVSPropertyOp38
 70
     1
102
RTVSPropertyOp39
 70
     1
102
RTVSPropertyOp40
 70
     1
102
RTVSPropertyOp41
 70
     1
102
RTVSPropertyOp42
 70
     1
102
RTVSPropertyOp43
 70
     1
102
RTVSPropertyOp44
 70
     1
102
RTVSPropertyOp45
 70
     1
102
RTVSPropertyOp46
 70
     1
102
RTVSPropertyOp47
 70
     1
102
RTVSPropertyOp48
 70
     1
102
RTVSPropertyOp49
 70
     1
102
RTVSPropertyOp50
 70
     1
102
RTVSPropertyOp51
 70
     0
102
RTVSPropertyOp52
 70
     0
102
RTVSPropertyOp53
 70
     1
102
RTVSPropertyOp54
 70
     1
102
RTVSPropertyOp55
 70
     1
102
RTVSPropertyOp56
 70
     1
102
RTVSPropertyOp57
 70
     1
102
RTVSPropertyOp58
 70
     1
102
RTVSPropertyOp59
 70
     1
102
RTVSPropertyOp60
 70
     1
102
RTVSPropertyOp61
 70
     1
102
RTVSPropertyOp62
 70
     1
  0
XRECORD
  5
4A9
102
{ACAD_REACTORS
330
4A8
102
}
330
4A8
100
AcDbXrecord
280
     1
102
RTVSPost2010Prop28
280
     0
102
RTVSPost2010PropOp28
 70
     1
102
RTVSPost2010Prop29
280
     1
102
RTVSPost2010PropOp29
 70
     1
102
RTVSPost2010Prop30
280
     1
102
RTVSPost2010PropOp30
 70
     1
102
RTVSPost2010Prop31
280
     0
102
RTVSPost2010PropOp31
 70
     1
102
RTVSPost2010Prop32
280
     0
102
RTVSPost2010PropOp32
 70
     1
102
RTVSPost2010Prop33
280
     0
102
RTVSPost2010PropOp33
 70
     1
102
RTVSPost2010Prop34
280
     0
102
RTVSPost2010PropOp34
 70
     1
102
RTVSPost2010Prop35
280
     0
102
RTVSPost2010PropOp35
 70
     1
102
RTVSPost2010Prop36
280
     0
102
RTVSPost2010PropOp36
 70
     1
102
RTVSPost2010Prop37
 90
       50
102
RTVSPost2010PropOp37
 70
     1
102
RTVSPost2010Prop38
140
0.0
102
RTVSPost2010PropOp38
 70
     1
102
RTVSPost2010Prop39
140
1.0
102
RTVSPost2010PropOp39
 70
     1
102
RTVSPost2010Prop40
 90
        0
102
RTVSPost2010PropOp40
 70
     1
102
RTVSPost2010Prop41ColorIndex
 90
       18
102
RTVSPost2010Prop41ColorRGB
 90
        0
102
RTVSPost2010PropOp41
 70
     1
102
RTVSPost2010Prop42
 90
       50
102
RTVSPost2010PropOp42
 70
     1
102
RTVSPost2010Prop43
 90
        3
102
RTVSPost2010PropOp43
 70
     1
102
RTVSPost2010Prop44ColorIndex
 90
        5
102
RTVSPost2010Prop44ColorRGB
 90
      255
102
RTVSPost2010PropOp44
 70
     1
102
RTVSPost2010Prop45
280
     0
102
RTVSPost2010PropOp45
 70
     1
102
RTVSPost2010Prop46
 90
       50
102
RTVSPost2010PropOp46
 70
     1
102
RTVSPost2010Prop47
 90
       50
102
RTVSPost2010PropOp47
 70
     1
102
RTVSPost2010Prop48
 90
       50
102
RTVSPost2010PropOp48
 70
     1
102
RTVSPost2010Prop49
280
     0
102
RTVSPost2010PropOp49
 70
     1
102
RTVSPost2010Prop50
 90
       50
102
RTVSPost2010PropOp50
 70
     1
102
RTVSPost2010Prop51ColorIndex
 90
      256
102
RTVSPost2010Prop51ColorRGB
 90
-16777216
102
RTVSPost2010PropOp51
 70
     0
102
RTVSPost2010Prop52
140
1.0
102
RTVSPost2010PropOp52
 70
     0
102
RTVSPost2010Prop53
 90
        2
102
RTVSPost2010PropOp53
 70
     1
102
RTVSPost2010Prop54
  1
strokes_ogs.tif
102
RTVSPost2010PropOp54
 70
     1
102
RTVSPost2010Prop55
280
     0
102
RTVSPost2010PropOp55
 70
     1
102
RTVSPost2010Prop56
140
1.0
102
RTVSPost2010PropOp56
 70
     1
102
RTVSPost2010Prop57
140
1.0
102
RTVSPost2010PropOp57
 70
     1
102
RTVSPropertyOp0
 70
     1
102
RTVSPropertyOp1
 70
     1
102
RTVSPropertyOp2
 70
     1
102
RTVSPropertyOp3
 70
     1
102
RTVSPropertyOp4
 70
     1
102
RTVSPropertyOp5
 70
     1
102
RTVSPropertyOp6
 70
     1
102
RTVSPropertyOp7
 70
     1
102
RTVSPropertyOp8
 70
     1
102
RTVSPropertyOp9
 70
     1
102
RTVSPropertyOp10
 70
     1
102
RTVSPropertyOp11
 70
     1
102
RTVSPropertyOp12
 70
     1
102
RTVSPropertyOp13
 70
     1
102
RTVSPropertyOp14
 70
     1
102
RTVSPropertyOp15
 70
     1
102
RTVSPropertyOp16
 70
     1
102
RTVSPropertyOp17
 70
     1
102
RTVSPropertyOp18
 70
     1
102
RTVSPropertyOp19
 70
     1
102
RTVSPropertyOp20
 70
     1
102
RTVSPropertyOp21
 70
     1
102
RTVSPropertyOp22
 70
     1
102
RTVSPropertyOp23
 70
     1
102
RTVSPropertyOp24
 70
     1
102
RTVSPropertyOp25
 70
     1
102
RTVSPropertyOp26
 70
     1
102
RTVSPropertyOp27
 70
     1
102
RTVSPropertyOp28
 70
     1
102
RTVSPropertyOp29
 70
     1
102
RTVSPropertyOp30
 70
     1
102
RTVSPropertyOp31
 70
     1
102
RTVSPropertyOp32
 70
     1
102
RTVSPropertyOp33
 70
     1
102
RTVSPropertyOp34
 70
     1
102
RTVSPropertyOp35
 70
     1
102
RTVSPropertyOp36
 70
     1
102
RTVSPropertyOp37
 70
     1
102
RTVSPropertyOp38
 70
     1
102
RTVSPropertyOp39
 70
     1
102
RTVSPropertyOp40
 70
     1
102
RTVSPropertyOp41
 70
     1
102
RTVSPropertyOp42
 70
     1
102
RTVSPropertyOp43
 70
     1
102
RTVSPropertyOp44
 70
     1
102
RTVSPropertyOp45
 70
     1
102
RTVSPropertyOp46
 70
     1
102
RTVSPropertyOp47
 70
     1
102
RTVSPropertyOp48
 70
     1
102
RTVSPropertyOp49
 70
     1
102
RTVSPropertyOp50
 70
     1
102
RTVSPropertyOp51
 70
     0
102
RTVSPropertyOp52
 70
     0
102
RTVSPropertyOp53
 70
     1
102
RTVSPropertyOp54
 70
     1
102
RTVSPropertyOp55
 70
     1
102
RTVSPropertyOp56
 70
     1
102
RTVSPropertyOp57
 70
     1
102
RTVSPropertyOp58
 70
     1
102
RTVSPropertyOp59
 70
     1
102
RTVSPropertyOp60
 70
     1
102
RTVSPropertyOp61
 70
     1
102
RTVSPropertyOp62
 70
     1
  0
XRECORD
  5
4AB
102
{ACAD_REACTORS
330
4AA
102
}
330
4AA
100
AcDbXrecord
280
     1
102
RTVSPost2010Prop28
280
     0
102
RTVSPost2010PropOp28
 70
     1
102
RTVSPost2010Prop29
280
     1
102
RTVSPost2010PropOp29
 70
     1
102
RTVSPost2010Prop30
280
     1
102
RTVSPost2010PropOp30
 70
     1
102
RTVSPost2010Prop31
280
     0
102
RTVSPost2010PropOp31
 70
     1
102
RTVSPost2010Prop32
280
     0
102
RTVSPost2010PropOp32
 70
     1
102
RTVSPost2010Prop33
280
     0
102
RTVSPost2010PropOp33
 70
     1
102
RTVSPost2010Prop34
280
     0
102
RTVSPost2010PropOp34
 70
     1
102
RTVSPost2010Prop35
280
     0
102
RTVSPost2010PropOp35
 70
     1
102
RTVSPost2010Prop36
280
     0
102
RTVSPost2010PropOp36
 70
     1
102
RTVSPost2010Prop37
 90
       50
102
RTVSPost2010PropOp37
 70
     1
102
RTVSPost2010Prop38
140
0.0
102
RTVSPost2010PropOp38
 70
     1
102
RTVSPost2010Prop39
140
1.0
102
RTVSPost2010PropOp39
 70
     1
102
RTVSPost2010Prop40
 90
        0
102
RTVSPost2010PropOp40
 70
     1
102
RTVSPost2010Prop41ColorIndex
 90
       18
102
RTVSPost2010Prop41ColorRGB
 90
        0
102
RTVSPost2010PropOp41
 70
     1
102
RTVSPost2010Prop42
 90
       50
102
RTVSPost2010PropOp42
 70
     1
102
RTVSPost2010Prop43
 90
        3
102
RTVSPost2010PropOp43
 70
     1
102
RTVSPost2010Prop44ColorIndex
 90
        5
102
RTVSPost2010Prop44ColorRGB
 90
      255
102
RTVSPost2010PropOp44
 70
     1
102
RTVSPost2010Prop45
280
     0
102
RTVSPost2010PropOp45
 70
     1
102
RTVSPost2010Prop46
 90
       50
102
RTVSPost2010PropOp46
 70
     1
102
RTVSPost2010Prop47
 90
       50
102
RTVSPost2010PropOp47
 70
     1
102
RTVSPost2010Prop48
 90
       50
102
RTVSPost2010PropOp48
 70
     1
102
RTVSPost2010Prop49
280
     0
102
RTVSPost2010PropOp49
 70
     1
102
RTVSPost2010Prop50
 90
       50
102
RTVSPost2010PropOp50
 70
     1
102
RTVSPost2010Prop51ColorIndex
 90
      256
102
RTVSPost2010Prop51ColorRGB
 90
-16777216
102
RTVSPost2010PropOp51
 70
     0
102
RTVSPost2010Prop52
140
1.0
102
RTVSPost2010PropOp52
 70
     0
102
RTVSPost2010Prop53
 90
        2
102
RTVSPost2010PropOp53
 70
     1
102
RTVSPost2010Prop54
  1
strokes_ogs.tif
102
RTVSPost2010PropOp54
 70
     1
102
RTVSPost2010Prop55
280
     0
102
RTVSPost2010PropOp55
 70
     1
102
RTVSPost2010Prop56
140
1.0
102
RTVSPost2010PropOp56
 70
     1
102
RTVSPost2010Prop57
140
1.0
102
RTVSPost2010PropOp57
 70
     1
102
RTVSPropertyOp0
 70
     1
102
RTVSPropertyOp1
 70
     1
102
RTVSPropertyOp2
 70
     1
102
RTVSPropertyOp3
 70
     1
102
RTVSPropertyOp4
 70
     1
102
RTVSPropertyOp5
 70
     1
102
RTVSPropertyOp6
 70
     1
102
RTVSPropertyOp7
 70
     1
102
RTVSPropertyOp8
 70
     1
102
RTVSPropertyOp9
 70
     1
102
RTVSPropertyOp10
 70
     1
102
RTVSPropertyOp11
 70
     1
102
RTVSPropertyOp12
 70
     1
102
RTVSPropertyOp13
 70
     1
102
RTVSPropertyOp14
 70
     1
102
RTVSPropertyOp15
 70
     1
102
RTVSPropertyOp16
 70
     1
102
RTVSPropertyOp17
 70
     1
102
RTVSPropertyOp18
 70
     1
102
RTVSPropertyOp19
 70
     1
102
RTVSPropertyOp20
 70
     1
102
RTVSPropertyOp21
 70
     1
102
RTVSPropertyOp22
 70
     1
102
RTVSPropertyOp23
 70
     1
102
RTVSPropertyOp24
 70
     1
102
RTVSPropertyOp25
 70
     1
102
RTVSPropertyOp26
 70
     1
102
RTVSPropertyOp27
 70
     1
102
RTVSPropertyOp28
 70
     1
102
RTVSPropertyOp29
 70
     1
102
RTVSPropertyOp30
 70
     1
102
RTVSPropertyOp31
 70
     1
102
RTVSPropertyOp32
 70
     1
102
RTVSPropertyOp33
 70
     1
102
RTVSPropertyOp34
 70
     1
102
RTVSPropertyOp35
 70
     1
102
RTVSPropertyOp36
 70
     1
102
RTVSPropertyOp37
 70
     1
102
RTVSPropertyOp38
 70
     1
102
RTVSPropertyOp39
 70
     1
102
RTVSPropertyOp40
 70
     1
102
RTVSPropertyOp41
 70
     1
102
RTVSPropertyOp42
 70
     1
102
RTVSPropertyOp43
 70
     1
102
RTVSPropertyOp44
 70
     1
102
RTVSPropertyOp45
 70
     1
102
RTVSPropertyOp46
 70
     1
102
RTVSPropertyOp47
 70
     1
102
RTVSPropertyOp48
 70
     1
102
RTVSPropertyOp49
 70
     1
102
RTVSPropertyOp50
 70
     1
102
RTVSPropertyOp51
 70
     0
102
RTVSPropertyOp52
 70
     0
102
RTVSPropertyOp53
 70
     1
102
RTVSPropertyOp54
 70
     1
102
RTVSPropertyOp55
 70
     1
102
RTVSPropertyOp56
 70
     1
102
RTVSPropertyOp57
 70
     1
102
RTVSPropertyOp58
 70
     1
102
RTVSPropertyOp59
 70
     1
102
RTVSPropertyOp60
 70
     1
102
RTVSPropertyOp61
 70
     1
102
RTVSPropertyOp62
 70
     1
  0
XRECORD
  5
4A1
102
{ACAD_REACTORS
330
4A0
102
}
330
4A0
100
AcDbXrecord
280
     1
102
RTVSPost2010Prop28
280
     0
102
RTVSPost2010PropOp28
 70
     1
102
RTVSPost2010Prop29
280
     1
102
RTVSPost2010PropOp29
 70
     1
102
RTVSPost2010Prop30
280
     1
102
RTVSPost2010PropOp30
 70
     1
102
RTVSPost2010Prop31
280
     0
102
RTVSPost2010PropOp31
 70
     1
102
RTVSPost2010Prop32
280
     0
102
RTVSPost2010PropOp32
 70
     1
102
RTVSPost2010Prop33
280
     0
102
RTVSPost2010PropOp33
 70
     1
102
RTVSPost2010Prop34
280
     0
102
RTVSPost2010PropOp34
 70
     1
102
RTVSPost2010Prop35
280
     0
102
RTVSPost2010PropOp35
 70
     1
102
RTVSPost2010Prop36
280
     0
102
RTVSPost2010PropOp36
 70
     1
102
RTVSPost2010Prop37
 90
       50
102
RTVSPost2010PropOp37
 70
     1
102
RTVSPost2010Prop38
140
0.0
102
RTVSPost2010PropOp38
 70
     1
102
RTVSPost2010Prop39
140
1.0
102
RTVSPost2010PropOp39
 70
     1
102
RTVSPost2010Prop40
 90
        0
102
RTVSPost2010PropOp40
 70
     1
102
RTVSPost2010Prop41ColorIndex
 90
       18
102
RTVSPost2010Prop41ColorRGB
 90
        0
102
RTVSPost2010PropOp41
 70
     1
102
RTVSPost2010Prop42
 90
       50
102
RTVSPost2010PropOp42
 70
     1
102
RTVSPost2010Prop43
 90
        3
102
RTVSPost2010PropOp43
 70
     1
102
RTVSPost2010Prop44ColorIndex
 90
        5
102
RTVSPost2010Prop44ColorRGB
 90
      255
102
RTVSPost2010PropOp44
 70
     1
102
RTVSPost2010Prop45
280
     0
102
RTVSPost2010PropOp45
 70
     1
102
RTVSPost2010Prop46
 90
       50
102
RTVSPost2010PropOp46
 70
     1
102
RTVSPost2010Prop47
 90
       50
102
RTVSPost2010PropOp47
 70
     1
102
RTVSPost2010Prop48
 90
       50
102
RTVSPost2010PropOp48
 70
     1
102
RTVSPost2010Prop49
280
     0
102
RTVSPost2010PropOp49
 70
     1
102
RTVSPost2010Prop50
 90
       50
102
RTVSPost2010PropOp50
 70
     1
102
RTVSPost2010Prop51ColorIndex
 90
      256
102
RTVSPost2010Prop51ColorRGB
 90
-16777216
102
RTVSPost2010PropOp51
 70
     0
102
RTVSPost2010Prop52
140
1.0
102
RTVSPost2010PropOp52
 70
     0
102
RTVSPost2010Prop53
 90
        2
102
RTVSPost2010PropOp53
 70
     1
102
RTVSPost2010Prop54
  1
strokes_ogs.tif
102
RTVSPost2010PropOp54
 70
     1
102
RTVSPost2010Prop55
280
     0
102
RTVSPost2010PropOp55
 70
     1
102
RTVSPost2010Prop56
140
1.0
102
RTVSPost2010PropOp56
 70
     1
102
RTVSPost2010Prop57
140
1.0
102
RTVSPost2010PropOp57
 70
     1
102
RTVSPropertyOp0
 70
     1
102
RTVSPropertyOp1
 70
     1
102
RTVSPropertyOp2
 70
     1
102
RTVSPropertyOp3
 70
     1
102
RTVSPropertyOp4
 70
     1
102
RTVSPropertyOp5
 70
     1
102
RTVSPropertyOp6
 70
     1
102
RTVSPropertyOp7
 70
     1
102
RTVSPropertyOp8
 70
     1
102
RTVSPropertyOp9
 70
     1
102
RTVSPropertyOp10
 70
     1
102
RTVSPropertyOp11
 70
     1
102
RTVSPropertyOp12
 70
     1
102
RTVSPropertyOp13
 70
     1
102
RTVSPropertyOp14
 70
     1
102
RTVSPropertyOp15
 70
     1
102
RTVSPropertyOp16
 70
     1
102
RTVSPropertyOp17
 70
     1
102
RTVSPropertyOp18
 70
     1
102
RTVSPropertyOp19
 70
     1
102
RTVSPropertyOp20
 70
     1
102
RTVSPropertyOp21
 70
     1
102
RTVSPropertyOp22
 70
     1
102
RTVSPropertyOp23
 70
     1
102
RTVSPropertyOp24
 70
     1
102
RTVSPropertyOp25
 70
     1
102
RTVSPropertyOp26
 70
     1
102
RTVSPropertyOp27
 70
     1
102
RTVSPropertyOp28
 70
     1
102
RTVSPropertyOp29
 70
     1
102
RTVSPropertyOp30
 70
     1
102
RTVSPropertyOp31
 70
     1
102
RTVSPropertyOp32
 70
     1
102
RTVSPropertyOp33
 70
     1
102
RTVSPropertyOp34
 70
     1
102
RTVSPropertyOp35
 70
     1
102
RTVSPropertyOp36
 70
     1
102
RTVSPropertyOp37
 70
     1
102
RTVSPropertyOp38
 70
     1
102
RTVSPropertyOp39
 70
     1
102
RTVSPropertyOp40
 70
     1
102
RTVSPropertyOp41
 70
     1
102
RTVSPropertyOp42
 70
     1
102
RTVSPropertyOp43
 70
     1
102
RTVSPropertyOp44
 70
     1
102
RTVSPropertyOp45
 70
     1
102
RTVSPropertyOp46
 70
     1
102
RTVSPropertyOp47
 70
     1
102
RTVSPropertyOp48
 70
     1
102
RTVSPropertyOp49
 70
     1
102
RTVSPropertyOp50
 70
     1
102
RTVSPropertyOp51
 70
     0
102
RTVSPropertyOp52
 70
     0
102
RTVSPropertyOp53
 70
     1
102
RTVSPropertyOp54
 70
     1
102
RTVSPropertyOp55
 70
     1
102
RTVSPropertyOp56
 70
     1
102
RTVSPropertyOp57
 70
     1
102
RTVSPropertyOp58
 70
     1
102
RTVSPropertyOp59
 70
     1
102
RTVSPropertyOp60
 70
     1
102
RTVSPropertyOp61
 70
     1
102
RTVSPropertyOp62
 70
     1
  0
XRECORD
  5
495
102
{ACAD_REACTORS
330
494
102
}
330
494
100
AcDbXrecord
280
     1
102
RTVSPost2010Prop28
280
     0
102
RTVSPost2010PropOp28
 70
     1
102
RTVSPost2010Prop29
280
     1
102
RTVSPost2010PropOp29
 70
     1
102
RTVSPost2010Prop30
280
     1
102
RTVSPost2010PropOp30
 70
     1
102
RTVSPost2010Prop31
280
     0
102
RTVSPost2010PropOp31
 70
     1
102
RTVSPost2010Prop32
280
     0
102
RTVSPost2010PropOp32
 70
     1
102
RTVSPost2010Prop33
280
     0
102
RTVSPost2010PropOp33
 70
     1
102
RTVSPost2010Prop34
280
     0
102
RTVSPost2010PropOp34
 70
     1
102
RTVSPost2010Prop35
280
     0
102
RTVSPost2010PropOp35
 70
     1
102
RTVSPost2010Prop36
280
     0
102
RTVSPost2010PropOp36
 70
     1
102
RTVSPost2010Prop37
 90
       50
102
RTVSPost2010PropOp37
 70
     1
102
RTVSPost2010Prop38
140
0.0
102
RTVSPost2010PropOp38
 70
     1
102
RTVSPost2010Prop39
140
1.0
102
RTVSPost2010PropOp39
 70
     1
102
RTVSPost2010Prop40
 90
        0
102
RTVSPost2010PropOp40
 70
     1
102
RTVSPost2010Prop41ColorIndex
 90
       18
102
RTVSPost2010Prop41ColorRGB
 90
        0
102
RTVSPost2010PropOp41
 70
     1
102
RTVSPost2010Prop42
 90
       50
102
RTVSPost2010PropOp42
 70
     1
102
RTVSPost2010Prop43
 90
        3
102
RTVSPost2010PropOp43
 70
     1
102
RTVSPost2010Prop44ColorIndex
 90
        5
102
RTVSPost2010Prop44ColorRGB
 90
      255
102
RTVSPost2010PropOp44
 70
     1
102
RTVSPost2010Prop45
280
     0
102
RTVSPost2010PropOp45
 70
     1
102
RTVSPost2010Prop46
 90
       50
102
RTVSPost2010PropOp46
 70
     1
102
RTVSPost2010Prop47
 90
       50
102
RTVSPost2010PropOp47
 70
     1
102
RTVSPost2010Prop48
 90
       50
102
RTVSPost2010PropOp48
 70
     1
102
RTVSPost2010Prop49
280
     0
102
RTVSPost2010PropOp49
 70
     1
102
RTVSPost2010Prop50
 90
       50
102
RTVSPost2010PropOp50
 70
     1
102
RTVSPost2010Prop51ColorIndex
 90
      256
102
RTVSPost2010Prop51ColorRGB
 90
-16777216
102
RTVSPost2010PropOp51
 70
     0
102
RTVSPost2010Prop52
140
1.0
102
RTVSPost2010PropOp52
 70
     0
102
RTVSPost2010Prop53
 90
        2
102
RTVSPost2010PropOp53
 70
     1
102
RTVSPost2010Prop54
  1
strokes_ogs.tif
102
RTVSPost2010PropOp54
 70
     1
102
RTVSPost2010Prop55
280
     0
102
RTVSPost2010PropOp55
 70
     1
102
RTVSPost2010Prop56
140
1.0
102
RTVSPost2010PropOp56
 70
     1
102
RTVSPost2010Prop57
140
1.0
102
RTVSPost2010PropOp57
 70
     1
102
RTVSPropertyOp0
 70
     1
102
RTVSPropertyOp1
 70
     1
102
RTVSPropertyOp2
 70
     1
102
RTVSPropertyOp3
 70
     1
102
RTVSPropertyOp4
 70
     1
102
RTVSPropertyOp5
 70
     1
102
RTVSPropertyOp6
 70
     1
102
RTVSPropertyOp7
 70
     1
102
RTVSPropertyOp8
 70
     1
102
RTVSPropertyOp9
 70
     1
102
RTVSPropertyOp10
 70
     1
102
RTVSPropertyOp11
 70
     1
102
RTVSPropertyOp12
 70
     1
102
RTVSPropertyOp13
 70
     1
102
RTVSPropertyOp14
 70
     1
102
RTVSPropertyOp15
 70
     1
102
RTVSPropertyOp16
 70
     1
102
RTVSPropertyOp17
 70
     1
102
RTVSPropertyOp18
 70
     1
102
RTVSPropertyOp19
 70
     1
102
RTVSPropertyOp20
 70
     1
102
RTVSPropertyOp21
 70
     1
102
RTVSPropertyOp22
 70
     1
102
RTVSPropertyOp23
 70
     1
102
RTVSPropertyOp24
 70
     1
102
RTVSPropertyOp25
 70
     1
102
RTVSPropertyOp26
 70
     1
102
RTVSPropertyOp27
 70
     1
102
RTVSPropertyOp28
 70
     1
102
RTVSPropertyOp29
 70
     1
102
RTVSPropertyOp30
 70
     1
102
RTVSPropertyOp31
 70
     1
102
RTVSPropertyOp32
 70
     1
102
RTVSPropertyOp33
 70
     1
102
RTVSPropertyOp34
 70
     1
102
RTVSPropertyOp35
 70
     1
102
RTVSPropertyOp36
 70
     1
102
RTVSPropertyOp37
 70
     1
102
RTVSPropertyOp38
 70
     1
102
RTVSPropertyOp39
 70
     1
102
RTVSPropertyOp40
 70
     1
102
RTVSPropertyOp41
 70
     1
102
RTVSPropertyOp42
 70
     1
102
RTVSPropertyOp43
 70
     1
102
RTVSPropertyOp44
 70
     1
102
RTVSPropertyOp45
 70
     1
102
RTVSPropertyOp46
 70
     1
102
RTVSPropertyOp47
 70
     1
102
RTVSPropertyOp48
 70
     1
102
RTVSPropertyOp49
 70
     1
102
RTVSPropertyOp50
 70
     1
102
RTVSPropertyOp51
 70
     0
102
RTVSPropertyOp52
 70
     0
102
RTVSPropertyOp53
 70
     1
102
RTVSPropertyOp54
 70
     1
102
RTVSPropertyOp55
 70
     1
102
RTVSPropertyOp56
 70
     1
102
RTVSPropertyOp57
 70
     1
102
RTVSPropertyOp58
 70
     1
102
RTVSPropertyOp59
 70
     1
102
RTVSPropertyOp60
 70
     1
102
RTVSPropertyOp61
 70
     1
102
RTVSPropertyOp62
 70
     1
  0
XRECORD
  5
4AD
102
{ACAD_REACTORS
330
4AC
102
}
330
4AC
100
AcDbXrecord
280
     1
102
RTVSPost2010Prop28
280
     0
102
RTVSPost2010PropOp28
 70
     1
102
RTVSPost2010Prop29
280
     1
102
RTVSPost2010PropOp29
 70
     1
102
RTVSPost2010Prop30
280
     1
102
RTVSPost2010PropOp30
 70
     1
102
RTVSPost2010Prop31
280
     0
102
RTVSPost2010PropOp31
 70
     1
102
RTVSPost2010Prop32
280
     0
102
RTVSPost2010PropOp32
 70
     1
102
RTVSPost2010Prop33
280
     0
102
RTVSPost2010PropOp33
 70
     1
102
RTVSPost2010Prop34
280
     0
102
RTVSPost2010PropOp34
 70
     1
102
RTVSPost2010Prop35
280
     0
102
RTVSPost2010PropOp35
 70
     1
102
RTVSPost2010Prop36
280
     0
102
RTVSPost2010PropOp36
 70
     1
102
RTVSPost2010Prop37
 90
       50
102
RTVSPost2010PropOp37
 70
     1
102
RTVSPost2010Prop38
140
0.0
102
RTVSPost2010PropOp38
 70
     1
102
RTVSPost2010Prop39
140
1.0
102
RTVSPost2010PropOp39
 70
     1
102
RTVSPost2010Prop40
 90
        0
102
RTVSPost2010PropOp40
 70
     1
102
RTVSPost2010Prop41ColorIndex
 90
       18
102
RTVSPost2010Prop41ColorRGB
 90
        0
102
RTVSPost2010PropOp41
 70
     1
102
RTVSPost2010Prop42
 90
       50
102
RTVSPost2010PropOp42
 70
     1
102
RTVSPost2010Prop43
 90
        3
102
RTVSPost2010PropOp43
 70
     1
102
RTVSPost2010Prop44ColorIndex
 90
        5
102
RTVSPost2010Prop44ColorRGB
 90
      255
102
RTVSPost2010PropOp44
 70
     1
102
RTVSPost2010Prop45
280
     0
102
RTVSPost2010PropOp45
 70
     1
102
RTVSPost2010Prop46
 90
       50
102
RTVSPost2010PropOp46
 70
     1
102
RTVSPost2010Prop47
 90
       50
102
RTVSPost2010PropOp47
 70
     1
102
RTVSPost2010Prop48
 90
       50
102
RTVSPost2010PropOp48
 70
     1
102
RTVSPost2010Prop49
280
     0
102
RTVSPost2010PropOp49
 70
     1
102
RTVSPost2010Prop50
 90
       50
102
RTVSPost2010PropOp50
 70
     1
102
RTVSPost2010Prop51ColorIndex
 90
      256
102
RTVSPost2010Prop51ColorRGB
 90
-16777216
102
RTVSPost2010PropOp51
 70
     0
102
RTVSPost2010Prop52
140
1.0
102
RTVSPost2010PropOp52
 70
     0
102
RTVSPost2010Prop53
 90
        2
102
RTVSPost2010PropOp53
 70
     1
102
RTVSPost2010Prop54
  1
strokes_ogs.tif
102
RTVSPost2010PropOp54
 70
     1
102
RTVSPost2010Prop55
280
     0
102
RTVSPost2010PropOp55
 70
     1
102
RTVSPost2010Prop56
140
1.0
102
RTVSPost2010PropOp56
 70
     1
102
RTVSPost2010Prop57
140
1.0
102
RTVSPost2010PropOp57
 70
     1
102
RTVSPropertyOp0
 70
     1
102
RTVSPropertyOp1
 70
     1
102
RTVSPropertyOp2
 70
     1
102
RTVSPropertyOp3
 70
     1
102
RTVSPropertyOp4
 70
     1
102
RTVSPropertyOp5
 70
     1
102
RTVSPropertyOp6
 70
     1
102
RTVSPropertyOp7
 70
     1
102
RTVSPropertyOp8
 70
     1
102
RTVSPropertyOp9
 70
     1
102
RTVSPropertyOp10
 70
     1
102
RTVSPropertyOp11
 70
     1
102
RTVSPropertyOp12
 70
     1
102
RTVSPropertyOp13
 70
     1
102
RTVSPropertyOp14
 70
     1
102
RTVSPropertyOp15
 70
     1
102
RTVSPropertyOp16
 70
     1
102
RTVSPropertyOp17
 70
     1
102
RTVSPropertyOp18
 70
     1
102
RTVSPropertyOp19
 70
     1
102
RTVSPropertyOp20
 70
     1
102
RTVSPropertyOp21
 70
     1
102
RTVSPropertyOp22
 70
     1
102
RTVSPropertyOp23
 70
     1
102
RTVSPropertyOp24
 70
     1
102
RTVSPropertyOp25
 70
     1
102
RTVSPropertyOp26
 70
     1
102
RTVSPropertyOp27
 70
     1
102
RTVSPropertyOp28
 70
     1
102
RTVSPropertyOp29
 70
     1
102
RTVSPropertyOp30
 70
     1
102
RTVSPropertyOp31
 70
     1
102
RTVSPropertyOp32
 70
     1
102
RTVSPropertyOp33
 70
     1
102
RTVSPropertyOp34
 70
     1
102
RTVSPropertyOp35
 70
     1
102
RTVSPropertyOp36
 70
     1
102
RTVSPropertyOp37
 70
     1
102
RTVSPropertyOp38
 70
     1
102
RTVSPropertyOp39
 70
     1
102
RTVSPropertyOp40
 70
     1
102
RTVSPropertyOp41
 70
     1
102
RTVSPropertyOp42
 70
     1
102
RTVSPropertyOp43
 70
     1
102
RTVSPropertyOp44
 70
     1
102
RTVSPropertyOp45
 70
     1
102
RTVSPropertyOp46
 70
     1
102
RTVSPropertyOp47
 70
     1
102
RTVSPropertyOp48
 70
     1
102
RTVSPropertyOp49
 70
     1
102
RTVSPropertyOp50
 70
     1
102
RTVSPropertyOp51
 70
     0
102
RTVSPropertyOp52
 70
     0
102
RTVSPropertyOp53
 70
     1
102
RTVSPropertyOp54
 70
     1
102
RTVSPropertyOp55
 70
     1
102
RTVSPropertyOp56
 70
     1
102
RTVSPropertyOp57
 70
     1
102
RTVSPropertyOp58
 70
     1
102
RTVSPropertyOp59
 70
     1
102
RTVSPropertyOp60
 70
     1
102
RTVSPropertyOp61
 70
     1
102
RTVSPropertyOp62
 70
     1
  0
ENDSEC
  0
EOF
