  0
SECTION
  2
HEADER
  9
$ACADVER
  1
AC1014
  9
$ACADMAINTVER
 70
     0
  9
$DWGCODEPAGE
  3
DOS932
  9
$INSBASE
 10
0.0
 20
0.0
 30
0.0
  9
$EXTMIN
 10
-45.849998
 20
-26.6
 30
0.0
  9
$EXTMAX
 10
476.650002
 20
271.25
 30
0.0
  9
$LIMMIN
 10
0.0
 20
0.0
  9
$LIMMAX
 10
420.0
 20
297.0
  9
$ORTHOMODE
 70
     0
  9
$REGENMODE
 70
     1
  9
$FILLMODE
 70
     1
  9
$QTEXTMODE
 70
     0
  9
$MIRRTEXT
 70
     1
  9
$DRAGMODE
 70
     2
  9
$LTSCALE
 40
1.0
  9
$OSMODE
 70
     0
  9
$ATTMODE
 70
     1
  9
$TEXTSIZE
 40
0.2
  9
$TRACEWID
 40
0.05
  9
$TEXTSTYLE
  7
STANDARD
  9
$CLAYER
  8
LAY-3
  9
$CELTYPE
  6
CONTINUOUS
  9
$CECOLOR
 62
   256
  9
$CELTSCALE
 40
1.0
  9
$DELOBJ
 70
     1
  9
$DISPSILH
 70
     0
  9
$DIMSCALE
 40
1.0
  9
$DIMASZ
 40
0.18
  9
$DIMEXO
 40
0.0625
  9
$DIMDLI
 40
0.38
  9
$DIMRND
 40
0.0
  9
$DIMDLE
 40
0.0
  9
$DIMEXE
 40
0.18
  9
$DIMTP
 40
0.0
  9
$DIMTM
 40
0.0
  9
$DIMTXT
 40
0.18
  9
$DIMCEN
 40
0.09
  9
$DIMTSZ
 40
0.0
  9
$DIMTOL
 70
     0
  9
$DIMLIM
 70
     0
  9
$DIMTIH
 70
     1
  9
$DIMTOH
 70
     1
  9
$DIMSE1
 70
     0
  9
$DIMSE2
 70
     0
  9
$DIMTAD
 70
     0
  9
$DIMZIN
 70
     0
  9
$DIMBLK
  1

  9
$DIMASO
 70
     1
  9
$DIMSHO
 70
     1
  9
$DIMPOST
  1

  9
$DIMAPOST
  1

  9
$DIMALT
 70
     0
  9
$DIMALTD
 70
     2
  9
$DIMALTF
 40
25.4
  9
$DIMLFAC
 40
1.0
  9
$DIMTOFL
 70
     0
  9
$DIMTVP
 40
0.0
  9
$DIMTIX
 70
     0
  9
$DIMSOXD
 70
     0
  9
$DIMSAH
 70
     0
  9
$DIMBLK1
  1

  9
$DIMBLK2
  1

  9
$DIMSTYLE
  2
STANDARD
  9
$DIMCLRD
 70
     0
  9
$DIMCLRE
 70
     0
  9
$DIMCLRT
 70
     0
  9
$DIMTFAC
 40
1.0
  9
$DIMGAP
 40
0.09
  9
$DIMJUST
 70
     0
  9
$DIMSD1
 70
     0
  9
$DIMSD2
 70
     0
  9
$DIMTOLJ
 70
     1
  9
$DIMTZIN
 70
     0
  9
$DIMALTZ
 70
     0
  9
$DIMALTTZ
 70
     0
  9
$DIMFIT
 70
     3
  9
$DIMUPT
 70
     0
  9
$DIMUNIT
 70
     2
  9
$DIMDEC
 70
     4
  9
$DIMTDEC
 70
     4
  9
$DIMALTU
 70
     2
  9
$DIMALTTD
 70
     2
  9
$DIMTXSTY
  7
STANDARD
  9
$DIMAUNIT
 70
     0
  9
$LUNITS
 70
     2
  9
$LUPREC
 70
     4
  9
$SKETCHINC
 40
0.1
  9
$FILLETRAD
 40
0.0
  9
$AUNITS
 70
     0
  9
$AUPREC
 70
     0
  9
$MENU
  1
acad
  9
$ELEVATION
 40
0.0
  9
$PELEVATION
 40
0.0
  9
$THICKNESS
 40
0.0
  9
$LIMCHECK
 70
     0
  9
$BLIPMODE
 70
     1
  9
$CHAMFERA
 40
0.0
  9
$CHAMFERB
 40
0.0
  9
$CHAMFERC
 40
0.0
  9
$CHAMFERD
 40
0.0
  9
$SKPOLY
 70
     0
  9
$TDCREATE
 40
2453504.180445868
  9
$TDUPDATE
 40
2453504.180445868
  9
$TDINDWG
 40
0.0000000000
  9
$TDUSRTIMER
 40
0.0000000000
  9
$USRTIMER
 70
     1
  9
$ANGBASE
 50
0.0
  9
$ANGDIR
 70
     0
  9
$PDMODE
 70
     0
  9
$PDSIZE
 40
0.0
  9
$PLINEWID
 40
0.0
  9
$COORDS
 70
     1
  9
$SPLFRAME
 70
     0
  9
$SPLINETYPE
 70
     6
  9
$SPLINESEGS
 70
     8
  9
$ATTDIA
 70
     0
  9
$ATTREQ
 70
     1
  9
$HANDLING
 70
     1
  9
$HANDSEED
  5
3BB
  9
$SURFTAB1
 70
     6
  9
$SURFTAB2
 70
     6
  9
$SURFTYPE
 70
     6
  9
$SURFU
 70
     6
  9
$SURFV
 70
     6
  9
$UCSNAME
  2

  9
$UCSORG
 10
0.0
 20
0.0
 30
0.0
  9
$UCSXDIR
 10
1.0
 20
0.0
 30
0.0
  9
$UCSYDIR
 10
0.0
 20
1.0
 30
0.0
  9
$PUCSNAME
  2

  9
$PUCSORG
 10
0.0
 20
0.0
 30
0.0
  9
$PUCSXDIR
 10
1.0
 20
0.0
 30
0.0
  9
$PUCSYDIR
 10
0.0
 20
1.0
 30
0.0
  9
$USERI1
 70
     0
  9
$USERI2
 70
     0
  9
$USERI3
 70
     0
  9
$USERI4
 70
     0
  9
$USERI5
 70
     0
  9
$USERR1
 40
0.0
  9
$USERR2
 40
0.0
  9
$USERR3
 40
0.0
  9
$USERR4
 40
0.0
  9
$USERR5
 40
0.0
  9
$WORLDVIEW
 70
     1
  9
$SHADEDGE
 70
     3
  9
$SHADEDIF
 70
    70
  9
$TILEMODE
 70
     1
  9
$MAXACTVP
 70
    16
  9
$PINSBASE
 10
0.0
 20
0.0
 30
0.0
  9
$PLIMCHECK
 70
     0
  9
$PEXTMIN
 10
1.000000E+20
 20
1.000000E+20
 30
1.000000E+20
  9
$PEXTMAX
 10
-1.000000E+20
 20
-1.000000E+20
 30
-1.000000E+20
  9
$PLIMMIN
 10
0.0
 20
0.0
  9
$PLIMMAX
 10
12.0
 20
9.0
  9
$UNITMODE
 70
     0
  9
$VISRETAIN
 70
     0
  9
$PLINEGEN
 70
     1
  9
$PSLTSCALE
 70
     0
  9
$TREEDEPTH
 70
  3020
  9
$PICKSTYLE
 70
     1
  9
$CMLSTYLE
  2
Standard
  9
$CMLJUST
 70
     0
  9
$CMLSCALE
 40
1.0
  9
$PROXYGRAPHICS
 70
     0
  9
$MEASUREMENT
 70
     0
  0
ENDSEC
  0
SECTION
  2
CLASSES
  0
CLASS
  1
LWPOLYLINE
  2
AcDbPolyline
  3
"AutoCAD"
 90
        0
280
     0
281
     1
  0
CLASS
  1
IMAGE
  2
AcDbRasterImage
  3
ISM
 90
      127
280
     0
281
     1
  0
CLASS
  1
OLE2FRAME
  2
AcDbOle2Frame
  3
""
 90
        0
280
     0
281
     1
  0
CLASS
  1
HATCH
  2
AcDbHatch
  3
"ACAD_SEDONA"
 90
        0
280
     0
281
     1
  0
CLASS
  1
DICTIONARYVAR
  2
AcDbDictionaryVar
  3
"AutoCAD"
 90
        0
280
     0
281
     0
  0
CLASS
  1
RASTERVARIABLES
  2
AcDbRasterVariables
  3
ISM
 90
        0
280
     0
281
     0
  0
CLASS
  1
IMAGEDEF
  2
AcDbRasterImageDef
  3
ISM
 90
        0
280
     0
281
     0
  0
CLASS
  1
IMAGEDEF_REACTOR
  2
AcDbRasterImageDefReactor
  3
ISM
 90
        1
280
     0
281
     0
  0
CLASS
  1
IDBUFFER
  2
AcDbIdBuffer
  3
"Acad"
 90
        0
280
     0
281
     0
  0
CLASS
  1
SPATIAL_FILTER
  2
AcDbSpatialFilter
  3
"Acad"
 90
        0
280
     0
281
     0
  0
CLASS
  1
XRECORD
  2
AcDbXrecord
  3
"<Built In>"
 90
        0
280
     0
281
     0
  0
CLASS
  1
SORTENTSTABLE
  2
AcDbSortentsTable
  3
"AutoCAD"
 90
        0
280
     0
281
     0
  0
CLASS
  1
LAYER_INDEX
  2
AcDbLayerIndex
  3
"Acad"
 90
        0
280
     0
281
     0
  0
CLASS
  1
SPATIAL_INDEX
  2
AcDbSpatialIndex
  3
"Acad"
 90
        0
280
     0
281
     0
  0
CLASS
  1
OBJECT_PTR
  2
CAseDLPNTableRecord
  3
"ASE-LPNTableRecord"
 90
        1
280
     0
281
     0
  0
CLASS
  1
LAYOUT
  2
AcDbLayout
  3
"AutoCAD 2000"
 90
        1
280
     0
281
     0
  0
CLASS
  1
PLOTSETTINGS
  2
AcDbPlotSettings
  3
"AutoCAD 2000"
 90
        1
280
     0
281
     0
  0
CLASS
  1
ACDBDICTIONARYWDFLT
  2
AcDbDictionaryWithDefault
  3
"AutoCAD 2000"
 90
        1
280
     0
281
     0
  0
CLASS
  1
ACDBPLACEHOLDER
  2
AcDbPlaceHolder
  3
"AutoCAD 2000"
 90
        1
280
     0
281
     0
  0
CLASS
  1
VBA_PROJECT
  2
AcDbVbaProject
  3
"acadvba"
 90
        1
280
     0
281
     0
  0
CLASS
  1
WIPEOUT
  2
AcDbWipeout
  3
WipeOut|AutoCAD Express Tool|expresstools@autodesk.com
 90
      127
280
     0
281
     1
  0
CLASS
  1
WIPEOUTVARIABLES
  2
AcDbWipeoutVariables
  3
WipeOut|AutoCAD Express Tool|expresstools@autodesk.com
 90
        0
280
     0
281
     0
  0
CLASS
  1
RTEXT
  2
RText
  3
RText|AutoCAD Express Tool|expresstools@autodesk.com
 90
        0
280
     0
281
     1
  0
CLASS
  1
ARCALIGNEDTEXT
  2
AcDbArcAlignedText
  3
ATEXT|AutoCAD Express Tool|expresstools@autodesk.com
 90
        0
280
     0
281
     1
  0
ENDSEC
  0
SECTION
  2
TABLES
  0
TABLE
  2
VPORT
  5
7
100
AcDbSymbolTable
 70
     1
  0
VPORT
  5
15
100
AcDbSymbolTableRecord
100
AcDbViewportTableRecord
  2
*ACTIVE
 70
     0
 10
0.0
 20
0.0
 11
1.0
 21
1.0
 12
215.400002
 22
122.325
 13
0.0
 23
0.0
 14
1.0
 24
1.0
 15
0.0
 25
0.0
 16
0.0
 26
0.0
 36
1.0
 17
0.0
 27
0.0
 37
0.0
 40
297.85
 41
1.722533
 42
50.0
 43
0.0
 44
0.0
 50
0.0
 51
0.0
 71
     0
 72
   100
 73
     1
 74
     1
 75
     0
 76
     0
 77
     0
 78
     0
  0
ENDTAB
  0
TABLE
  2
LTYPE
  5
4
100
AcDbSymbolTable
 70
     9
  0
LTYPE
  5
11
100
AcDbSymbolTableRecord
100
AcDbLinetypeTableRecord
  2
BYBLOCK
 70
    64
  3

 72
    65
 73
     0
 40
0.0
  0
LTYPE
  5
12
100
AcDbSymbolTableRecord
100
AcDbLinetypeTableRecord
  2
BYLAYER
 70
    64
  3

 72
    65
 73
     0
 40
0.0
  0
LTYPE
  5
13
100
AcDbSymbolTableRecord
100
AcDbLinetypeTableRecord
  2
CONTINUOUS
 70
    64
  3
実線
 72
    65
 73
     0
 40
0.0
  0
LTYPE
  5
1D
100
AcDbSymbolTableRecord
100
AcDbLinetypeTableRecord
  2
EXLTYPE1
 70
    64
  3
破線
 72
    65
 73
     2
 40
4.0
 49
3.0
 74
     0
 49
-1.0
 74
     0
  0
LTYPE
  5
1E
100
AcDbSymbolTableRecord
100
AcDbLinetypeTableRecord
  2
EXLTYPE2
 70
    64
  3
点線
 72
    65
 73
     2
 40
2.0
 49
1.0
 74
     0
 49
-1.0
 74
     0
  0
LTYPE
  5
1F
100
AcDbSymbolTableRecord
100
AcDbLinetypeTableRecord
  2
EXLTYPE3
 70
    64
  3
一点鎖線
 72
    65
 73
     4
 40
33.0
 49
30.0
 74
     0
 49
-1.0
 74
     0
 49
1.0
 74
     0
 49
-1.0
 74
     0
  0
LTYPE
  5
20
100
AcDbSymbolTableRecord
100
AcDbLinetypeTableRecord
  2
EXLTYPE4
 70
    64
  3
二点鎖線
 72
    65
 73
     6
 40
35.0
 49
30.0
 74
     0
 49
-1.0
 74
     0
 49
1.0
 74
     0
 49
-1.0
 74
     0
 49
1.0
 74
     0
 49
-1.0
 74
     0
  0
LTYPE
  5
21
100
AcDbSymbolTableRecord
100
AcDbLinetypeTableRecord
  2
EXLTYPE5
 70
    64
  3
三点鎖線
 72
    65
 73
     8
 40
37.0
 49
30.0
 74
     0
 49
-1.0
 74
     0
 49
1.0
 74
     0
 49
-1.0
 74
     0
 49
1.0
 74
     0
 49
-1.0
 74
     0
 49
1.0
 74
     0
 49
-1.0
 74
     0
  0
LTYPE
  5
22
100
AcDbSymbolTableRecord
100
AcDbLinetypeTableRecord
  2
EXLTYPE6
 70
    64
  3
四点鎖線
 72
    65
 73
    10
 40
39.0
 49
30.0
 74
     0
 49
-1.0
 74
     0
 49
1.0
 74
     0
 49
-1.0
 74
     0
 49
1.0
 74
     0
 49
-1.0
 74
     0
 49
1.0
 74
     0
 49
-1.0
 74
     0
 49
1.0
 74
     0
 49
-1.0
 74
     0
  0
ENDTAB
  0
TABLE
  2
LAYER
  5
2
100
AcDbSymbolTable
 70
     4
  0
LAYER
  5
14
100
AcDbSymbolTableRecord
100
AcDbLayerTableRecord
  2
0
 70
     0
 62
     7
  6
CONTINUOUS
  0
LAYER
  5
25
100
AcDbSymbolTableRecord
100
AcDbLayerTableRecord
  2
LAY-1
 70
    64
 62
     7
  6
CONTINUOUS
  0
LAYER
  5
26
100
AcDbSymbolTableRecord
100
AcDbLayerTableRecord
  2
LAY-2
 70
    64
 62
     7
  6
CONTINUOUS
  0
LAYER
  5
27
100
AcDbSymbolTableRecord
100
AcDbLayerTableRecord
  2
LAY-3
 70
    64
 62
     7
  6
CONTINUOUS
  0
ENDTAB
  0
TABLE
  2
STYLE
  5
3
100
AcDbSymbolTable
 70
     4
  0
STYLE
  5
17
100
AcDbSymbolTableRecord
100
AcDbTextStyleTableRecord
  2
STANDARD
 70
     0
 40
0.0
 41
1.0
 50
0.0
 71
     0
 42
0.0
  3
monotxt
  4
extfont
  0
STYLE
  5
23
100
AcDbSymbolTableRecord
100
AcDbTextStyleTableRecord
  2
EXCADSTD
 70
    64
 40
0.0
 41
1.0
 50
0.0
 71
     0
 42
0.2
  3
monotxt
  4
extfont
  0
STYLE
  5
24
100
AcDbSymbolTableRecord
100
AcDbTextStyleTableRecord
  2
EXCADVERT
 70
    68
 40
0.0
 41
1.0
 50
0.0
 71
     0
 42
0.286885
  3
monotxt
  4
extfont
  0
STYLE
  5
388
100
AcDbSymbolTableRecord
100
AcDbTextStyleTableRecord
  2
EXCADTTF1
 70
    64
 40
0.0
 41
1.0
 50
0.0
 71
     0
 42
0.2
  3
MS Gothic.ttf
  4

1001
ACAD
1000
MS Gothic
1071
    32817
  0
ENDTAB
  0
TABLE
  2
VIEW
  5
5
100
AcDbSymbolTable
 70
     0
  0
ENDTAB
  0
TABLE
  2
UCS
  5
6
100
AcDbSymbolTable
 70
     0
  0
ENDTAB
  0
TABLE
  2
APPID
  5
8
100
AcDbSymbolTable
 70
     1
  0
APPID
  5
16
100
AcDbSymbolTableRecord
100
AcDbRegAppTableRecord
  2
ACAD
 70
     0
  0
ENDTAB
  0
TABLE
  2
DIMSTYLE
  5
9
100
AcDbSymbolTable
 70
     1
  0
DIMSTYLE
105
18
100
AcDbSymbolTableRecord
100
AcDbDimStyleTableRecord
  2
STANDARD
 70
     0
  3

  4

  5

  6

  7

 40
1.0
 41
0.18
 42
0.0625
 43
0.38
 44
0.18
 45
0.0
 46
0.0
 47
0.0
 48
0.0
 71
     0
 72
     0
 73
     1
 74
     1
 75
     0
 76
     0
 77
     0
 78
     0
140
0.18
141
0.09
142
0.0
143
25.4
144
1.0
145
0.0
146
1.0
147
0.09
170
     0
171
     2
172
     0
173
     0
174
     0
175
     0
176
     0
177
     0
178
     0
270
     2
271
     4
272
     4
273
     2
274
     2
275
     0
280
     0
281
     0
282
     0
283
     1
284
     0
285
     0
286
     0
287
     0
288
     0
340
17
  0
ENDTAB
  0
TABLE
  2
BLOCK_RECORD
  5
1
100
AcDbSymbolTable
 70
    14
  0
BLOCK_RECORD
  5
A
100
AcDbSymbolTableRecord
100
AcDbBlockTableRecord
  2
*MODEL_SPACE
  0
BLOCK_RECORD
  5
B
100
AcDbSymbolTableRecord
100
AcDbBlockTableRecord
  2
*PAPER_SPACE
  0
BLOCK_RECORD
  5
28
100
AcDbSymbolTableRecord
100
AcDbBlockTableRecord
  2
_EX_NORM
  0
BLOCK_RECORD
  5
29
100
AcDbSymbolTableRecord
100
AcDbBlockTableRecord
  2
_EX_BNORM
  0
BLOCK_RECORD
  5
2A
100
AcDbSymbolTableRecord
100
AcDbBlockTableRecord
  2
_EX_BCIR
  0
BLOCK_RECORD
  5
2B
100
AcDbSymbolTableRecord
100
AcDbBlockTableRecord
  2
_EX_RCIVIL
  0
BLOCK_RECORD
  5
2C
100
AcDbSymbolTableRecord
100
AcDbBlockTableRecord
  2
_EX_SLANT
  0
BLOCK_RECORD
  5
2D
100
AcDbSymbolTableRecord
100
AcDbBlockTableRecord
  2
_EX_NONE
  0
BLOCK_RECORD
  5
2E
100
AcDbSymbolTableRecord
100
AcDbBlockTableRecord
  2
_EX_CIVIL
  0
BLOCK_RECORD
  5
2F
100
AcDbSymbolTableRecord
100
AcDbBlockTableRecord
  2
_EX_WCIR
  0
BLOCK_RECORD
  5
30
100
AcDbSymbolTableRecord
100
AcDbBlockTableRecord
  2
_EX_WCIR2
  0
BLOCK_RECORD
  5
31
100
AcDbSymbolTableRecord
100
AcDbBlockTableRecord
  2
_EX_WNORM
  0
BLOCK_RECORD
  5
32
100
AcDbSymbolTableRecord
100
AcDbBlockTableRecord
  2
_EX_NNORM
  0
BLOCK_RECORD
  5
33
100
AcDbSymbolTableRecord
100
AcDbBlockTableRecord
  2
_EX_BBOX
  0
BLOCK_RECORD
  5
34
100
AcDbSymbolTableRecord
100
AcDbBlockTableRecord
  2
_EX_WBOX
  0
BLOCK_RECORD
  5
35
100
AcDbSymbolTableRecord
100
AcDbBlockTableRecord
  2
_EX_INTEGRAL
  0
ENDTAB
  0
ENDSEC
  0
SECTION
  2
BLOCKS
  0
BLOCK
  5
D
100
AcDbEntity
  8
0
100
AcDbBlockBegin
  2
*MODEL_SPACE
 70
     0
 10
0.0
 20
0.0
 30
0.0
  3
*MODEL_SPACE
  1

  0
ENDBLK
  5
E
100
AcDbEntity
  8
0
100
AcDbBlockEnd
  0
BLOCK
  5
F
100
AcDbEntity
 67
     1
  8
0
100
AcDbBlockBegin
  2
*PAPER_SPACE
 70
     0
 10
0.0
 20
0.0
 30
0.0
  3
*PAPER_SPACE
  1

  0
ENDBLK
  5
10
100
AcDbEntity
 67
     1
  8
0
100
AcDbBlockEnd
  0
BLOCK
  5
36
100
AcDbEntity
  8
0
100
AcDbBlockBegin
  2
_EX_NORM
 70
     0
 10
0.0
 20
0.0
 30
0.0
  3
_EX_NORM
  1

  0
LINE
  5
37
100
AcDbEntity
  8
0
  6
CONTINUOUS
 62
     0
100
AcDbLine
 10
0.0
 20
0.0
 30
0.0
 11
-1.0
 21
0.0
 31
0.0
  0
LINE
  5
38
100
AcDbEntity
  8
0
  6
CONTINUOUS
 62
     0
100
AcDbLine
 10
0.0
 20
0.0
 30
0.0
 11
-1.0
 21
0.166667
 31
0.0
  0
LINE
  5
39
100
AcDbEntity
  8
0
  6
CONTINUOUS
 62
     0
100
AcDbLine
 10
0.0
 20
0.0
 30
0.0
 11
-1.0
 21
-0.166667
 31
0.0
  0
ENDBLK
  5
3A
100
AcDbEntity
  8
0
100
AcDbBlockEnd
  0
BLOCK
  5
3B
100
AcDbEntity
  8
0
100
AcDbBlockBegin
  2
_EX_BNORM
 70
     0
 10
0.0
 20
0.0
 30
0.0
  3
_EX_BNORM
  1

  0
LINE
  5
3C
100
AcDbEntity
  8
0
  6
CONTINUOUS
 62
     0
100
AcDbLine
 10
0.0
 20
0.0
 30
0.0
 11
-1.0
 21
0.0
 31
0.0
  0
LINE
  5
3D
100
AcDbEntity
  8
0
  6
CONTINUOUS
 62
     0
100
AcDbLine
 10
0.0
 20
0.0
 30
0.0
 11
-1.0
 21
0.166667
 31
0.0
  0
LINE
  5
3E
100
AcDbEntity
  8
0
  6
CONTINUOUS
 62
     0
100
AcDbLine
 10
0.0
 20
0.0
 30
0.0
 11
-1.0
 21
-0.166667
 31
0.0
  0
LINE
  5
3F
100
AcDbEntity
  8
0
  6
CONTINUOUS
 62
     0
100
AcDbLine
 10
0.0
 20
0.0
 30
0.0
 11
-1.0
 21
0.083333
 31
0.0
  0
LINE
  5
40
100
AcDbEntity
  8
0
  6
CONTINUOUS
 62
     0
100
AcDbLine
 10
0.0
 20
0.0
 30
0.0
 11
-1.0
 21
-0.083333
 31
0.0
  0
LINE
  5
41
100
AcDbEntity
  8
0
  6
CONTINUOUS
 62
     0
100
AcDbLine
 10
-1.0
 20
0.166667
 30
0.0
 11
-1.0
 21
-0.166667
 31
0.0
  0
ENDBLK
  5
42
100
AcDbEntity
  8
0
100
AcDbBlockEnd
  0
BLOCK
  5
43
100
AcDbEntity
  8
0
100
AcDbBlockBegin
  2
_EX_BCIR
 70
     0
 10
0.0
 20
0.0
 30
0.0
  3
_EX_BCIR
  1

  0
LINE
  5
44
100
AcDbEntity
  8
0
  6
CONTINUOUS
 62
     0
100
AcDbLine
 10
0.0
 20
0.0
 30
0.0
 11
-1.0
 21
0.0
 31
0.0
  0
CIRCLE
  5
45
100
AcDbEntity
  8
0
  6
CONTINUOUS
 62
     0
100
AcDbCircle
 10
0.0
 20
0.0
 30
0.0
 40
0.5
  0
CIRCLE
  5
46
100
AcDbEntity
  8
0
  6
CONTINUOUS
 62
     0
100
AcDbCircle
 10
0.0
 20
0.0
 30
0.0
 40
0.25
  0
ENDBLK
  5
47
100
AcDbEntity
  8
0
100
AcDbBlockEnd
  0
BLOCK
  5
48
100
AcDbEntity
  8
0
100
AcDbBlockBegin
  2
_EX_RCIVIL
 70
     0
 10
0.0
 20
0.0
 30
0.0
  3
_EX_RCIVIL
  1

  0
LINE
  5
49
100
AcDbEntity
  8
0
  6
CONTINUOUS
 62
     0
100
AcDbLine
 10
0.0
 20
0.0
 30
0.0
 11
-1.0
 21
0.0
 31
0.0
  0
LINE
  5
4A
100
AcDbEntity
  8
0
  6
CONTINUOUS
 62
     0
100
AcDbLine
 10
-1.0
 20
-0.25
 30
0.0
 11
0.0
 21
-0.25
 31
0.0
  0
LINE
  5
4B
100
AcDbEntity
  8
0
  6
CONTINUOUS
 62
     0
100
AcDbLine
 10
-1.0
 20
-0.125
 30
0.0
 11
0.0
 21
-0.125
 31
0.0
  0
ENDBLK
  5
4C
100
AcDbEntity
  8
0
100
AcDbBlockEnd
  0
BLOCK
  5
4D
100
AcDbEntity
  8
0
100
AcDbBlockBegin
  2
_EX_SLANT
 70
     0
 10
0.0
 20
0.0
 30
0.0
  3
_EX_SLANT
  1

  0
LINE
  5
4E
100
AcDbEntity
  8
0
  6
CONTINUOUS
 62
     0
100
AcDbLine
 10
0.0
 20
0.0
 30
0.0
 11
-1.0
 21
0.0
 31
0.0
  0
LINE
  5
4F
100
AcDbEntity
  8
0
  6
CONTINUOUS
 62
     0
100
AcDbLine
 10
0.707107
 20
0.707107
 30
0.0
 11
-0.707107
 21
-0.707107
 31
0.0
  0
ENDBLK
  5
50
100
AcDbEntity
  8
0
100
AcDbBlockEnd
  0
BLOCK
  5
51
100
AcDbEntity
  8
0
100
AcDbBlockBegin
  2
_EX_NONE
 70
     0
 10
0.0
 20
0.0
 30
0.0
  3
_EX_NONE
  1

  0
LINE
  5
52
100
AcDbEntity
  8
0
  6
CONTINUOUS
 62
     0
100
AcDbLine
 10
0.0
 20
0.0
 30
0.0
 11
-1.0
 21
0.0
 31
0.0
  0
ENDBLK
  5
53
100
AcDbEntity
  8
0
100
AcDbBlockEnd
  0
BLOCK
  5
54
100
AcDbEntity
  8
0
100
AcDbBlockBegin
  2
_EX_CIVIL
 70
     0
 10
0.0
 20
0.0
 30
0.0
  3
_EX_CIVIL
  1

  0
LINE
  5
55
100
AcDbEntity
  8
0
  6
CONTINUOUS
 62
     0
100
AcDbLine
 10
0.0
 20
0.0
 30
0.0
 11
-1.0
 21
0.0
 31
0.0
  0
LINE
  5
56
100
AcDbEntity
  8
0
  6
CONTINUOUS
 62
     0
100
AcDbLine
 10
-1.0
 20
0.25
 30
0.0
 11
0.0
 21
0.25
 31
0.0
  0
LINE
  5
57
100
AcDbEntity
  8
0
  6
CONTINUOUS
 62
     0
100
AcDbLine
 10
-1.0
 20
0.125
 30
0.0
 11
0.0
 21
0.125
 31
0.0
  0
ENDBLK
  5
58
100
AcDbEntity
  8
0
100
AcDbBlockEnd
  0
BLOCK
  5
59
100
AcDbEntity
  8
0
100
AcDbBlockBegin
  2
_EX_WCIR
 70
     0
 10
0.0
 20
0.0
 30
0.0
  3
_EX_WCIR
  1

  0
LINE
  5
5A
100
AcDbEntity
  8
0
  6
CONTINUOUS
 62
     0
100
AcDbLine
 10
0.0
 20
0.0
 30
0.0
 11
-1.0
 21
0.0
 31
0.0
  0
CIRCLE
  5
5B
100
AcDbEntity
  8
0
  6
CONTINUOUS
 62
     0
100
AcDbCircle
 10
0.0
 20
0.0
 30
0.0
 40
0.5
  0
ENDBLK
  5
5C
100
AcDbEntity
  8
0
100
AcDbBlockEnd
  0
BLOCK
  5
5D
100
AcDbEntity
  8
0
100
AcDbBlockBegin
  2
_EX_WCIR2
 70
     0
 10
0.0
 20
0.0
 30
0.0
  3
_EX_WCIR2
  1

  0
LINE
  5
5E
100
AcDbEntity
  8
0
  6
CONTINUOUS
 62
     0
100
AcDbLine
 10
-0.5
 20
0.0
 30
0.0
 11
-1.0
 21
0.0
 31
0.0
  0
CIRCLE
  5
5F
100
AcDbEntity
  8
0
  6
CONTINUOUS
 62
     0
100
AcDbCircle
 10
0.0
 20
0.0
 30
0.0
 40
0.5
  0
ENDBLK
  5
60
100
AcDbEntity
  8
0
100
AcDbBlockEnd
  0
BLOCK
  5
61
100
AcDbEntity
  8
0
100
AcDbBlockBegin
  2
_EX_WNORM
 70
     0
 10
0.0
 20
0.0
 30
0.0
  3
_EX_WNORM
  1

  0
LINE
  5
62
100
AcDbEntity
  8
0
  6
CONTINUOUS
 62
     0
100
AcDbLine
 10
-1.0
 20
0.0
 30
0.0
 11
-1.0
 21
0.0
 31
0.0
  0
LINE
  5
63
100
AcDbEntity
  8
0
  6
CONTINUOUS
 62
     0
100
AcDbLine
 10
0.0
 20
0.0
 30
0.0
 11
-1.0
 21
0.166667
 31
0.0
  0
LINE
  5
64
100
AcDbEntity
  8
0
  6
CONTINUOUS
 62
     0
100
AcDbLine
 10
0.0
 20
0.0
 30
0.0
 11
-1.0
 21
-0.166667
 31
0.0
  0
LINE
  5
65
100
AcDbEntity
  8
0
  6
CONTINUOUS
 62
     0
100
AcDbLine
 10
-1.0
 20
0.166667
 30
0.0
 11
-1.0
 21
-0.166667
 31
0.0
  0
ENDBLK
  5
66
100
AcDbEntity
  8
0
100
AcDbBlockEnd
  0
BLOCK
  5
67
100
AcDbEntity
  8
0
100
AcDbBlockBegin
  2
_EX_NNORM
 70
     0
 10
0.0
 20
0.0
 30
0.0
  3
_EX_NNORM
  1

  0
LINE
  5
68
100
AcDbEntity
  8
0
  6
CONTINUOUS
 62
     0
100
AcDbLine
 10
0.0
 20
0.0
 30
0.0
 11
-1.0
 21
0.0
 31
0.0
  0
LINE
  5
69
100
AcDbEntity
  8
0
  6
CONTINUOUS
 62
     0
100
AcDbLine
 10
0.0
 20
0.0
 30
0.0
 11
-1.0
 21
0.166667
 31
0.0
  0
LINE
  5
6A
100
AcDbEntity
  8
0
  6
CONTINUOUS
 62
     0
100
AcDbLine
 10
0.0
 20
0.0
 30
0.0
 11
-1.0
 21
-0.166667
 31
0.0
  0
LINE
  5
6B
100
AcDbEntity
  8
0
  6
CONTINUOUS
 62
     0
100
AcDbLine
 10
-1.0
 20
0.166667
 30
0.0
 11
-1.0
 21
-0.166667
 31
0.0
  0
ENDBLK
  5
6C
100
AcDbEntity
  8
0
100
AcDbBlockEnd
  0
BLOCK
  5
6D
100
AcDbEntity
  8
0
100
AcDbBlockBegin
  2
_EX_BBOX
 70
     0
 10
0.0
 20
0.0
 30
0.0
  3
_EX_BBOX
  1

  0
LINE
  5
6E
100
AcDbEntity
  8
0
  6
CONTINUOUS
 62
     0
100
AcDbLine
 10
0.0
 20
0.0
 30
0.0
 11
-1.0
 21
0.0
 31
0.0
  0
LINE
  5
6F
100
AcDbEntity
  8
0
  6
CONTINUOUS
 62
     0
100
AcDbLine
 10
-0.5
 20
0.5
 30
0.0
 11
0.5
 21
0.5
 31
0.0
  0
LINE
  5
70
100
AcDbEntity
  8
0
  6
CONTINUOUS
 62
     0
100
AcDbLine
 10
0.5
 20
0.5
 30
0.0
 11
0.5
 21
-0.5
 31
0.0
  0
LINE
  5
71
100
AcDbEntity
  8
0
  6
CONTINUOUS
 62
     0
100
AcDbLine
 10
0.5
 20
-0.5
 30
0.0
 11
-0.5
 21
-0.5
 31
0.0
  0
LINE
  5
72
100
AcDbEntity
  8
0
  6
CONTINUOUS
 62
     0
100
AcDbLine
 10
-0.5
 20
-0.5
 30
0.0
 11
-0.5
 21
0.5
 31
0.0
  0
LINE
  5
73
100
AcDbEntity
  8
0
  6
CONTINUOUS
 62
     0
100
AcDbLine
 10
-0.25
 20
0.25
 30
0.0
 11
0.25
 21
0.25
 31
0.0
  0
LINE
  5
74
100
AcDbEntity
  8
0
  6
CONTINUOUS
 62
     0
100
AcDbLine
 10
0.25
 20
0.25
 30
0.0
 11
0.25
 21
-0.25
 31
0.0
  0
LINE
  5
75
100
AcDbEntity
  8
0
  6
CONTINUOUS
 62
     0
100
AcDbLine
 10
0.25
 20
-0.25
 30
0.0
 11
-0.25
 21
-0.25
 31
0.0
  0
LINE
  5
76
100
AcDbEntity
  8
0
  6
CONTINUOUS
 62
     0
100
AcDbLine
 10
-0.25
 20
-0.25
 30
0.0
 11
-0.25
 21
0.25
 31
0.0
  0
ENDBLK
  5
77
100
AcDbEntity
  8
0
100
AcDbBlockEnd
  0
BLOCK
  5
78
100
AcDbEntity
  8
0
100
AcDbBlockBegin
  2
_EX_WBOX
 70
     0
 10
0.0
 20
0.0
 30
0.0
  3
_EX_WBOX
  1

  0
LINE
  5
79
100
AcDbEntity
  8
0
  6
CONTINUOUS
 62
     0
100
AcDbLine
 10
-0.5
 20
0.0
 30
0.0
 11
-1.0
 21
0.0
 31
0.0
  0
LINE
  5
7A
100
AcDbEntity
  8
0
  6
CONTINUOUS
 62
     0
100
AcDbLine
 10
-0.5
 20
0.5
 30
0.0
 11
0.5
 21
0.5
 31
0.0
  0
LINE
  5
7B
100
AcDbEntity
  8
0
  6
CONTINUOUS
 62
     0
100
AcDbLine
 10
0.5
 20
0.5
 30
0.0
 11
0.5
 21
-0.5
 31
0.0
  0
LINE
  5
7C
100
AcDbEntity
  8
0
  6
CONTINUOUS
 62
     0
100
AcDbLine
 10
0.5
 20
-0.5
 30
0.0
 11
-0.5
 21
-0.5
 31
0.0
  0
LINE
  5
7D
100
AcDbEntity
  8
0
  6
CONTINUOUS
 62
     0
100
AcDbLine
 10
-0.5
 20
-0.5
 30
0.0
 11
-0.5
 21
0.5
 31
0.0
  0
ENDBLK
  5
7E
100
AcDbEntity
  8
0
100
AcDbBlockEnd
  0
BLOCK
  5
7F
100
AcDbEntity
  8
0
100
AcDbBlockBegin
  2
_EX_INTEGRAL
 70
     0
 10
0.0
 20
0.0
 30
0.0
  3
_EX_INTEGRAL
  1

  0
LINE
  5
80
100
AcDbEntity
  8
0
  6
CONTINUOUS
 62
     0
100
AcDbLine
 10
0.0
 20
0.0
 30
0.0
 11
-1.0
 21
0.0
 31
0.0
  0
ARC
  5
81
100
AcDbEntity
  8
0
  6
CONTINUOUS
 62
     0
100
AcDbCircle
 10
0.0
 20
0.0
 30
0.0
 40
0.707107
100
AcDbArc
 50
90.0
 51
180.0
  0
ARC
  5
82
100
AcDbEntity
  8
0
  6
CONTINUOUS
 62
     0
100
AcDbCircle
 10
0.0
 20
0.0
 30
0.0
 40
0.707107
100
AcDbArc
 50
270.0
 51
0.0
  0
ENDBLK
  5
83
100
AcDbEntity
  8
0
100
AcDbBlockEnd
  0
ENDSEC
  0
SECTION
  2
ENTITIES
  0
LINE
  5
84
100
AcDbEntity
  8
LAY-3
  6
CONTINUOUS
 62
     2
100
AcDbLine
 10
155.218895
 20
277.825
 30
0.0
 11
157.397771
 21
277.825
 31
0.0
  0
LINE
  5
85
100
AcDbEntity
  8
LAY-3
  6
CONTINUOUS
 62
     2
100
AcDbLine
 10
153.671574
 20
277.45
 30
0.0
 11
158.945093
 21
277.45
 31
0.0
  0
LINE
  5
86
100
AcDbEntity
  8
LAY-3
  6
CONTINUOUS
 62
     2
100
AcDbLine
 10
152.781738
 20
277.075
 30
0.0
 11
159.834929
 21
277.075
 31
0.0
  0
LINE
  5
87
100
AcDbEntity
  8
LAY-3
  6
CONTINUOUS
 62
     2
100
AcDbLine
 10
152.108333
 20
276.7
 30
0.0
 11
160.508333
 21
276.7
 31
0.0
  0
LINE
  5
88
100
AcDbEntity
  8
LAY-3
  6
CONTINUOUS
 62
     2
100
AcDbLine
 10
151.558399
 20
276.325
 30
0.0
 11
161.058268
 21
276.325
 31
0.0
  0
LINE
  5
89
100
AcDbEntity
  8
LAY-3
  6
CONTINUOUS
 62
     2
100
AcDbLine
 10
151.092732
 20
275.95
 30
0.0
 11
161.523935
 21
275.95
 31
0.0
  0
LINE
  5
8A
100
AcDbEntity
  8
LAY-3
  6
CONTINUOUS
 62
     2
100
AcDbLine
 10
137.558333
 20
275.575
 30
0.0
 11
149.641968
 21
275.575
 31
0.0
  0
LINE
  5
8B
100
AcDbEntity
  8
LAY-3
  6
CONTINUOUS
 62
     2
100
AcDbLine
 10
150.690338
 20
275.575
 30
0.0
 11
161.926329
 21
275.575
 31
0.0
  0
LINE
  5
8C
100
AcDbEntity
  8
LAY-3
  6
CONTINUOUS
 62
     2
100
AcDbLine
 10
162.974699
 20
275.575
 30
0.0
 11
172.058333
 21
275.575
 31
0.0
  0
LINE
  5
8D
100
AcDbEntity
  8
LAY-3
  6
CONTINUOUS
 62
     2
100
AcDbLine
 10
173.333333
 20
275.575
 30
0.0
 11
183.383333
 21
275.575
 31
0.0
  0
LINE
  5
8E
100
AcDbEntity
  8
LAY-3
  6
CONTINUOUS
 62
     2
100
AcDbLine
 10
184.508333
 20
275.575
 30
0.0
 11
187.058333
 21
275.575
 31
0.0
  0
LINE
  5
8F
100
AcDbEntity
  8
LAY-3
  6
CONTINUOUS
 62
     2
100
AcDbLine
 10
192.308333
 20
275.575
 30
0.0
 11
194.858333
 21
275.575
 31
0.0
  0
LINE
  5
90
100
AcDbEntity
  8
LAY-3
  6
CONTINUOUS
 62
     2
100
AcDbLine
 10
137.558333
 20
275.2
 30
0.0
 11
149.342808
 21
275.2
 31
0.0
  0
LINE
  5
91
100
AcDbEntity
  8
LAY-3
  6
CONTINUOUS
 62
     2
100
AcDbLine
 10
150.338409
 20
275.2
 30
0.0
 11
162.278258
 21
275.2
 31
0.0
  0
LINE
  5
92
100
AcDbEntity
  8
LAY-3
  6
CONTINUOUS
 62
     2
100
AcDbLine
 10
163.273859
 20
275.2
 30
0.0
 11
172.058333
 21
275.2
 31
0.0
  0
LINE
  5
93
100
AcDbEntity
  8
LAY-3
  6
CONTINUOUS
 62
     2
100
AcDbLine
 10
173.333333
 20
275.2
 30
0.0
 11
183.383333
 21
275.2
 31
0.0
  0
LINE
  5
94
100
AcDbEntity
  8
LAY-3
  6
CONTINUOUS
 62
     2
100
AcDbLine
 10
184.508333
 20
275.2
 30
0.0
 11
187.305116
 21
275.2
 31
0.0
  0
LINE
  5
95
100
AcDbEntity
  8
LAY-3
  6
CONTINUOUS
 62
     2
100
AcDbLine
 10
192.308333
 20
275.2
 30
0.0
 11
194.858333
 21
275.2
 31
0.0
  0
LINE
  5
96
100
AcDbEntity
  8
LAY-3
  6
CONTINUOUS
 62
     2
100
AcDbLine
 10
137.558333
 20
274.825
 30
0.0
 11
149.075393
 21
274.825
 31
0.0
  0
LINE
  5
97
100
AcDbEntity
  8
LAY-3
  6
CONTINUOUS
 62
     2
100
AcDbLine
 10
150.028455
 20
274.825
 30
0.0
 11
154.359776
 21
274.825
 31
0.0
  0
LINE
  5
98
100
AcDbEntity
  8
LAY-3
  6
CONTINUOUS
 62
     2
100
AcDbLine
 10
158.25689
 20
274.825
 30
0.0
 11
162.588212
 21
274.825
 31
0.0
  0
LINE
  5
99
100
AcDbEntity
  8
LAY-3
  6
CONTINUOUS
 62
     2
100
AcDbLine
 10
163.541274
 20
274.825
 30
0.0
 11
172.058333
 21
274.825
 31
0.0
  0
LINE
  5
9A
100
AcDbEntity
  8
LAY-3
  6
CONTINUOUS
 62
     2
100
AcDbLine
 10
173.333333
 20
274.825
 30
0.0
 11
183.383333
 21
274.825
 31
0.0
  0
LINE
  5
9B
100
AcDbEntity
  8
LAY-3
  6
CONTINUOUS
 62
     2
100
AcDbLine
 10
184.508333
 20
274.825
 30
0.0
 11
187.5519
 21
274.825
 31
0.0
  0
LINE
  5
9C
100
AcDbEntity
  8
LAY-3
  6
CONTINUOUS
 62
     2
100
AcDbLine
 10
192.308333
 20
274.825
 30
0.0
 11
194.858333
 21
274.825
 31
0.0
  0
LINE
  5
9D
100
AcDbEntity
  8
LAY-3
  6
CONTINUOUS
 62
     2
100
AcDbLine
 10
137.558333
 20
274.45
 30
0.0
 11
148.836316
 21
274.45
 31
0.0
  0
LINE
  5
9E
100
AcDbEntity
  8
LAY-3
  6
CONTINUOUS
 62
     2
100
AcDbLine
 10
149.754518
 20
274.45
 30
0.0
 11
153.60417
 21
274.45
 31
0.0
  0
LINE
  5
9F
100
AcDbEntity
  8
LAY-3
  6
CONTINUOUS
 62
     2
100
AcDbLine
 10
159.012497
 20
274.45
 30
0.0
 11
162.862149
 21
274.45
 31
0.0
  0
LINE
  5
A0
100
AcDbEntity
  8
LAY-3
  6
CONTINUOUS
 62
     2
100
AcDbLine
 10
163.780351
 20
274.45
 30
0.0
 11
172.058333
 21
274.45
 31
0.0
  0
LINE
  5
A1
100
AcDbEntity
  8
LAY-3
  6
CONTINUOUS
 62
     2
100
AcDbLine
 10
173.333333
 20
274.45
 30
0.0
 11
183.383333
 21
274.45
 31
0.0
  0
LINE
  5
A2
100
AcDbEntity
  8
LAY-3
  6
CONTINUOUS
 62
     2
100
AcDbLine
 10
184.508333
 20
274.45
 30
0.0
 11
187.798683
 21
274.45
 31
0.0
  0
LINE
  5
A3
100
AcDbEntity
  8
LAY-3
  6
CONTINUOUS
 62
     2
100
AcDbLine
 10
192.308333
 20
274.45
 30
0.0
 11
194.858333
 21
274.45
 31
0.0
  0
LINE
  5
A4
100
AcDbEntity
  8
LAY-3
  6
CONTINUOUS
 62
     2
100
AcDbLine
 10
137.558333
 20
274.075
 30
0.0
 11
148.62293
 21
274.075
 31
0.0
  0
LINE
  5
A5
100
AcDbEntity
  8
LAY-3
  6
CONTINUOUS
 62
     2
100
AcDbLine
 10
149.512241
 20
274.075
 30
0.0
 11
153.060738
 21
274.075
 31
0.0
  0
LINE
  5
A6
100
AcDbEntity
  8
LAY-3
  6
CONTINUOUS
 62
     2
100
AcDbLine
 10
159.555929
 20
274.075
 30
0.0
 11
163.104426
 21
274.075
 31
0.0
  0
LINE
  5
A7
100
AcDbEntity
  8
LAY-3
  6
CONTINUOUS
 62
     2
100
AcDbLine
 10
163.993737
 20
274.075
 30
0.0
 11
172.058333
 21
274.075
 31
0.0
  0
LINE
  5
A8
100
AcDbEntity
  8
LAY-3
  6
CONTINUOUS
 62
     2
100
AcDbLine
 10
173.333333
 20
274.075
 30
0.0
 11
183.383333
 21
274.075
 31
0.0
  0
LINE
  5
A9
100
AcDbEntity
  8
LAY-3
  6
CONTINUOUS
 62
     2
100
AcDbLine
 10
184.508333
 20
274.075
 30
0.0
 11
188.045466
 21
274.075
 31
0.0
  0
LINE
  5
AA
100
AcDbEntity
  8
LAY-3
  6
CONTINUOUS
 62
     2
100
AcDbLine
 10
192.308333
 20
274.075
 30
0.0
 11
194.858333
 21
274.075
 31
0.0
  0
LINE
  5
AB
100
AcDbEntity
  8
LAY-3
  6
CONTINUOUS
 62
     2
100
AcDbLine
 10
137.558333
 20
273.7
 30
0.0
 11
148.433148
 21
273.7
 31
0.0
  0
LINE
  5
AC
100
AcDbEntity
  8
LAY-3
  6
CONTINUOUS
 62
     2
100
AcDbLine
 10
149.29834
 20
273.7
 30
0.0
 11
152.634099
 21
273.7
 31
0.0
  0
LINE
  5
AD
100
AcDbEntity
  8
LAY-3
  6
CONTINUOUS
 62
     2
100
AcDbLine
 10
154.989954
 20
273.7
 30
0.0
 11
157.626713
 21
273.7
 31
0.0
  0
LINE
  5
AE
100
AcDbEntity
  8
LAY-3
  6
CONTINUOUS
 62
     2
100
AcDbLine
 10
159.982568
 20
273.7
 30
0.0
 11
163.318326
 21
273.7
 31
0.0
  0
LINE
  5
AF
100
AcDbEntity
  8
LAY-3
  6
CONTINUOUS
 62
     2
100
AcDbLine
 10
164.183519
 20
273.7
 30
0.0
 11
172.058333
 21
273.7
 31
0.0
  0
LINE
  5
B0
100
AcDbEntity
  8
LAY-3
  6
CONTINUOUS
 62
     2
100
AcDbLine
 10
173.333333
 20
273.7
 30
0.0
 11
183.383333
 21
273.7
 31
0.0
  0
LINE
  5
B1
100
AcDbEntity
  8
LAY-3
  6
CONTINUOUS
 62
     2
100
AcDbLine
 10
184.508333
 20
273.7
 30
0.0
 11
188.292249
 21
273.7
 31
0.0
  0
LINE
  5
B2
100
AcDbEntity
  8
LAY-3
  6
CONTINUOUS
 62
     2
100
AcDbLine
 10
192.308333
 20
273.7
 30
0.0
 11
194.858333
 21
273.7
 31
0.0
  0
LINE
  5
B3
100
AcDbEntity
  8
LAY-3
  6
CONTINUOUS
 62
     2
100
AcDbLine
 10
137.558333
 20
273.325
 30
0.0
 11
148.265298
 21
273.325
 31
0.0
  0
LINE
  5
B4
100
AcDbEntity
  8
LAY-3
  6
CONTINUOUS
 62
     2
100
AcDbLine
 10
149.110287
 20
273.325
 30
0.0
 11
152.286906
 21
273.325
 31
0.0
  0
LINE
  5
B5
100
AcDbEntity
  8
LAY-3
  6
CONTINUOUS
 62
     2
100
AcDbLine
 10
154.208333
 20
273.325
 30
0.0
 11
158.408333
 21
273.325
 31
0.0
  0
LINE
  5
B6
100
AcDbEntity
  8
LAY-3
  6
CONTINUOUS
 62
     2
100
AcDbLine
 10
160.32976
 20
273.325
 30
0.0
 11
163.50638
 21
273.325
 31
0.0
  0
LINE
  5
B7
100
AcDbEntity
  8
LAY-3
  6
CONTINUOUS
 62
     2
100
AcDbLine
 10
164.351369
 20
273.325
 30
0.0
 11
172.058333
 21
273.325
 31
0.0
  0
LINE
  5
B8
100
AcDbEntity
  8
LAY-3
  6
CONTINUOUS
 62
     2
100
AcDbLine
 10
173.333333
 20
273.325
 30
0.0
 11
183.383333
 21
273.325
 31
0.0
  0
LINE
  5
B9
100
AcDbEntity
  8
LAY-3
  6
CONTINUOUS
 62
     2
100
AcDbLine
 10
184.508333
 20
273.325
 30
0.0
 11
188.539032
 21
273.325
 31
0.0
  0
LINE
  5
BA
100
AcDbEntity
  8
LAY-3
  6
CONTINUOUS
 62
     2
100
AcDbLine
 10
192.308333
 20
273.325
 30
0.0
 11
194.858333
 21
273.325
 31
0.0
  0
LINE
  5
BB
100
AcDbEntity
  8
LAY-3
  6
CONTINUOUS
 62
     2
100
AcDbLine
 10
142.808333
 20
272.95
 30
0.0
 11
145.433333
 21
272.95
 31
0.0
  0
LINE
  5
BC
100
AcDbEntity
  8
LAY-3
  6
CONTINUOUS
 62
     2
100
AcDbLine
 10
148.946099
 20
272.95
 30
0.0
 11
151.999911
 21
272.95
 31
0.0
  0
LINE
  5
BD
100
AcDbEntity
  8
LAY-3
  6
CONTINUOUS
 62
     2
100
AcDbLine
 10
153.700533
 20
272.95
 30
0.0
 11
158.916134
 21
272.95
 31
0.0
  0
LINE
  5
BE
100
AcDbEntity
  8
LAY-3
  6
CONTINUOUS
 62
     2
100
AcDbLine
 10
160.616755
 20
272.95
 30
0.0
 11
163.670568
 21
272.95
 31
0.0
  0
LINE
  5
BF
100
AcDbEntity
  8
LAY-3
  6
CONTINUOUS
 62
     2
100
AcDbLine
 10
169.165614
 20
272.95
 30
0.0
 11
172.058333
 21
272.95
 31
0.0
  0
LINE
  5
C0
100
AcDbEntity
  8
LAY-3
  6
CONTINUOUS
 62
     2
100
AcDbLine
 10
173.333333
 20
272.95
 30
0.0
 11
175.958333
 21
272.95
 31
0.0
  0
LINE
  5
C1
100
AcDbEntity
  8
LAY-3
  6
CONTINUOUS
 62
     2
100
AcDbLine
 10
184.508333
 20
272.95
 30
0.0
 11
188.785815
 21
272.95
 31
0.0
  0
LINE
  5
C2
100
AcDbEntity
  8
LAY-3
  6
CONTINUOUS
 62
     2
100
AcDbLine
 10
192.308333
 20
272.95
 30
0.0
 11
194.858333
 21
272.95
 31
0.0
  0
LINE
  5
C3
100
AcDbEntity
  8
LAY-3
  6
CONTINUOUS
 62
     2
100
AcDbLine
 10
142.808333
 20
272.575
 30
0.0
 11
145.433333
 21
272.575
 31
0.0
  0
LINE
  5
C4
100
AcDbEntity
  8
LAY-3
  6
CONTINUOUS
 62
     2
100
AcDbLine
 10
148.804209
 20
272.575
 30
0.0
 11
151.7617
 21
272.575
 31
0.0
  0
LINE
  5
C5
100
AcDbEntity
  8
LAY-3
  6
CONTINUOUS
 62
     2
100
AcDbLine
 10
153.323371
 20
272.575
 30
0.0
 11
159.293296
 21
272.575
 31
0.0
  0
LINE
  5
C6
100
AcDbEntity
  8
LAY-3
  6
CONTINUOUS
 62
     2
100
AcDbLine
 10
160.854967
 20
272.575
 30
0.0
 11
163.812457
 21
272.575
 31
0.0
  0
LINE
  5
C7
100
AcDbEntity
  8
LAY-3
  6
CONTINUOUS
 62
     2
100
AcDbLine
 10
168.827552
 20
272.575
 30
0.0
 11
171.720271
 21
272.575
 31
0.0
  0
LINE
  5
C8
100
AcDbEntity
  8
LAY-3
  6
CONTINUOUS
 62
     2
100
AcDbLine
 10
173.333333
 20
272.575
 30
0.0
 11
175.958333
 21
272.575
 31
0.0
  0
LINE
  5
C9
100
AcDbEntity
  8
LAY-3
  6
CONTINUOUS
 62
     2
100
AcDbLine
 10
184.508333
 20
272.575
 30
0.0
 11
189.032598
 21
272.575
 31
0.0
  0
LINE
  5
CA
100
AcDbEntity
  8
LAY-3
  6
CONTINUOUS
 62
     2
100
AcDbLine
 10
192.308333
 20
272.575
 30
0.0
 11
194.858333
 21
272.575
 31
0.0
  0
LINE
  5
CB
100
AcDbEntity
  8
LAY-3
  6
CONTINUOUS
 62
     2
100
AcDbLine
 10
142.808333
 20
272.2
 30
0.0
 11
145.433333
 21
272.2
 31
0.0
  0
LINE
  5
CC
100
AcDbEntity
  8
LAY-3
  6
CONTINUOUS
 62
     2
100
AcDbLine
 10
148.683374
 20
272.2
 30
0.0
 11
151.564917
 21
272.2
 31
0.0
  0
LINE
  5
CD
100
AcDbEntity
  8
LAY-3
  6
CONTINUOUS
 62
     2
100
AcDbLine
 10
153.031425
 20
272.2
 30
0.0
 11
159.585241
 21
272.2
 31
0.0
  0
LINE
  5
CE
100
AcDbEntity
  8
LAY-3
  6
CONTINUOUS
 62
     2
100
AcDbLine
 10
161.05175
 20
272.2
 30
0.0
 11
163.933292
 21
272.2
 31
0.0
  0
LINE
  5
CF
100
AcDbEntity
  8
LAY-3
  6
CONTINUOUS
 62
     2
100
AcDbLine
 10
168.48949
 20
272.2
 30
0.0
 11
171.382209
 21
272.2
 31
0.0
  0
LINE
  5
D0
100
AcDbEntity
  8
LAY-3
  6
CONTINUOUS
 62
     2
100
AcDbLine
 10
173.333333
 20
272.2
 30
0.0
 11
175.958333
 21
272.2
 31
0.0
  0
LINE
  5
D1
100
AcDbEntity
  8
LAY-3
  6
CONTINUOUS
 62
     2
100
AcDbLine
 10
184.508333
 20
272.2
 30
0.0
 11
187.058333
 21
272.2
 31
0.0
  0
LINE
  5
D2
100
AcDbEntity
  8
LAY-3
  6
CONTINUOUS
 62
     2
100
AcDbLine
 10
187.125888
 20
272.2
 30
0.0
 11
189.279381
 21
272.2
 31
0.0
  0
LINE
  5
D3
100
AcDbEntity
  8
LAY-3
  6
CONTINUOUS
 62
     2
100
AcDbLine
 10
192.308333
 20
272.2
 30
0.0
 11
194.858333
 21
272.2
 31
0.0
  0
LINE
  5
D4
100
AcDbEntity
  8
LAY-3
  6
CONTINUOUS
 62
     2
100
AcDbLine
 10
142.808333
 20
271.825
 30
0.0
 11
145.433333
 21
271.825
 31
0.0
  0
LINE
  5
D5
100
AcDbEntity
  8
LAY-3
  6
CONTINUOUS
 62
     2
100
AcDbLine
 10
148.582605
 20
271.825
 30
0.0
 11
151.404572
 21
271.825
 31
0.0
  0
LINE
  5
D6
100
AcDbEntity
  8
LAY-3
  6
CONTINUOUS
 62
     2
100
AcDbLine
 10
152.803337
 20
271.825
 30
0.0
 11
159.81333
 21
271.825
 31
0.0
  0
LINE
  5
D7
100
AcDbEntity
  8
LAY-3
  6
CONTINUOUS
 62
     2
100
AcDbLine
 10
161.212095
 20
271.825
 30
0.0
 11
164.034061
 21
271.825
 31
0.0
  0
LINE
  5
D8
100
AcDbEntity
  8
LAY-3
  6
CONTINUOUS
 62
     2
100
AcDbLine
 10
168.151428
 20
271.825
 30
0.0
 11
171.044147
 21
271.825
 31
0.0
  0
LINE
  5
D9
100
AcDbEntity
  8
LAY-3
  6
CONTINUOUS
 62
     2
100
AcDbLine
 10
173.333333
 20
271.825
 30
0.0
 11
175.958333
 21
271.825
 31
0.0
  0
LINE
  5
DA
100
AcDbEntity
  8
LAY-3
  6
CONTINUOUS
 62
     2
100
AcDbLine
 10
184.508333
 20
271.825
 30
0.0
 11
187.058333
 21
271.825
 31
0.0
  0
LINE
  5
DB
100
AcDbEntity
  8
LAY-3
  6
CONTINUOUS
 62
     2
100
AcDbLine
 10
187.372672
 20
271.825
 30
0.0
 11
189.526164
 21
271.825
 31
0.0
  0
LINE
  5
DC
100
AcDbEntity
  8
LAY-3
  6
CONTINUOUS
 62
     2
100
AcDbLine
 10
192.308333
 20
271.825
 30
0.0
 11
194.858333
 21
271.825
 31
0.0
  0
LINE
  5
DD
100
AcDbEntity
  8
LAY-3
  6
CONTINUOUS
 62
     2
100
AcDbLine
 10
142.808333
 20
271.45
 30
0.0
 11
145.433333
 21
271.45
 31
0.0
  0
LINE
  5
DE
100
AcDbEntity
  8
LAY-3
  6
CONTINUOUS
 62
     2
100
AcDbLine
 10
148.501125
 20
271.45
 30
0.0
 11
151.27718
 21
271.45
 31
0.0
  0
LINE
  5
DF
100
AcDbEntity
  8
LAY-3
  6
CONTINUOUS
 62
     2
100
AcDbLine
 10
152.627216
 20
271.45
 30
0.0
 11
159.989451
 21
271.45
 31
0.0
  0
LINE
  5
E0
100
AcDbEntity
  8
LAY-3
  6
CONTINUOUS
 62
     2
100
AcDbLine
 10
161.339486
 20
271.45
 30
0.0
 11
164.115542
 21
271.45
 31
0.0
  0
LINE
  5
E1
100
AcDbEntity
  8
LAY-3
  6
CONTINUOUS
 62
     2
100
AcDbLine
 10
167.813365
 20
271.45
 30
0.0
 11
170.706085
 21
271.45
 31
0.0
  0
LINE
  5
E2
100
AcDbEntity
  8
LAY-3
  6
CONTINUOUS
 62
     2
100
AcDbLine
 10
173.333333
 20
271.45
 30
0.0
 11
175.958333
 21
271.45
 31
0.0
  0
LINE
  5
E3
100
AcDbEntity
  8
LAY-3
  6
CONTINUOUS
 62
     2
100
AcDbLine
 10
184.508333
 20
271.45
 30
0.0
 11
187.058333
 21
271.45
 31
0.0
  0
LINE
  5
E4
100
AcDbEntity
  8
LAY-3
  6
CONTINUOUS
 62
     2
100
AcDbLine
 10
187.619455
 20
271.45
 30
0.0
 11
189.772947
 21
271.45
 31
0.0
  0
LINE
  5
E5
100
AcDbEntity
  8
LAY-3
  6
CONTINUOUS
 62
     2
100
AcDbLine
 10
192.308333
 20
271.45
 30
0.0
 11
194.858333
 21
271.45
 31
0.0
  0
LINE
  5
E6
100
AcDbEntity
  8
LAY-3
  6
CONTINUOUS
 62
     2
100
AcDbLine
 10
142.808333
 20
271.075
 30
0.0
 11
145.433333
 21
271.075
 31
0.0
  0
LINE
  5
E7
100
AcDbEntity
  8
LAY-3
  6
CONTINUOUS
 62
     2
100
AcDbLine
 10
148.438335
 20
271.075
 30
0.0
 11
151.180285
 21
271.075
 31
0.0
  0
LINE
  5
E8
100
AcDbEntity
  8
LAY-3
  6
CONTINUOUS
 62
     2
100
AcDbLine
 10
152.495854
 20
271.075
 30
0.0
 11
160.120813
 21
271.075
 31
0.0
  0
LINE
  5
E9
100
AcDbEntity
  8
LAY-3
  6
CONTINUOUS
 62
     2
100
AcDbLine
 10
161.436381
 20
271.075
 30
0.0
 11
164.178332
 21
271.075
 31
0.0
  0
LINE
  5
EA
100
AcDbEntity
  8
LAY-3
  6
CONTINUOUS
 62
     2
100
AcDbLine
 10
167.475303
 20
271.075
 30
0.0
 11
170.368023
 21
271.075
 31
0.0
  0
LINE
  5
EB
100
AcDbEntity
  8
LAY-3
  6
CONTINUOUS
 62
     2
100
AcDbLine
 10
173.333333
 20
271.075
 30
0.0
 11
183.383333
 21
271.075
 31
0.0
  0
LINE
  5
EC
100
AcDbEntity
  8
LAY-3
  6
CONTINUOUS
 62
     2
100
AcDbLine
 10
184.508333
 20
271.075
 30
0.0
 11
187.058333
 21
271.075
 31
0.0
  0
LINE
  5
ED
100
AcDbEntity
  8
LAY-3
  6
CONTINUOUS
 62
     2
100
AcDbLine
 10
187.866238
 20
271.075
 30
0.0
 11
190.01973
 21
271.075
 31
0.0
  0
LINE
  5
EE
100
AcDbEntity
  8
LAY-3
  6
CONTINUOUS
 62
     2
100
AcDbLine
 10
192.308333
 20
271.075
 30
0.0
 11
194.858333
 21
271.075
 31
0.0
  0
LINE
  5
EF
100
AcDbEntity
  8
LAY-3
  6
CONTINUOUS
 62
     2
100
AcDbLine
 10
142.808333
 20
270.7
 30
0.0
 11
145.433333
 21
270.7
 31
0.0
  0
LINE
  5
F0
100
AcDbEntity
  8
LAY-3
  6
CONTINUOUS
 62
     2
100
AcDbLine
 10
148.39379
 20
270.7
 30
0.0
 11
151.112181
 21
270.7
 31
0.0
  0
LINE
  5
F1
100
AcDbEntity
  8
LAY-3
  6
CONTINUOUS
 62
     2
100
AcDbLine
 10
152.404729
 20
270.7
 30
0.0
 11
160.211937
 21
270.7
 31
0.0
  0
LINE
  5
F2
100
AcDbEntity
  8
LAY-3
  6
CONTINUOUS
 62
     2
100
AcDbLine
 10
161.504486
 20
270.7
 30
0.0
 11
164.222877
 21
270.7
 31
0.0
  0
LINE
  5
F3
100
AcDbEntity
  8
LAY-3
  6
CONTINUOUS
 62
     2
100
AcDbLine
 10
167.137241
 20
270.7
 30
0.0
 11
170.029961
 21
270.7
 31
0.0
  0
LINE
  5
F4
100
AcDbEntity
  8
LAY-3
  6
CONTINUOUS
 62
     2
100
AcDbLine
 10
173.333333
 20
270.7
 30
0.0
 11
183.383333
 21
270.7
 31
0.0
  0
LINE
  5
F5
100
AcDbEntity
  8
LAY-3
  6
CONTINUOUS
 62
     2
100
AcDbLine
 10
184.508333
 20
270.7
 30
0.0
 11
187.058333
 21
270.7
 31
0.0
  0
LINE
  5
F6
100
AcDbEntity
  8
LAY-3
  6
CONTINUOUS
 62
     2
100
AcDbLine
 10
188.113021
 20
270.7
 30
0.0
 11
190.266513
 21
270.7
 31
0.0
  0
LINE
  5
F7
100
AcDbEntity
  8
LAY-3
  6
CONTINUOUS
 62
     2
100
AcDbLine
 10
192.308333
 20
270.7
 30
0.0
 11
194.858333
 21
270.7
 31
0.0
  0
LINE
  5
F8
100
AcDbEntity
  8
LAY-3
  6
CONTINUOUS
 62
     2
100
AcDbLine
 10
142.808333
 20
270.325
 30
0.0
 11
145.433333
 21
270.325
 31
0.0
  0
LINE
  5
F9
100
AcDbEntity
  8
LAY-3
  6
CONTINUOUS
 62
     2
100
AcDbLine
 10
148.367183
 20
270.325
 30
0.0
 11
151.071743
 21
270.325
 31
0.0
  0
LINE
  5
FA
100
AcDbEntity
  8
LAY-3
  6
CONTINUOUS
 62
     2
100
AcDbLine
 10
152.351062
 20
270.325
 30
0.0
 11
160.265605
 21
270.325
 31
0.0
  0
LINE
  5
FB
100
AcDbEntity
  8
LAY-3
  6
CONTINUOUS
 62
     2
100
AcDbLine
 10
161.544923
 20
270.325
 30
0.0
 11
164.249484
 21
270.325
 31
0.0
  0
LINE
  5
FC
100
AcDbEntity
  8
LAY-3
  6
CONTINUOUS
 62
     2
100
AcDbLine
 10
166.799179
 20
270.325
 30
0.0
 11
169.691899
 21
270.325
 31
0.0
  0
LINE
  5
FD
100
AcDbEntity
  8
LAY-3
  6
CONTINUOUS
 62
     2
100
AcDbLine
 10
173.333333
 20
270.325
 30
0.0
 11
183.383333
 21
270.325
 31
0.0
  0
LINE
  5
FE
100
AcDbEntity
  8
LAY-3
  6
CONTINUOUS
 62
     2
100
AcDbLine
 10
184.508333
 20
270.325
 30
0.0
 11
187.058333
 21
270.325
 31
0.0
  0
LINE
  5
FF
100
AcDbEntity
  8
LAY-3
  6
CONTINUOUS
 62
     2
100
AcDbLine
 10
188.359804
 20
270.325
 30
0.0
 11
190.513297
 21
270.325
 31
0.0
  0
LINE
  5
100
100
AcDbEntity
  8
LAY-3
  6
CONTINUOUS
 62
     2
100
AcDbLine
 10
192.308333
 20
270.325
 30
0.0
 11
194.858333
 21
270.325
 31
0.0
  0
LINE
  5
101
100
AcDbEntity
  8
LAY-3
  6
CONTINUOUS
 62
     2
100
AcDbLine
 10
142.808333
 20
269.95
 30
0.0
 11
145.433333
 21
269.95
 31
0.0
  0
LINE
  5
102
100
AcDbEntity
  8
LAY-3
  6
CONTINUOUS
 62
     2
100
AcDbLine
 10
148.358333
 20
269.95
 30
0.0
 11
151.058333
 21
269.95
 31
0.0
  0
LINE
  5
103
100
AcDbEntity
  8
LAY-3
  6
CONTINUOUS
 62
     2
100
AcDbLine
 10
152.333333
 20
269.95
 30
0.0
 11
160.283333
 21
269.95
 31
0.0
  0
LINE
  5
104
100
AcDbEntity
  8
LAY-3
  6
CONTINUOUS
 62
     2
100
AcDbLine
 10
161.558333
 20
269.95
 30
0.0
 11
164.258333
 21
269.95
 31
0.0
  0
LINE
  5
105
100
AcDbEntity
  8
LAY-3
  6
CONTINUOUS
 62
     2
100
AcDbLine
 10
166.461117
 20
269.95
 30
0.0
 11
169.353837
 21
269.95
 31
0.0
  0
LINE
  5
106
100
AcDbEntity
  8
LAY-3
  6
CONTINUOUS
 62
     2
100
AcDbLine
 10
173.333333
 20
269.95
 30
0.0
 11
183.383333
 21
269.95
 31
0.0
  0
LINE
  5
107
100
AcDbEntity
  8
LAY-3
  6
CONTINUOUS
 62
     2
100
AcDbLine
 10
184.508333
 20
269.95
 30
0.0
 11
187.058333
 21
269.95
 31
0.0
  0
LINE
  5
108
100
AcDbEntity
  8
LAY-3
  6
CONTINUOUS
 62
     2
100
AcDbLine
 10
188.606587
 20
269.95
 30
0.0
 11
190.76008
 21
269.95
 31
0.0
  0
LINE
  5
109
100
AcDbEntity
  8
LAY-3
  6
CONTINUOUS
 62
     2
100
AcDbLine
 10
192.308333
 20
269.95
 30
0.0
 11
194.858333
 21
269.95
 31
0.0
  0
LINE
  5
10A
100
AcDbEntity
  8
LAY-3
  6
CONTINUOUS
 62
     2
100
AcDbLine
 10
142.808333
 20
269.575
 30
0.0
 11
145.433333
 21
269.575
 31
0.0
  0
LINE
  5
10B
100
AcDbEntity
  8
LAY-3
  6
CONTINUOUS
 62
     2
100
AcDbLine
 10
148.367183
 20
269.575
 30
0.0
 11
151.071743
 21
269.575
 31
0.0
  0
LINE
  5
10C
100
AcDbEntity
  8
LAY-3
  6
CONTINUOUS
 62
     2
100
AcDbLine
 10
152.351062
 20
269.575
 30
0.0
 11
160.265605
 21
269.575
 31
0.0
  0
LINE
  5
10D
100
AcDbEntity
  8
LAY-3
  6
CONTINUOUS
 62
     2
100
AcDbLine
 10
161.544923
 20
269.575
 30
0.0
 11
164.249484
 21
269.575
 31
0.0
  0
LINE
  5
10E
100
AcDbEntity
  8
LAY-3
  6
CONTINUOUS
 62
     2
100
AcDbLine
 10
166.123055
 20
269.575
 30
0.0
 11
169.015774
 21
269.575
 31
0.0
  0
LINE
  5
10F
100
AcDbEntity
  8
LAY-3
  6
CONTINUOUS
 62
     2
100
AcDbLine
 10
173.333333
 20
269.575
 30
0.0
 11
183.383333
 21
269.575
 31
0.0
  0
LINE
  5
110
100
AcDbEntity
  8
LAY-3
  6
CONTINUOUS
 62
     2
100
AcDbLine
 10
184.508333
 20
269.575
 30
0.0
 11
187.058333
 21
269.575
 31
0.0
  0
LINE
  5
111
100
AcDbEntity
  8
LAY-3
  6
CONTINUOUS
 62
     2
100
AcDbLine
 10
188.85337
 20
269.575
 30
0.0
 11
191.006863
 21
269.575
 31
0.0
  0
LINE
  5
112
100
AcDbEntity
  8
LAY-3
  6
CONTINUOUS
 62
     2
100
AcDbLine
 10
192.308333
 20
269.575
 30
0.0
 11
194.858333
 21
269.575
 31
0.0
  0
LINE
  5
113
100
AcDbEntity
  8
LAY-3
  6
CONTINUOUS
 62
     2
100
AcDbLine
 10
142.808333
 20
269.2
 30
0.0
 11
145.433333
 21
269.2
 31
0.0
  0
LINE
  5
114
100
AcDbEntity
  8
LAY-3
  6
CONTINUOUS
 62
     2
100
AcDbLine
 10
148.39379
 20
269.2
 30
0.0
 11
151.112181
 21
269.2
 31
0.0
  0
LINE
  5
115
100
AcDbEntity
  8
LAY-3
  6
CONTINUOUS
 62
     2
100
AcDbLine
 10
152.404729
 20
269.2
 30
0.0
 11
160.211937
 21
269.2
 31
0.0
  0
LINE
  5
116
100
AcDbEntity
  8
LAY-3
  6
CONTINUOUS
 62
     2
100
AcDbLine
 10
161.504486
 20
269.2
 30
0.0
 11
164.222877
 21
269.2
 31
0.0
  0
LINE
  5
117
100
AcDbEntity
  8
LAY-3
  6
CONTINUOUS
 62
     2
100
AcDbLine
 10
165.784993
 20
269.2
 30
0.0
 11
168.677712
 21
269.2
 31
0.0
  0
LINE
  5
118
100
AcDbEntity
  8
LAY-3
  6
CONTINUOUS
 62
     2
100
AcDbLine
 10
173.333333
 20
269.2
 30
0.0
 11
183.383333
 21
269.2
 31
0.0
  0
LINE
  5
119
100
AcDbEntity
  8
LAY-3
  6
CONTINUOUS
 62
     2
100
AcDbLine
 10
184.508333
 20
269.2
 30
0.0
 11
187.058333
 21
269.2
 31
0.0
  0
LINE
  5
11A
100
AcDbEntity
  8
LAY-3
  6
CONTINUOUS
 62
     2
100
AcDbLine
 10
189.100153
 20
269.2
 30
0.0
 11
191.253646
 21
269.2
 31
0.0
  0
LINE
  5
11B
100
AcDbEntity
  8
LAY-3
  6
CONTINUOUS
 62
     2
100
AcDbLine
 10
192.308333
 20
269.2
 30
0.0
 11
194.858333
 21
269.2
 31
0.0
  0
LINE
  5
11C
100
AcDbEntity
  8
LAY-3
  6
CONTINUOUS
 62
     2
100
AcDbLine
 10
142.808333
 20
268.825
 30
0.0
 11
145.433333
 21
268.825
 31
0.0
  0
LINE
  5
11D
100
AcDbEntity
  8
LAY-3
  6
CONTINUOUS
 62
     2
100
AcDbLine
 10
148.438335
 20
268.825
 30
0.0
 11
151.180285
 21
268.825
 31
0.0
  0
LINE
  5
11E
100
AcDbEntity
  8
LAY-3
  6
CONTINUOUS
 62
     2
100
AcDbLine
 10
152.495854
 20
268.825
 30
0.0
 11
160.120813
 21
268.825
 31
0.0
  0
LINE
  5
11F
100
AcDbEntity
  8
LAY-3
  6
CONTINUOUS
 62
     2
100
AcDbLine
 10
161.436381
 20
268.825
 30
0.0
 11
164.178332
 21
268.825
 31
0.0
  0
LINE
  5
120
100
AcDbEntity
  8
LAY-3
  6
CONTINUOUS
 62
     2
100
AcDbLine
 10
165.446931
 20
268.825
 30
0.0
 11
168.33965
 21
268.825
 31
0.0
  0
LINE
  5
121
100
AcDbEntity
  8
LAY-3
  6
CONTINUOUS
 62
     2
100
AcDbLine
 10
173.333333
 20
268.825
 30
0.0
 11
175.958333
 21
268.825
 31
0.0
  0
LINE
  5
122
100
AcDbEntity
  8
LAY-3
  6
CONTINUOUS
 62
     2
100
AcDbLine
 10
184.508333
 20
268.825
 30
0.0
 11
187.058333
 21
268.825
 31
0.0
  0
LINE
  5
123
100
AcDbEntity
  8
LAY-3
  6
CONTINUOUS
 62
     2
100
AcDbLine
 10
189.346936
 20
268.825
 30
0.0
 11
191.500429
 21
268.825
 31
0.0
  0
LINE
  5
124
100
AcDbEntity
  8
LAY-3
  6
CONTINUOUS
 62
     2
100
AcDbLine
 10
192.308333
 20
268.825
 30
0.0
 11
194.858333
 21
268.825
 31
0.0
  0
LINE
  5
125
100
AcDbEntity
  8
LAY-3
  6
CONTINUOUS
 62
     2
100
AcDbLine
 10
142.808333
 20
268.45
 30
0.0
 11
145.433333
 21
268.45
 31
0.0
  0
LINE
  5
126
100
AcDbEntity
  8
LAY-3
  6
CONTINUOUS
 62
     2
100
AcDbLine
 10
148.501125
 20
268.45
 30
0.0
 11
151.27718
 21
268.45
 31
0.0
  0
LINE
  5
127
100
AcDbEntity
  8
LAY-3
  6
CONTINUOUS
 62
     2
100
AcDbLine
 10
152.627216
 20
268.45
 30
0.0
 11
159.989451
 21
268.45
 31
0.0
  0
LINE
  5
128
100
AcDbEntity
  8
LAY-3
  6
CONTINUOUS
 62
     2
100
AcDbLine
 10
161.339486
 20
268.45
 30
0.0
 11
164.115542
 21
268.45
 31
0.0
  0
LINE
  5
129
100
AcDbEntity
  8
LAY-3
  6
CONTINUOUS
 62
     2
100
AcDbLine
 10
165.108869
 20
268.45
 30
0.0
 11
168.001588
 21
268.45
 31
0.0
  0
LINE
  5
12A
100
AcDbEntity
  8
LAY-3
  6
CONTINUOUS
 62
     2
100
AcDbLine
 10
173.333333
 20
268.45
 30
0.0
 11
175.958333
 21
268.45
 31
0.0
  0
LINE
  5
12B
100
AcDbEntity
  8
LAY-3
  6
CONTINUOUS
 62
     2
100
AcDbLine
 10
184.508333
 20
268.45
 30
0.0
 11
187.058333
 21
268.45
 31
0.0
  0
LINE
  5
12C
100
AcDbEntity
  8
LAY-3
  6
CONTINUOUS
 62
     2
100
AcDbLine
 10
189.593719
 20
268.45
 30
0.0
 11
191.747212
 21
268.45
 31
0.0
  0
LINE
  5
12D
100
AcDbEntity
  8
LAY-3
  6
CONTINUOUS
 62
     2
100
AcDbLine
 10
192.308333
 20
268.45
 30
0.0
 11
194.858333
 21
268.45
 31
0.0
  0
LINE
  5
12E
100
AcDbEntity
  8
LAY-3
  6
CONTINUOUS
 62
     2
100
AcDbLine
 10
142.808333
 20
268.075
 30
0.0
 11
145.433333
 21
268.075
 31
0.0
  0
LINE
  5
12F
100
AcDbEntity
  8
LAY-3
  6
CONTINUOUS
 62
     2
100
AcDbLine
 10
148.582605
 20
268.075
 30
0.0
 11
151.404572
 21
268.075
 31
0.0
  0
LINE
  5
130
100
AcDbEntity
  8
LAY-3
  6
CONTINUOUS
 62
     2
100
AcDbLine
 10
152.803337
 20
268.075
 30
0.0
 11
159.81333
 21
268.075
 31
0.0
  0
LINE
  5
131
100
AcDbEntity
  8
LAY-3
  6
CONTINUOUS
 62
     2
100
AcDbLine
 10
161.212095
 20
268.075
 30
0.0
 11
164.034061
 21
268.075
 31
0.0
  0
LINE
  5
132
100
AcDbEntity
  8
LAY-3
  6
CONTINUOUS
 62
     2
100
AcDbLine
 10
164.826868
 20
268.075
 30
0.0
 11
167.663526
 21
268.075
 31
0.0
  0
LINE
  5
133
100
AcDbEntity
  8
LAY-3
  6
CONTINUOUS
 62
     2
100
AcDbLine
 10
173.333333
 20
268.075
 30
0.0
 11
175.958333
 21
268.075
 31
0.0
  0
LINE
  5
134
100
AcDbEntity
  8
LAY-3
  6
CONTINUOUS
 62
     2
100
AcDbLine
 10
184.508333
 20
268.075
 30
0.0
 11
187.058333
 21
268.075
 31
0.0
  0
LINE
  5
135
100
AcDbEntity
  8
LAY-3
  6
CONTINUOUS
 62
     2
100
AcDbLine
 10
189.840502
 20
268.075
 30
0.0
 11
191.993995
 21
268.075
 31
0.0
  0
LINE
  5
136
100
AcDbEntity
  8
LAY-3
  6
CONTINUOUS
 62
     2
100
AcDbLine
 10
192.308333
 20
268.075
 30
0.0
 11
194.858333
 21
268.075
 31
0.0
  0
LINE
  5
137
100
AcDbEntity
  8
LAY-3
  6
CONTINUOUS
 62
     2
100
AcDbLine
 10
142.808333
 20
267.7
 30
0.0
 11
145.433333
 21
267.7
 31
0.0
  0
LINE
  5
138
100
AcDbEntity
  8
LAY-3
  6
CONTINUOUS
 62
     2
100
AcDbLine
 10
148.683374
 20
267.7
 30
0.0
 11
151.564917
 21
267.7
 31
0.0
  0
LINE
  5
139
100
AcDbEntity
  8
LAY-3
  6
CONTINUOUS
 62
     2
100
AcDbLine
 10
153.031425
 20
267.7
 30
0.0
 11
159.585241
 21
267.7
 31
0.0
  0
LINE
  5
13A
100
AcDbEntity
  8
LAY-3
  6
CONTINUOUS
 62
     2
100
AcDbLine
 10
161.05175
 20
267.7
 30
0.0
 11
163.933292
 21
267.7
 31
0.0
  0
LINE
  5
13B
100
AcDbEntity
  8
LAY-3
  6
CONTINUOUS
 62
     2
100
AcDbLine
 10
164.735584
 20
267.7
 30
0.0
 11
167.325464
 21
267.7
 31
0.0
  0
LINE
  5
13C
100
AcDbEntity
  8
LAY-3
  6
CONTINUOUS
 62
     2
100
AcDbLine
 10
173.333333
 20
267.7
 30
0.0
 11
175.958333
 21
267.7
 31
0.0
  0
LINE
  5
13D
100
AcDbEntity
  8
LAY-3
  6
CONTINUOUS
 62
     2
100
AcDbLine
 10
184.508333
 20
267.7
 30
0.0
 11
187.058333
 21
267.7
 31
0.0
  0
LINE
  5
13E
100
AcDbEntity
  8
LAY-3
  6
CONTINUOUS
 62
     2
100
AcDbLine
 10
190.087286
 20
267.7
 30
0.0
 11
192.240778
 21
267.7
 31
0.0
  0
LINE
  5
13F
100
AcDbEntity
  8
LAY-3
  6
CONTINUOUS
 62
     2
100
AcDbLine
 10
192.308333
 20
267.7
 30
0.0
 11
194.858333
 21
267.7
 31
0.0
  0
LINE
  5
140
100
AcDbEntity
  8
LAY-3
  6
CONTINUOUS
 62
     2
100
AcDbLine
 10
142.808333
 20
267.325
 30
0.0
 11
145.433333
 21
267.325
 31
0.0
  0
LINE
  5
141
100
AcDbEntity
  8
LAY-3
  6
CONTINUOUS
 62
     2
100
AcDbLine
 10
148.804209
 20
267.325
 30
0.0
 11
151.7617
 21
267.325
 31
0.0
  0
LINE
  5
142
100
AcDbEntity
  8
LAY-3
  6
CONTINUOUS
 62
     2
100
AcDbLine
 10
153.323371
 20
267.325
 30
0.0
 11
159.293296
 21
267.325
 31
0.0
  0
LINE
  5
143
100
AcDbEntity
  8
LAY-3
  6
CONTINUOUS
 62
     2
100
AcDbLine
 10
160.854967
 20
267.325
 30
0.0
 11
163.812457
 21
267.325
 31
0.0
  0
LINE
  5
144
100
AcDbEntity
  8
LAY-3
  6
CONTINUOUS
 62
     2
100
AcDbLine
 10
164.626412
 20
267.325
 30
0.0
 11
166.987402
 21
267.325
 31
0.0
  0
LINE
  5
145
100
AcDbEntity
  8
LAY-3
  6
CONTINUOUS
 62
     2
100
AcDbLine
 10
173.333333
 20
267.325
 30
0.0
 11
175.958333
 21
267.325
 31
0.0
  0
LINE
  5
146
100
AcDbEntity
  8
LAY-3
  6
CONTINUOUS
 62
     2
100
AcDbLine
 10
184.508333
 20
267.325
 30
0.0
 11
187.058333
 21
267.325
 31
0.0
  0
LINE
  5
147
100
AcDbEntity
  8
LAY-3
  6
CONTINUOUS
 62
     2
100
AcDbLine
 10
190.334069
 20
267.325
 30
0.0
 11
194.858333
 21
267.325
 31
0.0
  0
LINE
  5
148
100
AcDbEntity
  8
LAY-3
  6
CONTINUOUS
 62
     2
100
AcDbLine
 10
142.808333
 20
266.95
 30
0.0
 11
145.433333
 21
266.95
 31
0.0
  0
LINE
  5
149
100
AcDbEntity
  8
LAY-3
  6
CONTINUOUS
 62
     2
100
AcDbLine
 10
148.946099
 20
266.95
 30
0.0
 11
151.999911
 21
266.95
 31
0.0
  0
LINE
  5
14A
100
AcDbEntity
  8
LAY-3
  6
CONTINUOUS
 62
     2
100
AcDbLine
 10
153.700533
 20
266.95
 30
0.0
 11
158.916134
 21
266.95
 31
0.0
  0
LINE
  5
14B
100
AcDbEntity
  8
LAY-3
  6
CONTINUOUS
 62
     2
100
AcDbLine
 10
160.616755
 20
266.95
 30
0.0
 11
163.670568
 21
266.95
 31
0.0
  0
LINE
  5
14C
100
AcDbEntity
  8
LAY-3
  6
CONTINUOUS
 62
     2
100
AcDbLine
 10
164.498636
 20
266.95
 30
0.0
 11
172.058333
 21
266.95
 31
0.0
  0
LINE
  5
14D
100
AcDbEntity
  8
LAY-3
  6
CONTINUOUS
 62
     2
100
AcDbLine
 10
173.333333
 20
266.95
 30
0.0
 11
183.383333
 21
266.95
 31
0.0
  0
LINE
  5
14E
100
AcDbEntity
  8
LAY-3
  6
CONTINUOUS
 62
     2
100
AcDbLine
 10
184.508333
 20
266.95
 30
0.0
 11
187.058333
 21
266.95
 31
0.0
  0
LINE
  5
14F
100
AcDbEntity
  8
LAY-3
  6
CONTINUOUS
 62
     2
100
AcDbLine
 10
190.580852
 20
266.95
 30
0.0
 11
194.858333
 21
266.95
 31
0.0
  0
LINE
  5
150
100
AcDbEntity
  8
LAY-3
  6
CONTINUOUS
 62
     2
100
AcDbLine
 10
142.808333
 20
266.575
 30
0.0
 11
145.433333
 21
266.575
 31
0.0
  0
LINE
  5
151
100
AcDbEntity
  8
LAY-3
  6
CONTINUOUS
 62
     2
100
AcDbLine
 10
149.110287
 20
266.575
 30
0.0
 11
152.286906
 21
266.575
 31
0.0
  0
LINE
  5
152
100
AcDbEntity
  8
LAY-3
  6
CONTINUOUS
 62
     2
100
AcDbLine
 10
154.208333
 20
266.575
 30
0.0
 11
158.408333
 21
266.575
 31
0.0
  0
LINE
  5
153
100
AcDbEntity
  8
LAY-3
  6
CONTINUOUS
 62
     2
100
AcDbLine
 10
160.32976
 20
266.575
 30
0.0
 11
163.50638
 21
266.575
 31
0.0
  0
LINE
  5
154
100
AcDbEntity
  8
LAY-3
  6
CONTINUOUS
 62
     2
100
AcDbLine
 10
164.351369
 20
266.575
 30
0.0
 11
172.058333
 21
266.575
 31
0.0
  0
LINE
  5
155
100
AcDbEntity
  8
LAY-3
  6
CONTINUOUS
 62
     2
100
AcDbLine
 10
173.333333
 20
266.575
 30
0.0
 11
183.383333
 21
266.575
 31
0.0
  0
LINE
  5
156
100
AcDbEntity
  8
LAY-3
  6
CONTINUOUS
 62
     2
100
AcDbLine
 10
184.508333
 20
266.575
 30
0.0
 11
187.058333
 21
266.575
 31
0.0
  0
LINE
  5
157
100
AcDbEntity
  8
LAY-3
  6
CONTINUOUS
 62
     2
100
AcDbLine
 10
190.827635
 20
266.575
 30
0.0
 11
194.858333
 21
266.575
 31
0.0
  0
LINE
  5
158
100
AcDbEntity
  8
LAY-3
  6
CONTINUOUS
 62
     2
100
AcDbLine
 10
142.808333
 20
266.2
 30
0.0
 11
145.433333
 21
266.2
 31
0.0
  0
LINE
  5
159
100
AcDbEntity
  8
LAY-3
  6
CONTINUOUS
 62
     2
100
AcDbLine
 10
149.29834
 20
266.2
 30
0.0
 11
152.634099
 21
266.2
 31
0.0
  0
LINE
  5
15A
100
AcDbEntity
  8
LAY-3
  6
CONTINUOUS
 62
     2
100
AcDbLine
 10
154.989954
 20
266.2
 30
0.0
 11
157.626713
 21
266.2
 31
0.0
  0
LINE
  5
15B
100
AcDbEntity
  8
LAY-3
  6
CONTINUOUS
 62
     2
100
AcDbLine
 10
159.982568
 20
266.2
 30
0.0
 11
163.318326
 21
266.2
 31
0.0
  0
LINE
  5
15C
100
AcDbEntity
  8
LAY-3
  6
CONTINUOUS
 62
     2
100
AcDbLine
 10
164.183519
 20
266.2
 30
0.0
 11
172.058333
 21
266.2
 31
0.0
  0
LINE
  5
15D
100
AcDbEntity
  8
LAY-3
  6
CONTINUOUS
 62
     2
100
AcDbLine
 10
173.333333
 20
266.2
 30
0.0
 11
183.383333
 21
266.2
 31
0.0
  0
LINE
  5
15E
100
AcDbEntity
  8
LAY-3
  6
CONTINUOUS
 62
     2
100
AcDbLine
 10
184.508333
 20
266.2
 30
0.0
 11
187.058333
 21
266.2
 31
0.0
  0
LINE
  5
15F
100
AcDbEntity
  8
LAY-3
  6
CONTINUOUS
 62
     2
100
AcDbLine
 10
191.074418
 20
266.2
 30
0.0
 11
194.858333
 21
266.2
 31
0.0
  0
LINE
  5
160
100
AcDbEntity
  8
LAY-3
  6
CONTINUOUS
 62
     2
100
AcDbLine
 10
142.808333
 20
265.825
 30
0.0
 11
145.433333
 21
265.825
 31
0.0
  0
LINE
  5
161
100
AcDbEntity
  8
LAY-3
  6
CONTINUOUS
 62
     2
100
AcDbLine
 10
149.512241
 20
265.825
 30
0.0
 11
153.060738
 21
265.825
 31
0.0
  0
LINE
  5
162
100
AcDbEntity
  8
LAY-3
  6
CONTINUOUS
 62
     2
100
AcDbLine
 10
159.555929
 20
265.825
 30
0.0
 11
163.104426
 21
265.825
 31
0.0
  0
LINE
  5
163
100
AcDbEntity
  8
LAY-3
  6
CONTINUOUS
 62
     2
100
AcDbLine
 10
163.993737
 20
265.825
 30
0.0
 11
172.058333
 21
265.825
 31
0.0
  0
LINE
  5
164
100
AcDbEntity
  8
LAY-3
  6
CONTINUOUS
 62
     2
100
AcDbLine
 10
173.333333
 20
265.825
 30
0.0
 11
183.383333
 21
265.825
 31
0.0
  0
LINE
  5
165
100
AcDbEntity
  8
LAY-3
  6
CONTINUOUS
 62
     2
100
AcDbLine
 10
184.508333
 20
265.825
 30
0.0
 11
187.058333
 21
265.825
 31
0.0
  0
LINE
  5
166
100
AcDbEntity
  8
LAY-3
  6
CONTINUOUS
 62
     2
100
AcDbLine
 10
191.321201
 20
265.825
 30
0.0
 11
194.858333
 21
265.825
 31
0.0
  0
LINE
  5
167
100
AcDbEntity
  8
LAY-3
  6
CONTINUOUS
 62
     2
100
AcDbLine
 10
142.808333
 20
265.45
 30
0.0
 11
145.433333
 21
265.45
 31
0.0
  0
LINE
  5
168
100
AcDbEntity
  8
LAY-3
  6
CONTINUOUS
 62
     2
100
AcDbLine
 10
149.754518
 20
265.45
 30
0.0
 11
153.60417
 21
265.45
 31
0.0
  0
LINE
  5
169
100
AcDbEntity
  8
LAY-3
  6
CONTINUOUS
 62
     2
100
AcDbLine
 10
159.012497
 20
265.45
 30
0.0
 11
162.862149
 21
265.45
 31
0.0
  0
LINE
  5
16A
100
AcDbEntity
  8
LAY-3
  6
CONTINUOUS
 62
     2
100
AcDbLine
 10
163.780351
 20
265.45
 30
0.0
 11
172.058333
 21
265.45
 31
0.0
  0
LINE
  5
16B
100
AcDbEntity
  8
LAY-3
  6
CONTINUOUS
 62
     2
100
AcDbLine
 10
173.333333
 20
265.45
 30
0.0
 11
183.383333
 21
265.45
 31
0.0
  0
LINE
  5
16C
100
AcDbEntity
  8
LAY-3
  6
CONTINUOUS
 62
     2
100
AcDbLine
 10
184.508333
 20
265.45
 30
0.0
 11
187.058333
 21
265.45
 31
0.0
  0
LINE
  5
16D
100
AcDbEntity
  8
LAY-3
  6
CONTINUOUS
 62
     2
100
AcDbLine
 10
191.567984
 20
265.45
 30
0.0
 11
194.858333
 21
265.45
 31
0.0
  0
LINE
  5
16E
100
AcDbEntity
  8
LAY-3
  6
CONTINUOUS
 62
     2
100
AcDbLine
 10
142.808333
 20
265.075
 30
0.0
 11
145.433333
 21
265.075
 31
0.0
  0
LINE
  5
16F
100
AcDbEntity
  8
LAY-3
  6
CONTINUOUS
 62
     2
100
AcDbLine
 10
150.028455
 20
265.075
 30
0.0
 11
154.359776
 21
265.075
 31
0.0
  0
LINE
  5
170
100
AcDbEntity
  8
LAY-3
  6
CONTINUOUS
 62
     2
100
AcDbLine
 10
158.25689
 20
265.075
 30
0.0
 11
162.588212
 21
265.075
 31
0.0
  0
LINE
  5
171
100
AcDbEntity
  8
LAY-3
  6
CONTINUOUS
 62
     2
100
AcDbLine
 10
163.541274
 20
265.075
 30
0.0
 11
172.058333
 21
265.075
 31
0.0
  0
LINE
  5
172
100
AcDbEntity
  8
LAY-3
  6
CONTINUOUS
 62
     2
100
AcDbLine
 10
173.333333
 20
265.075
 30
0.0
 11
183.383333
 21
265.075
 31
0.0
  0
LINE
  5
173
100
AcDbEntity
  8
LAY-3
  6
CONTINUOUS
 62
     2
100
AcDbLine
 10
184.508333
 20
265.075
 30
0.0
 11
187.058333
 21
265.075
 31
0.0
  0
LINE
  5
174
100
AcDbEntity
  8
LAY-3
  6
CONTINUOUS
 62
     2
100
AcDbLine
 10
191.814767
 20
265.075
 30
0.0
 11
194.858333
 21
265.075
 31
0.0
  0
LINE
  5
175
100
AcDbEntity
  8
LAY-3
  6
CONTINUOUS
 62
     2
100
AcDbLine
 10
142.808333
 20
264.7
 30
0.0
 11
145.433333
 21
264.7
 31
0.0
  0
LINE
  5
176
100
AcDbEntity
  8
LAY-3
  6
CONTINUOUS
 62
     2
100
AcDbLine
 10
150.338409
 20
264.7
 30
0.0
 11
162.278258
 21
264.7
 31
0.0
  0
LINE
  5
177
100
AcDbEntity
  8
LAY-3
  6
CONTINUOUS
 62
     2
100
AcDbLine
 10
163.273859
 20
264.7
 30
0.0
 11
172.058333
 21
264.7
 31
0.0
  0
LINE
  5
178
100
AcDbEntity
  8
LAY-3
  6
CONTINUOUS
 62
     2
100
AcDbLine
 10
173.333333
 20
264.7
 30
0.0
 11
183.383333
 21
264.7
 31
0.0
  0
LINE
  5
179
100
AcDbEntity
  8
LAY-3
  6
CONTINUOUS
 62
     2
100
AcDbLine
 10
184.508333
 20
264.7
 30
0.0
 11
187.058333
 21
264.7
 31
0.0
  0
LINE
  5
17A
100
AcDbEntity
  8
LAY-3
  6
CONTINUOUS
 62
     2
100
AcDbLine
 10
192.06155
 20
264.7
 30
0.0
 11
194.858333
 21
264.7
 31
0.0
  0
LINE
  5
17B
100
AcDbEntity
  8
LAY-3
  6
CONTINUOUS
 62
     2
100
AcDbLine
 10
150.690338
 20
264.325
 30
0.0
 11
161.926329
 21
264.325
 31
0.0
  0
LINE
  5
17C
100
AcDbEntity
  8
LAY-3
  6
CONTINUOUS
 62
     2
100
AcDbLine
 10
151.092732
 20
263.95
 30
0.0
 11
161.523935
 21
263.95
 31
0.0
  0
LINE
  5
17D
100
AcDbEntity
  8
LAY-3
  6
CONTINUOUS
 62
     2
100
AcDbLine
 10
151.558399
 20
263.575
 30
0.0
 11
161.058268
 21
263.575
 31
0.0
  0
LINE
  5
17E
100
AcDbEntity
  8
LAY-3
  6
CONTINUOUS
 62
     2
100
AcDbLine
 10
152.108333
 20
263.2
 30
0.0
 11
160.508333
 21
263.2
 31
0.0
  0
LINE
  5
17F
100
AcDbEntity
  8
LAY-3
  6
CONTINUOUS
 62
     2
100
AcDbLine
 10
152.781738
 20
262.825
 30
0.0
 11
159.834929
 21
262.825
 31
0.0
  0
LINE
  5
180
100
AcDbEntity
  8
LAY-3
  6
CONTINUOUS
 62
     2
100
AcDbLine
 10
153.671574
 20
262.45
 30
0.0
 11
158.945093
 21
262.45
 31
0.0
  0
LINE
  5
181
100
AcDbEntity
  8
LAY-3
  6
CONTINUOUS
 62
     2
100
AcDbLine
 10
155.218895
 20
262.075
 30
0.0
 11
157.397771
 21
262.075
 31
0.0
  0
LINE
  5
182
100
AcDbEntity
  8
LAY-3
  6
EXLTYPE3
 62
     1
100
AcDbLine
 10
65.1
 20
207.45
 30
0.0
 11
81.4
 21
207.45
 31
0.0
  0
LINE
  5
183
100
AcDbEntity
  8
LAY-3
  6
CONTINUOUS
 62
     3
100
AcDbLine
 10
66.8
 20
212.45
 30
0.0
 11
66.8
 21
202.45
 31
0.0
  0
LINE
  5
184
100
AcDbEntity
  8
LAY-3
  6
CONTINUOUS
 62
     3
100
AcDbLine
 10
78.4
 20
212.45
 30
0.0
 11
78.4
 21
202.45
 31
0.0
  0
LINE
  5
185
100
AcDbEntity
  8
LAY-3
  6
CONTINUOUS
 62
     3
100
AcDbLine
 10
66.8
 20
212.45
 30
0.0
 11
68.2
 21
212.45
 31
0.0
  0
LINE
  5
186
100
AcDbEntity
  8
LAY-3
  6
CONTINUOUS
 62
     3
100
AcDbLine
 10
66.8
 20
202.45
 30
0.0
 11
68.2
 21
202.45
 31
0.0
  0
LINE
  5
187
100
AcDbEntity
  8
LAY-3
  6
CONTINUOUS
 62
     3
100
AcDbLine
 10
77.0
 20
212.45
 30
0.0
 11
78.4
 21
212.45
 31
0.0
  0
LINE
  5
188
100
AcDbEntity
  8
LAY-3
  6
CONTINUOUS
 62
     3
100
AcDbLine
 10
77.0
 20
202.45
 30
0.0
 11
78.4
 21
202.45
 31
0.0
  0
LINE
  5
189
100
AcDbEntity
  8
LAY-3
  6
CONTINUOUS
 62
     3
100
AcDbLine
 10
77.0
 20
212.45
 30
0.0
 11
77.0
 21
202.45
 31
0.0
  0
LINE
  5
18A
100
AcDbEntity
  8
LAY-3
  6
CONTINUOUS
 62
     3
100
AcDbLine
 10
68.2
 20
212.45
 30
0.0
 11
68.2
 21
202.45
 31
0.0
  0
LINE
  5
18B
100
AcDbEntity
  8
LAY-3
  6
CONTINUOUS
 62
     3
100
AcDbLine
 10
66.6
 20
210.15
 30
0.0
 11
66.6
 21
204.75
 31
0.0
  0
LINE
  5
18C
100
AcDbEntity
  8
LAY-3
  6
CONTINUOUS
 62
     3
100
AcDbLine
 10
78.6
 20
210.15
 30
0.0
 11
78.6
 21
204.75
 31
0.0
  0
ARC
  5
18D
100
AcDbEntity
  8
LAY-3
  6
CONTINUOUS
 62
     3
100
AcDbCircle
 10
66.8
 20
204.75
 30
0.0
 40
0.2
100
AcDbArc
 50
180.0
 51
270.0
  0
ARC
  5
18E
100
AcDbEntity
  8
LAY-3
  6
CONTINUOUS
 62
     3
100
AcDbCircle
 10
66.8
 20
210.15
 30
0.0
 40
0.2
100
AcDbArc
 50
90.0
 51
180.0
  0
ARC
  5
18F
100
AcDbEntity
  8
LAY-3
  6
CONTINUOUS
 62
     3
100
AcDbCircle
 10
78.4
 20
204.75
 30
0.0
 40
0.2
100
AcDbArc
 50
270.0
 51
0.0
  0
ARC
  5
190
100
AcDbEntity
  8
LAY-3
  6
CONTINUOUS
 62
     3
100
AcDbCircle
 10
78.4
 20
210.15
 30
0.0
 40
0.2
100
AcDbArc
 50
0.0
 51
90.0
  0
LINE
  5
191
100
AcDbEntity
  8
LAY-3
  6
CONTINUOUS
 62
     3
100
AcDbLine
 10
68.914535
 20
205.71
 30
0.0
 11
68.2
 21
205.71
 31
0.0
  0
LINE
  5
192
100
AcDbEntity
  8
LAY-3
  6
CONTINUOUS
 62
     3
100
AcDbLine
 10
76.154835
 20
205.71
 30
0.0
 11
77.0
 21
205.71
 31
0.0
  0
LINE
  5
193
100
AcDbEntity
  8
LAY-3
  6
CONTINUOUS
 62
     3
100
AcDbLine
 10
76.285465
 20
209.19
 30
0.0
 11
77.0
 21
209.19
 31
0.0
  0
LINE
  5
194
100
AcDbEntity
  8
LAY-3
  6
CONTINUOUS
 62
     3
100
AcDbLine
 10
68.879246
 20
209.19
 30
0.0
 11
68.2
 21
209.19
 31
0.0
  0
TEXT
  5
195
100
AcDbEntity
  8
LAY-3
  6
CONTINUOUS
 62
     7
100
AcDbText
 10
43.118333
 20
238.301774
 30
0.0
 40
8.0
  1
２０Ａ×１２０Ｌ
 41
0.748125
  7
EXCADSTD
 72
     5
 11
100.118333
 21
238.301774
 31
0.0
100
AcDbText
  0
LINE
  5
196
100
AcDbEntity
  8
LAY-3
  6
EXLTYPE3
 62
     1
100
AcDbLine
 10
128.383333
 20
207.45
 30
0.0
 11
144.683333
 21
207.45
 31
0.0
  0
LINE
  5
197
100
AcDbEntity
  8
LAY-3
  6
CONTINUOUS
 62
     3
100
AcDbLine
 10
131.483333
 20
213.7
 30
0.0
 11
131.483333
 21
201.2
 31
0.0
  0
LINE
  5
198
100
AcDbEntity
  8
LAY-3
  6
CONTINUOUS
 62
     3
100
AcDbLine
 10
130.083333
 20
213.7
 30
0.0
 11
130.083333
 21
201.2
 31
0.0
  0
LINE
  5
199
100
AcDbEntity
  8
LAY-3
  6
CONTINUOUS
 62
     3
100
AcDbLine
 10
130.083333
 20
213.7
 30
0.0
 11
131.483333
 21
213.7
 31
0.0
  0
LINE
  5
19A
100
AcDbEntity
  8
LAY-3
  6
CONTINUOUS
 62
     3
100
AcDbLine
 10
130.083333
 20
201.2
 30
0.0
 11
131.483333
 21
201.2
 31
0.0
  0
ARC
  5
19B
100
AcDbEntity
  8
LAY-3
  6
CONTINUOUS
 62
     3
100
AcDbCircle
 10
130.083333
 20
204.75
 30
0.0
 40
0.2
100
AcDbArc
 50
180.0
 51
270.0
  0
LINE
  5
19C
100
AcDbEntity
  8
LAY-3
  6
CONTINUOUS
 62
     3
100
AcDbLine
 10
129.883333
 20
210.15
 30
0.0
 11
129.883333
 21
204.75
 31
0.0
  0
ARC
  5
19D
100
AcDbEntity
  8
LAY-3
  6
CONTINUOUS
 62
     3
100
AcDbCircle
 10
130.083333
 20
210.15
 30
0.0
 40
0.2
100
AcDbArc
 50
90.0
 51
180.0
  0
LINE
  5
19E
100
AcDbEntity
  8
LAY-3
  6
CONTINUOUS
 62
     3
100
AcDbLine
 10
140.283333
 20
213.7
 30
0.0
 11
140.283333
 21
201.2
 31
0.0
  0
LINE
  5
19F
100
AcDbEntity
  8
LAY-3
  6
CONTINUOUS
 62
     3
100
AcDbLine
 10
141.683333
 20
213.7
 30
0.0
 11
141.683333
 21
201.2
 31
0.0
  0
LINE
  5
1A0
100
AcDbEntity
  8
LAY-3
  6
CONTINUOUS
 62
     3
100
AcDbLine
 10
140.283333
 20
213.7
 30
0.0
 11
141.683333
 21
213.7
 31
0.0
  0
LINE
  5
1A1
100
AcDbEntity
  8
LAY-3
  6
CONTINUOUS
 62
     3
100
AcDbLine
 10
140.283333
 20
201.2
 30
0.0
 11
141.683333
 21
201.2
 31
0.0
  0
ARC
  5
1A2
100
AcDbEntity
  8
LAY-3
  6
CONTINUOUS
 62
     3
100
AcDbCircle
 10
141.683333
 20
204.75
 30
0.0
 40
0.2
100
AcDbArc
 50
270.0
 51
0.0
  0
LINE
  5
1A3
100
AcDbEntity
  8
LAY-3
  6
CONTINUOUS
 62
     3
100
AcDbLine
 10
141.883333
 20
210.15
 30
0.0
 11
141.883333
 21
204.75
 31
0.0
  0
ARC
  5
1A4
100
AcDbEntity
  8
LAY-3
  6
CONTINUOUS
 62
     3
100
AcDbCircle
 10
141.683333
 20
210.15
 30
0.0
 40
0.2
100
AcDbArc
 50
0.0
 51
90.0
  0
TEXT
  5
1A5
100
AcDbEntity
  8
LAY-3
  6
CONTINUOUS
 62
     7
100
AcDbText
 10
111.181675
 20
238.72
 30
0.0
 40
7.5
  1
２５Ａ×１２０Ｌ
 41
0.7126
  7
EXCADSTD
 72
     5
 11
162.081677
 21
238.72
 31
0.0
100
AcDbText
  0
LINE
  5
1A6
100
AcDbEntity
  8
LAY-3
  6
EXLTYPE3
 62
     1
100
AcDbLine
 10
188.766667
 20
207.45
 30
0.0
 11
209.866667
 21
207.45
 31
0.0
  0
LINE
  5
1A7
100
AcDbEntity
  8
LAY-3
  6
EXLTYPE3
 62
     1
100
AcDbLine
 10
379.496667
 20
207.45
 30
0.0
 11
399.596667
 21
207.45
 31
0.0
  0
LINE
  5
1A8
100
AcDbEntity
  8
LAY-3
  6
CONTINUOUS
 62
     3
100
AcDbLine
 10
190.933325
 20
214.648226
 30
0.0
 11
190.933325
 21
201.048226
 31
0.0
  0
LINE
  5
1A9
100
AcDbEntity
  8
LAY-3
  6
CONTINUOUS
 62
     3
100
AcDbLine
 10
192.533325
 20
214.648226
 30
0.0
 11
192.533325
 21
201.048226
 31
0.0
  0
LINE
  5
1AA
100
AcDbEntity
  8
LAY-3
  6
CONTINUOUS
 62
     3
100
AcDbLine
 10
190.733325
 20
211.648226
 30
0.0
 11
190.733325
 21
204.048226
 31
0.0
  0
LINE
  5
1AB
100
AcDbEntity
  8
LAY-3
  6
CONTINUOUS
 62
     3
100
AcDbLine
 10
208.233325
 20
211.648226
 30
0.0
 11
208.233325
 21
204.048226
 31
0.0
  0
LINE
  5
1AC
100
AcDbEntity
  8
LAY-3
  6
CONTINUOUS
 62
     3
100
AcDbLine
 10
208.033325
 20
214.648226
 30
0.0
 11
208.033325
 21
201.048226
 31
0.0
  0
LINE
  5
1AD
100
AcDbEntity
  8
LAY-3
  6
CONTINUOUS
 62
     3
100
AcDbLine
 10
206.433325
 20
214.648226
 30
0.0
 11
206.433325
 21
201.048226
 31
0.0
  0
LINE
  5
1AE
100
AcDbEntity
  8
LAY-3
  6
CONTINUOUS
 62
     3
100
AcDbLine
 10
190.933325
 20
214.648226
 30
0.0
 11
192.533325
 21
214.648226
 31
0.0
  0
LINE
  5
1AF
100
AcDbEntity
  8
LAY-3
  6
CONTINUOUS
 62
     3
100
AcDbLine
 10
190.933325
 20
201.048226
 30
0.0
 11
192.533325
 21
201.048226
 31
0.0
  0
LINE
  5
1B0
100
AcDbEntity
  8
LAY-3
  6
CONTINUOUS
 62
     3
100
AcDbLine
 10
206.433325
 20
214.648226
 30
0.0
 11
208.033325
 21
214.648226
 31
0.0
  0
LINE
  5
1B1
100
AcDbEntity
  8
LAY-3
  6
CONTINUOUS
 62
     3
100
AcDbLine
 10
206.433325
 20
201.048226
 30
0.0
 11
208.033325
 21
201.048226
 31
0.0
  0
LINE
  5
1B2
100
AcDbEntity
  8
LAY-3
  6
CONTINUOUS
 62
     3
100
AcDbLine
 10
192.533325
 20
210.348226
 30
0.0
 11
193.719111
 21
210.348226
 31
0.0
  0
ARC
  5
1B3
100
AcDbEntity
  8
LAY-3
  6
CONTINUOUS
 62
     3
100
AcDbCircle
 10
208.033325
 20
211.648226
 30
0.0
 40
0.2
100
AcDbArc
 50
0.0
 51
90.0
  0
ARC
  5
1B4
100
AcDbEntity
  8
LAY-3
  6
CONTINUOUS
 62
     3
100
AcDbCircle
 10
208.033325
 20
204.048226
 30
0.0
 40
0.2
100
AcDbArc
 50
270.0
 51
0.0
  0
ARC
  5
1B5
100
AcDbEntity
  8
LAY-3
  6
CONTINUOUS
 62
     3
100
AcDbCircle
 10
190.933325
 20
204.048226
 30
0.0
 40
0.2
100
AcDbArc
 50
180.0
 51
270.0
  0
ARC
  5
1B6
100
AcDbEntity
  8
LAY-3
  6
CONTINUOUS
 62
     3
100
AcDbCircle
 10
190.933325
 20
211.648226
 30
0.0
 40
0.2
100
AcDbArc
 50
90.0
 51
180.0
  0
LINE
  5
1B7
100
AcDbEntity
  8
LAY-3
  6
CONTINUOUS
 62
     3
100
AcDbLine
 10
194.426218
 20
210.64112
 30
0.0
 11
194.951842
 21
211.166743
 31
0.0
  0
LINE
  5
1B8
100
AcDbEntity
  8
LAY-3
  6
CONTINUOUS
 62
     3
100
AcDbLine
 10
198.326531
 20
211.077997
 30
0.0
 11
198.648843
 21
210.719874
 31
0.0
  0
LINE
  5
1B9
100
AcDbEntity
  8
LAY-3
  6
CONTINUOUS
 62
     3
100
AcDbLine
 10
200.317807
 20
210.719874
 30
0.0
 11
200.640119
 21
211.077997
 31
0.0
  0
LINE
  5
1BA
100
AcDbEntity
  8
LAY-3
  6
CONTINUOUS
 62
     3
100
AcDbLine
 10
204.540432
 20
210.64112
 30
0.0
 11
204.014808
 21
211.166743
 31
0.0
  0
LINE
  5
1BB
100
AcDbEntity
  8
LAY-3
  6
CONTINUOUS
 62
     3
100
AcDbLine
 10
205.247539
 20
210.348226
 30
0.0
 11
206.433325
 21
210.348226
 31
0.0
  0
ARC
  5
1BC
100
AcDbEntity
  8
LAY-3
  6
CONTINUOUS
 62
     3
100
AcDbCircle
 10
205.247539
 20
211.348226
 30
0.0
 40
1.0
100
AcDbArc
 50
225.0
 51
270.0
  0
ARC
  5
1BD
100
AcDbEntity
  8
LAY-3
  6
CONTINUOUS
 62
     3
100
AcDbCircle
 10
193.719111
 20
211.348226
 30
0.0
 40
1.0
100
AcDbArc
 50
270.0
 51
315.0
  0
ARC
  5
1BE
100
AcDbEntity
  8
LAY-3
  6
CONTINUOUS
 62
     3
100
AcDbCircle
 10
196.597088
 20
209.521498
 30
0.0
 40
2.326729
100
AcDbArc
 50
41.987212
 51
135.0
  0
ARC
  5
1BF
100
AcDbEntity
  8
LAY-3
  6
CONTINUOUS
 62
     3
100
AcDbCircle
 10
199.483325
 20
211.470908
 30
0.0
 40
1.122681
100
AcDbArc
 50
221.987212
 51
318.012788
  0
ARC
  5
1C0
100
AcDbEntity
  8
LAY-3
  6
CONTINUOUS
 62
     3
100
AcDbCircle
 10
202.369562
 20
209.521498
 30
0.0
 40
2.326729
100
AcDbArc
 50
45.0
 51
138.012788
  0
ARC
  5
1C1
100
AcDbEntity
  8
LAY-3
  6
CONTINUOUS
 62
     3
100
AcDbCircle
 10
193.719111
 20
204.348226
 30
0.0
 40
1.0
100
AcDbArc
 50
45.0
 51
90.0
  0
ARC
  5
1C2
100
AcDbEntity
  8
LAY-3
  6
CONTINUOUS
 62
     3
100
AcDbCircle
 10
205.247539
 20
204.348226
 30
0.0
 40
1.0
100
AcDbArc
 50
90.0
 51
135.0
  0
LINE
  5
1C3
100
AcDbEntity
  8
LAY-3
  6
CONTINUOUS
 62
     3
100
AcDbLine
 10
204.540432
 20
205.055333
 30
0.0
 11
204.014808
 21
204.52971
 31
0.0
  0
ARC
  5
1C4
100
AcDbEntity
  8
LAY-3
  6
CONTINUOUS
 62
     3
100
AcDbCircle
 10
202.369562
 20
206.174955
 30
0.0
 40
2.326729
100
AcDbArc
 50
221.987212
 51
315.0
  0
LINE
  5
1C5
100
AcDbEntity
  8
LAY-3
  6
CONTINUOUS
 62
     3
100
AcDbLine
 10
200.640119
 20
204.618456
 30
0.0
 11
200.317807
 21
204.976579
 31
0.0
  0
ARC
  5
1C6
100
AcDbEntity
  8
LAY-3
  6
CONTINUOUS
 62
     3
100
AcDbCircle
 10
199.483325
 20
204.225545
 30
0.0
 40
1.122681
100
AcDbArc
 50
41.987212
 51
138.012788
  0
ARC
  5
1C7
100
AcDbEntity
  8
LAY-3
  6
CONTINUOUS
 62
     3
100
AcDbCircle
 10
196.597088
 20
206.174955
 30
0.0
 40
2.326729
100
AcDbArc
 50
225.0
 51
318.012788
  0
LINE
  5
1C8
100
AcDbEntity
  8
LAY-3
  6
CONTINUOUS
 62
     3
100
AcDbLine
 10
194.426218
 20
205.055333
 30
0.0
 11
194.951842
 21
204.52971
 31
0.0
  0
LINE
  5
1C9
100
AcDbEntity
  8
LAY-3
  6
CONTINUOUS
 62
     3
100
AcDbLine
 10
198.648843
 20
204.976579
 30
0.0
 11
198.326531
 21
204.618456
 31
0.0
  0
LINE
  5
1CA
100
AcDbEntity
  8
LAY-3
  6
CONTINUOUS
 62
     3
100
AcDbLine
 10
193.719111
 20
205.348226
 30
0.0
 11
192.533325
 21
205.348226
 31
0.0
  0
LINE
  5
1CB
100
AcDbEntity
  8
LAY-3
  6
CONTINUOUS
 62
     3
100
AcDbLine
 10
206.433325
 20
205.348226
 30
0.0
 11
205.247539
 21
205.348226
 31
0.0
  0
TEXT
  5
1CC
100
AcDbEntity
  8
LAY-3
  6
CONTINUOUS
 62
     7
100
AcDbText
 10
175.514992
 20
238.31
 30
0.0
 40
7.5
  1
３２Ａ×１７５Ｌ
 41
0.7126
  7
EXCADSTD
 72
     5
 11
226.414993
 21
238.31
 31
0.0
100
AcDbText
  0
LINE
  5
1CD
100
AcDbEntity
  8
LAY-3
  6
CONTINUOUS
 62
     3
100
AcDbLine
 10
254.05
 20
214.45
 30
0.0
 11
255.65
 21
214.45
 31
0.0
  0
LINE
  5
1CE
100
AcDbEntity
  8
LAY-3
  6
CONTINUOUS
 62
     3
100
AcDbLine
 10
269.55
 20
214.45
 30
0.0
 11
271.15
 21
214.45
 31
0.0
  0
LINE
  5
1CF
100
AcDbEntity
  8
LAY-3
  6
CONTINUOUS
 62
     3
100
AcDbLine
 10
271.15
 20
214.45
 30
0.0
 11
271.15
 21
200.45
 31
0.0
  0
LINE
  5
1D0
100
AcDbEntity
  8
LAY-3
  6
CONTINUOUS
 62
     3
100
AcDbLine
 10
269.55
 20
214.45
 30
0.0
 11
269.55
 21
200.45
 31
0.0
  0
LINE
  5
1D1
100
AcDbEntity
  8
LAY-3
  6
CONTINUOUS
 62
     3
100
AcDbLine
 10
269.55
 20
200.45
 30
0.0
 11
271.15
 21
200.45
 31
0.0
  0
LINE
  5
1D2
100
AcDbEntity
  8
LAY-3
  6
CONTINUOUS
 62
     3
100
AcDbLine
 10
255.65
 20
214.45
 30
0.0
 11
255.65
 21
200.45
 31
0.0
  0
LINE
  5
1D3
100
AcDbEntity
  8
LAY-3
  6
CONTINUOUS
 62
     3
100
AcDbLine
 10
254.05
 20
214.45
 30
0.0
 11
254.05
 21
200.45
 31
0.0
  0
LINE
  5
1D4
100
AcDbEntity
  8
LAY-3
  6
CONTINUOUS
 62
     3
100
AcDbLine
 10
254.05
 20
200.45
 30
0.0
 11
255.65
 21
200.45
 31
0.0
  0
ARC
  5
1D5
100
AcDbEntity
  8
LAY-3
  6
CONTINUOUS
 62
     3
100
AcDbCircle
 10
271.15
 20
211.25
 30
0.0
 40
0.2
100
AcDbArc
 50
0.0
 51
90.0
  0
LINE
  5
1D6
100
AcDbEntity
  8
LAY-3
  6
CONTINUOUS
 62
     3
100
AcDbLine
 10
271.35
 20
211.25
 30
0.0
 11
271.35
 21
203.65
 31
0.0
  0
ARC
  5
1D7
100
AcDbEntity
  8
LAY-3
  6
CONTINUOUS
 62
     3
100
AcDbCircle
 10
271.15
 20
203.65
 30
0.0
 40
0.2
100
AcDbArc
 50
270.0
 51
0.0
  0
ARC
  5
1D8
100
AcDbEntity
  8
LAY-3
  6
CONTINUOUS
 62
     3
100
AcDbCircle
 10
254.05
 20
203.65
 30
0.0
 40
0.2
100
AcDbArc
 50
180.0
 51
270.0
  0
LINE
  5
1D9
100
AcDbEntity
  8
LAY-3
  6
CONTINUOUS
 62
     3
100
AcDbLine
 10
253.85
 20
211.25
 30
0.0
 11
253.85
 21
203.65
 31
0.0
  0
ARC
  5
1DA
100
AcDbEntity
  8
LAY-3
  6
CONTINUOUS
 62
     3
100
AcDbCircle
 10
254.05
 20
211.25
 30
0.0
 40
0.2
100
AcDbArc
 50
90.0
 51
180.0
  0
ARC
  5
1DB
100
AcDbEntity
  8
LAY-3
  6
CONTINUOUS
 62
     3
100
AcDbCircle
 10
268.364214
 20
210.95
 30
0.0
 40
1.0
100
AcDbArc
 50
225.0
 51
270.0
  0
ARC
  5
1DC
100
AcDbEntity
  8
LAY-3
  6
CONTINUOUS
 62
     3
100
AcDbCircle
 10
256.835786
 20
210.95
 30
0.0
 40
1.0
100
AcDbArc
 50
270.0
 51
315.0
  0
LINE
  5
1DD
100
AcDbEntity
  8
LAY-3
  6
CONTINUOUS
 62
     3
100
AcDbLine
 10
257.542893
 20
210.242893
 30
0.0
 11
258.068517
 21
210.768517
 31
0.0
  0
ARC
  5
1DE
100
AcDbEntity
  8
LAY-3
  6
CONTINUOUS
 62
     3
100
AcDbCircle
 10
259.713763
 20
209.123271
 30
0.0
 40
2.326729
100
AcDbArc
 50
41.987212
 51
135.0
  0
LINE
  5
1DF
100
AcDbEntity
  8
LAY-3
  6
CONTINUOUS
 62
     3
100
AcDbLine
 10
261.443206
 20
210.679771
 30
0.0
 11
261.765518
 21
210.321647
 31
0.0
  0
ARC
  5
1E0
100
AcDbEntity
  8
LAY-3
  6
CONTINUOUS
 62
     3
100
AcDbCircle
 10
262.6
 20
211.072681
 30
0.0
 40
1.122681
100
AcDbArc
 50
221.987212
 51
318.012788
  0
ARC
  5
1E1
100
AcDbEntity
  8
LAY-3
  6
CONTINUOUS
 62
     3
100
AcDbCircle
 10
265.486237
 20
209.123271
 30
0.0
 40
2.326729
100
AcDbArc
 50
45.0
 51
138.012788
  0
LINE
  5
1E2
100
AcDbEntity
  8
LAY-3
  6
CONTINUOUS
 62
     3
100
AcDbLine
 10
267.657107
 20
210.242893
 30
0.0
 11
267.131483
 21
210.768517
 31
0.0
  0
LINE
  5
1E3
100
AcDbEntity
  8
LAY-3
  6
CONTINUOUS
 62
     3
100
AcDbLine
 10
263.434482
 20
210.321647
 30
0.0
 11
263.756794
 21
210.679771
 31
0.0
  0
LINE
  5
1E4
100
AcDbEntity
  8
LAY-3
  6
CONTINUOUS
 62
     3
100
AcDbLine
 10
268.364214
 20
209.95
 30
0.0
 11
269.55
 21
209.95
 31
0.0
  0
LINE
  5
1E5
100
AcDbEntity
  8
LAY-3
  6
CONTINUOUS
 62
     3
100
AcDbLine
 10
255.65
 20
209.95
 30
0.0
 11
256.835786
 21
209.95
 31
0.0
  0
ARC
  5
1E6
100
AcDbEntity
  8
LAY-3
  6
CONTINUOUS
 62
     3
100
AcDbCircle
 10
256.835786
 20
203.95
 30
0.0
 40
1.0
100
AcDbArc
 50
45.0
 51
90.0
  0
ARC
  5
1E7
100
AcDbEntity
  8
LAY-3
  6
CONTINUOUS
 62
     3
100
AcDbCircle
 10
268.364214
 20
203.95
 30
0.0
 40
1.0
100
AcDbArc
 50
90.0
 51
135.0
  0
LINE
  5
1E8
100
AcDbEntity
  8
LAY-3
  6
CONTINUOUS
 62
     3
100
AcDbLine
 10
267.657107
 20
204.657107
 30
0.0
 11
267.131483
 21
204.131483
 31
0.0
  0
ARC
  5
1E9
100
AcDbEntity
  8
LAY-3
  6
CONTINUOUS
 62
     3
100
AcDbCircle
 10
265.486237
 20
205.776729
 30
0.0
 40
2.326729
100
AcDbArc
 50
221.987212
 51
315.0
  0
LINE
  5
1EA
100
AcDbEntity
  8
LAY-3
  6
CONTINUOUS
 62
     3
100
AcDbLine
 10
263.756794
 20
204.220229
 30
0.0
 11
263.434482
 21
204.578353
 31
0.0
  0
ARC
  5
1EB
100
AcDbEntity
  8
LAY-3
  6
CONTINUOUS
 62
     3
100
AcDbCircle
 10
262.6
 20
203.827319
 30
0.0
 40
1.122681
100
AcDbArc
 50
41.987212
 51
138.012788
  0
ARC
  5
1EC
100
AcDbEntity
  8
LAY-3
  6
CONTINUOUS
 62
     3
100
AcDbCircle
 10
259.713763
 20
205.776729
 30
0.0
 40
2.326729
100
AcDbArc
 50
225.0
 51
318.012788
  0
LINE
  5
1ED
100
AcDbEntity
  8
LAY-3
  6
CONTINUOUS
 62
     3
100
AcDbLine
 10
257.542893
 20
204.657107
 30
0.0
 11
258.068517
 21
204.131483
 31
0.0
  0
LINE
  5
1EE
100
AcDbEntity
  8
LAY-3
  6
CONTINUOUS
 62
     3
100
AcDbLine
 10
261.765518
 20
204.578353
 30
0.0
 11
261.443206
 21
204.220229
 31
0.0
  0
LINE
  5
1EF
100
AcDbEntity
  8
LAY-3
  6
CONTINUOUS
 62
     3
100
AcDbLine
 10
256.835786
 20
204.95
 30
0.0
 11
255.65
 21
204.95
 31
0.0
  0
LINE
  5
1F0
100
AcDbEntity
  8
LAY-3
  6
CONTINUOUS
 62
     3
100
AcDbLine
 10
269.55
 20
204.95
 30
0.0
 11
268.364214
 21
204.95
 31
0.0
  0
TEXT
  5
1F1
100
AcDbEntity
  8
LAY-3
  6
CONTINUOUS
 62
     7
100
AcDbText
 10
235.958333
 20
238.45
 30
0.0
 40
7.5
  1
４０Ａ×１７５Ｌ
 41
0.7126
  7
EXCADSTD
 72
     5
 11
286.858335
 21
238.45
 31
0.0
100
AcDbText
  0
LINE
  5
1F2
100
AcDbEntity
  8
LAY-3
  6
CONTINUOUS
 62
     3
100
AcDbLine
 10
317.313333
 20
212.05
 30
0.0
 11
317.313333
 21
202.85
 31
0.0
  0
LINE
  5
1F3
100
AcDbEntity
  8
LAY-3
  6
CONTINUOUS
 62
     3
100
AcDbLine
 10
317.513333
 20
215.2
 30
0.0
 11
317.513333
 21
199.7
 31
0.0
  0
LINE
  5
1F4
100
AcDbEntity
  8
LAY-3
  6
CONTINUOUS
 62
     3
100
AcDbLine
 10
334.813333
 20
212.05
 30
0.0
 11
334.813333
 21
202.85
 31
0.0
  0
LINE
  5
1F5
100
AcDbEntity
  8
LAY-3
  6
CONTINUOUS
 62
     3
100
AcDbLine
 10
334.613333
 20
215.2
 30
0.0
 11
334.613333
 21
199.7
 31
0.0
  0
LINE
  5
1F6
100
AcDbEntity
  8
LAY-3
  6
CONTINUOUS
 62
     3
100
AcDbLine
 10
333.013333
 20
215.2
 30
0.0
 11
333.013333
 21
199.7
 31
0.0
  0
LINE
  5
1F7
100
AcDbEntity
  8
LAY-3
  6
CONTINUOUS
 62
     3
100
AcDbLine
 10
319.113333
 20
215.2
 30
0.0
 11
319.113333
 21
199.7
 31
0.0
  0
ARC
  5
1F8
100
AcDbEntity
  8
LAY-3
  6
CONTINUOUS
 62
     3
100
AcDbCircle
 10
317.513333
 20
212.05
 30
0.0
 40
0.2
100
AcDbArc
 50
90.0
 51
180.0
  0
ARC
  5
1F9
100
AcDbEntity
  8
LAY-3
  6
CONTINUOUS
 62
     3
100
AcDbCircle
 10
317.513333
 20
202.85
 30
0.0
 40
0.2
100
AcDbArc
 50
180.0
 51
270.0
  0
ARC
  5
1FA
100
AcDbEntity
  8
LAY-3
  6
CONTINUOUS
 62
     3
100
AcDbCircle
 10
334.613333
 20
212.05
 30
0.0
 40
0.2
100
AcDbArc
 50
0.0
 51
90.0
  0
ARC
  5
1FB
100
AcDbEntity
  8
LAY-3
  6
CONTINUOUS
 62
     3
100
AcDbCircle
 10
334.613333
 20
202.85
 30
0.0
 40
0.2
100
AcDbArc
 50
270.0
 51
0.0
  0
LINE
  5
1FC
100
AcDbEntity
  8
LAY-3
  6
CONTINUOUS
 62
     3
100
AcDbLine
 10
317.513333
 20
215.2
 30
0.0
 11
319.113333
 21
215.2
 31
0.0
  0
LINE
  5
1FD
100
AcDbEntity
  8
LAY-3
  6
CONTINUOUS
 62
     3
100
AcDbLine
 10
317.513333
 20
199.7
 30
0.0
 11
319.113333
 21
199.7
 31
0.0
  0
LINE
  5
1FE
100
AcDbEntity
  8
LAY-3
  6
CONTINUOUS
 62
     3
100
AcDbLine
 10
333.013333
 20
215.2
 30
0.0
 11
334.613333
 21
215.2
 31
0.0
  0
LINE
  5
1FF
100
AcDbEntity
  8
LAY-3
  6
CONTINUOUS
 62
     3
100
AcDbLine
 10
333.013333
 20
199.7
 30
0.0
 11
334.613333
 21
199.7
 31
0.0
  0
LINE
  5
200
100
AcDbEntity
  8
LAY-3
  6
CONTINUOUS
 62
     3
100
AcDbLine
 10
319.113333
 20
210.45
 30
0.0
 11
320.111601
 21
210.45
 31
0.0
  0
LINE
  5
201
100
AcDbEntity
  8
LAY-3
  6
CONTINUOUS
 62
     3
100
AcDbLine
 10
326.69753
 20
210.774272
 30
0.0
 11
327.048554
 21
211.260306
 31
0.0
  0
LINE
  5
202
100
AcDbEntity
  8
LAY-3
  6
CONTINUOUS
 62
     3
100
AcDbLine
 10
325.078113
 20
211.260306
 30
0.0
 11
325.429137
 21
210.774272
 31
0.0
  0
LINE
  5
203
100
AcDbEntity
  8
LAY-3
  6
CONTINUOUS
 62
     3
100
AcDbLine
 10
320.62051
 20
210.669364
 30
0.0
 11
321.406675
 21
211.501774
 31
0.0
  0
LINE
  5
204
100
AcDbEntity
  8
LAY-3
  6
CONTINUOUS
 62
     3
100
AcDbLine
 10
331.506157
 20
210.669364
 30
0.0
 11
330.719992
 21
211.501774
 31
0.0
  0
LINE
  5
205
100
AcDbEntity
  8
LAY-3
  6
CONTINUOUS
 62
     3
100
AcDbLine
 10
332.015066
 20
210.45
 30
0.0
 11
333.013333
 21
210.45
 31
0.0
  0
ARC
  5
206
100
AcDbEntity
  8
LAY-3
  6
CONTINUOUS
 62
     3
100
AcDbCircle
 10
332.015066
 20
211.15
 30
0.0
 40
0.7
100
AcDbArc
 50
223.363423
 51
270.0
  0
ARC
  5
207
100
AcDbEntity
  8
LAY-3
  6
CONTINUOUS
 62
     3
100
AcDbCircle
 10
328.984155
 20
209.862372
 30
0.0
 40
2.387628
100
AcDbArc
 50
43.363423
 51
144.162347
  0
ARC
  5
208
100
AcDbEntity
  8
LAY-3
  6
CONTINUOUS
 62
     3
100
AcDbCircle
 10
326.063333
 20
211.232302
 30
0.0
 40
0.782302
100
AcDbArc
 50
215.837653
 51
324.162347
  0
ARC
  5
209
100
AcDbEntity
  8
LAY-3
  6
CONTINUOUS
 62
     3
100
AcDbCircle
 10
320.111601
 20
211.15
 30
0.0
 40
0.7
100
AcDbArc
 50
270.0
 51
316.636577
  0
ARC
  5
20A
100
AcDbEntity
  8
LAY-3
  6
CONTINUOUS
 62
     3
100
AcDbCircle
 10
323.142512
 20
209.862372
 30
0.0
 40
2.387628
100
AcDbArc
 50
35.837653
 51
136.636577
  0
LINE
  5
20B
100
AcDbEntity
  8
LAY-3
  6
CONTINUOUS
 62
     3
100
AcDbLine
 10
320.111601
 20
204.45
 30
0.0
 11
319.113333
 21
204.45
 31
0.0
  0
ARC
  5
20C
100
AcDbEntity
  8
LAY-3
  6
CONTINUOUS
 62
     3
100
AcDbCircle
 10
320.111601
 20
203.75
 30
0.0
 40
0.7
100
AcDbArc
 50
43.363423
 51
90.0
  0
ARC
  5
20D
100
AcDbEntity
  8
LAY-3
  6
CONTINUOUS
 62
     3
100
AcDbCircle
 10
323.142512
 20
205.037628
 30
0.0
 40
2.387628
100
AcDbArc
 50
223.363423
 51
324.162347
  0
LINE
  5
20E
100
AcDbEntity
  8
LAY-3
  6
CONTINUOUS
 62
     3
100
AcDbLine
 10
320.62051
 20
204.230636
 30
0.0
 11
321.406675
 21
203.398226
 31
0.0
  0
ARC
  5
20F
100
AcDbEntity
  8
LAY-3
  6
CONTINUOUS
 62
     3
100
AcDbCircle
 10
326.063333
 20
203.667698
 30
0.0
 40
0.782302
100
AcDbArc
 50
35.837653
 51
144.162347
  0
LINE
  5
210
100
AcDbEntity
  8
LAY-3
  6
CONTINUOUS
 62
     3
100
AcDbLine
 10
325.429137
 20
204.125728
 30
0.0
 11
325.078113
 21
203.639694
 31
0.0
  0
LINE
  5
211
100
AcDbEntity
  8
LAY-3
  6
CONTINUOUS
 62
     3
100
AcDbLine
 10
333.013333
 20
204.45
 30
0.0
 11
332.015066
 21
204.45
 31
0.0
  0
ARC
  5
212
100
AcDbEntity
  8
LAY-3
  6
CONTINUOUS
 62
     3
100
AcDbCircle
 10
332.015066
 20
203.75
 30
0.0
 40
0.7
100
AcDbArc
 50
90.0
 51
136.636577
  0
ARC
  5
213
100
AcDbEntity
  8
LAY-3
  6
CONTINUOUS
 62
     3
100
AcDbCircle
 10
328.984155
 20
205.037628
 30
0.0
 40
2.387628
100
AcDbArc
 50
215.837653
 51
316.636577
  0
LINE
  5
214
100
AcDbEntity
  8
LAY-3
  6
CONTINUOUS
 62
     3
100
AcDbLine
 10
327.048554
 20
203.639694
 30
0.0
 11
326.69753
 21
204.125728
 31
0.0
  0
LINE
  5
215
100
AcDbEntity
  8
LAY-3
  6
CONTINUOUS
 62
     3
100
AcDbLine
 10
331.506157
 20
204.230636
 30
0.0
 11
330.719992
 21
203.398226
 31
0.0
  0
TEXT
  5
216
100
AcDbEntity
  8
LAY-3
  6
CONTINUOUS
 62
     7
100
AcDbText
 10
300.848333
 20
238.85
 30
0.0
 40
7.5
  1
５０Ａ×１７５Ｌ
 41
0.7126
  7
EXCADSTD
 72
     5
 11
351.748335
 21
238.85
 31
0.0
100
AcDbText
  0
LINE
  5
217
100
AcDbEntity
  8
LAY-3
  6
CONTINUOUS
 62
     3
100
AcDbLine
 10
380.996667
 20
213.0
 30
0.0
 11
380.996667
 21
201.9
 31
0.0
  0
LINE
  5
218
100
AcDbEntity
  8
LAY-3
  6
CONTINUOUS
 62
     3
100
AcDbLine
 10
398.496667
 20
213.0
 30
0.0
 11
398.496667
 21
201.9
 31
0.0
  0
LINE
  5
219
100
AcDbEntity
  8
LAY-3
  6
CONTINUOUS
 62
     3
100
AcDbLine
 10
381.196667
 20
216.2
 30
0.0
 11
381.196667
 21
198.7
 31
0.0
  0
LINE
  5
21A
100
AcDbEntity
  8
LAY-3
  6
CONTINUOUS
 62
     3
100
AcDbLine
 10
398.296667
 20
216.2
 30
0.0
 11
398.296667
 21
198.7
 31
0.0
  0
LINE
  5
21B
100
AcDbEntity
  8
LAY-3
  6
CONTINUOUS
 62
     3
100
AcDbLine
 10
395.698399
 20
211.2
 30
0.0
 11
396.496667
 21
211.2
 31
0.0
  0
ARC
  5
21C
100
AcDbEntity
  8
LAY-3
  6
CONTINUOUS
 62
     3
100
AcDbCircle
 10
395.698399
 20
211.9
 30
0.0
 40
0.7
100
AcDbArc
 50
223.363423
 51
270.0
  0
ARC
  5
21D
100
AcDbEntity
  8
LAY-3
  6
CONTINUOUS
 62
     3
100
AcDbCircle
 10
392.667488
 20
210.612372
 30
0.0
 40
2.387628
100
AcDbArc
 50
43.363423
 51
144.162347
  0
LINE
  5
21E
100
AcDbEntity
  8
LAY-3
  6
CONTINUOUS
 62
     3
100
AcDbLine
 10
395.18949
 20
211.419364
 30
0.0
 11
394.403325
 21
212.251774
 31
0.0
  0
ARC
  5
21F
100
AcDbEntity
  8
LAY-3
  6
CONTINUOUS
 62
     3
100
AcDbCircle
 10
389.746667
 20
211.982302
 30
0.0
 40
0.782302
100
AcDbArc
 50
215.837653
 51
324.162347
  0
LINE
  5
220
100
AcDbEntity
  8
LAY-3
  6
CONTINUOUS
 62
     3
100
AcDbLine
 10
390.380863
 20
211.524272
 30
0.0
 11
390.731887
 21
212.010306
 31
0.0
  0
LINE
  5
221
100
AcDbEntity
  8
LAY-3
  6
CONTINUOUS
 62
     3
100
AcDbLine
 10
382.996667
 20
211.2
 30
0.0
 11
383.794934
 21
211.2
 31
0.0
  0
ARC
  5
222
100
AcDbEntity
  8
LAY-3
  6
CONTINUOUS
 62
     3
100
AcDbCircle
 10
383.794934
 20
211.9
 30
0.0
 40
0.7
100
AcDbArc
 50
270.0
 51
316.636577
  0
ARC
  5
223
100
AcDbEntity
  8
LAY-3
  6
CONTINUOUS
 62
     3
100
AcDbCircle
 10
386.825845
 20
210.612372
 30
0.0
 40
2.387628
100
AcDbArc
 50
35.837653
 51
136.636577
  0
LINE
  5
224
100
AcDbEntity
  8
LAY-3
  6
CONTINUOUS
 62
     3
100
AcDbLine
 10
388.761446
 20
212.010306
 30
0.0
 11
389.11247
 21
211.524272
 31
0.0
  0
LINE
  5
225
100
AcDbEntity
  8
LAY-3
  6
CONTINUOUS
 62
     3
100
AcDbLine
 10
384.303843
 20
211.419364
 30
0.0
 11
385.090008
 21
212.251774
 31
0.0
  0
LINE
  5
226
100
AcDbEntity
  8
LAY-3
  6
CONTINUOUS
 62
     3
100
AcDbLine
 10
383.794934
 20
203.7
 30
0.0
 11
382.996667
 21
203.7
 31
0.0
  0
ARC
  5
227
100
AcDbEntity
  8
LAY-3
  6
CONTINUOUS
 62
     3
100
AcDbCircle
 10
383.794934
 20
203.0
 30
0.0
 40
0.7
100
AcDbArc
 50
43.363423
 51
90.0
  0
ARC
  5
228
100
AcDbEntity
  8
LAY-3
  6
CONTINUOUS
 62
     3
100
AcDbCircle
 10
386.825845
 20
204.287628
 30
0.0
 40
2.387628
100
AcDbArc
 50
223.363423
 51
324.162347
  0
LINE
  5
229
100
AcDbEntity
  8
LAY-3
  6
CONTINUOUS
 62
     3
100
AcDbLine
 10
384.303843
 20
203.480636
 30
0.0
 11
385.090008
 21
202.648226
 31
0.0
  0
ARC
  5
22A
100
AcDbEntity
  8
LAY-3
  6
CONTINUOUS
 62
     3
100
AcDbCircle
 10
389.746667
 20
202.917698
 30
0.0
 40
0.782302
100
AcDbArc
 50
35.837653
 51
144.162347
  0
LINE
  5
22B
100
AcDbEntity
  8
LAY-3
  6
CONTINUOUS
 62
     3
100
AcDbLine
 10
389.11247
 20
203.375728
 30
0.0
 11
388.761446
 21
202.889694
 31
0.0
  0
LINE
  5
22C
100
AcDbEntity
  8
LAY-3
  6
CONTINUOUS
 62
     3
100
AcDbLine
 10
396.496667
 20
203.7
 30
0.0
 11
395.698399
 21
203.7
 31
0.0
  0
ARC
  5
22D
100
AcDbEntity
  8
LAY-3
  6
CONTINUOUS
 62
     3
100
AcDbCircle
 10
395.698399
 20
203.0
 30
0.0
 40
0.7
100
AcDbArc
 50
90.0
 51
136.636577
  0
ARC
  5
22E
100
AcDbEntity
  8
LAY-3
  6
CONTINUOUS
 62
     3
100
AcDbCircle
 10
392.667488
 20
204.287628
 30
0.0
 40
2.387628
100
AcDbArc
 50
215.837653
 51
316.636577
  0
LINE
  5
22F
100
AcDbEntity
  8
LAY-3
  6
CONTINUOUS
 62
     3
100
AcDbLine
 10
390.731887
 20
202.889694
 30
0.0
 11
390.380863
 21
203.375728
 31
0.0
  0
LINE
  5
230
100
AcDbEntity
  8
LAY-3
  6
CONTINUOUS
 62
     3
100
AcDbLine
 10
395.18949
 20
203.480636
 30
0.0
 11
394.403325
 21
202.648226
 31
0.0
  0
LINE
  5
231
100
AcDbEntity
  8
LAY-3
  6
CONTINUOUS
 62
     3
100
AcDbLine
 10
381.196667
 20
216.2
 30
0.0
 11
382.996667
 21
216.2
 31
0.0
  0
LINE
  5
232
100
AcDbEntity
  8
LAY-3
  6
CONTINUOUS
 62
     3
100
AcDbLine
 10
381.196667
 20
198.7
 30
0.0
 11
382.996667
 21
198.7
 31
0.0
  0
LINE
  5
233
100
AcDbEntity
  8
LAY-3
  6
CONTINUOUS
 62
     3
100
AcDbLine
 10
396.496667
 20
216.2
 30
0.0
 11
398.296667
 21
216.2
 31
0.0
  0
LINE
  5
234
100
AcDbEntity
  8
LAY-3
  6
CONTINUOUS
 62
     3
100
AcDbLine
 10
396.496667
 20
198.7
 30
0.0
 11
398.296667
 21
198.7
 31
0.0
  0
ARC
  5
235
100
AcDbEntity
  8
LAY-3
  6
CONTINUOUS
 62
     3
100
AcDbCircle
 10
398.296667
 20
213.0
 30
0.0
 40
0.2
100
AcDbArc
 50
0.0
 51
90.0
  0
ARC
  5
236
100
AcDbEntity
  8
LAY-3
  6
CONTINUOUS
 62
     3
100
AcDbCircle
 10
398.296667
 20
201.9
 30
0.0
 40
0.2
100
AcDbArc
 50
270.0
 51
0.0
  0
ARC
  5
237
100
AcDbEntity
  8
LAY-3
  6
CONTINUOUS
 62
     3
100
AcDbCircle
 10
381.196667
 20
201.9
 30
0.0
 40
0.2
100
AcDbArc
 50
180.0
 51
270.0
  0
ARC
  5
238
100
AcDbEntity
  8
LAY-3
  6
CONTINUOUS
 62
     3
100
AcDbCircle
 10
381.196667
 20
213.0
 30
0.0
 40
0.2
100
AcDbArc
 50
90.0
 51
180.0
  0
TEXT
  5
239
100
AcDbEntity
  8
LAY-3
  6
CONTINUOUS
 62
     7
100
AcDbText
 10
364.008333
 20
238.35
 30
0.0
 40
7.5
  1
６５Ａ×１７５Ｌ
 41
0.7126
  7
EXCADSTD
 72
     5
 11
414.908335
 21
238.35
 31
0.0
100
AcDbText
  0
LINE
  5
23A
100
AcDbEntity
  8
LAY-3
  6
CONTINUOUS
 62
     3
100
AcDbLine
 10
382.996667
 20
216.2
 30
0.0
 11
382.996667
 21
198.7
 31
0.0
  0
LINE
  5
23B
100
AcDbEntity
  8
LAY-3
  6
CONTINUOUS
 62
     3
100
AcDbLine
 10
396.496667
 20
216.2
 30
0.0
 11
396.496667
 21
198.7
 31
0.0
  0
LINE
  5
23C
100
AcDbEntity
  8
LAY-3
  6
CONTINUOUS
 62
     3
100
AcDbLine
 10
64.0
 20
146.7
 30
0.0
 11
64.0
 21
128.2
 31
0.0
  0
LINE
  5
23D
100
AcDbEntity
  8
LAY-3
  6
CONTINUOUS
 62
     3
100
AcDbLine
 10
81.1
 20
146.7
 30
0.0
 11
81.1
 21
128.2
 31
0.0
  0
ARC
  5
23E
100
AcDbEntity
  8
LAY-3
  6
CONTINUOUS
 62
     3
100
AcDbCircle
 10
64.0
 20
143.5
 30
0.0
 40
0.2
100
AcDbArc
 50
90.0
 51
180.0
  0
LINE
  5
23F
100
AcDbEntity
  8
LAY-3
  6
CONTINUOUS
 62
     3
100
AcDbLine
 10
63.8
 20
143.5
 30
0.0
 11
63.8
 21
131.4
 31
0.0
  0
ARC
  5
240
100
AcDbEntity
  8
LAY-3
  6
CONTINUOUS
 62
     3
100
AcDbCircle
 10
64.0
 20
131.4
 30
0.0
 40
0.2
100
AcDbArc
 50
180.0
 51
270.0
  0
ARC
  5
241
100
AcDbEntity
  8
LAY-3
  6
CONTINUOUS
 62
     3
100
AcDbCircle
 10
81.1
 20
131.4
 30
0.0
 40
0.2
100
AcDbArc
 50
270.0
 51
0.0
  0
LINE
  5
242
100
AcDbEntity
  8
LAY-3
  6
CONTINUOUS
 62
     3
100
AcDbLine
 10
81.3
 20
143.5
 30
0.0
 11
81.3
 21
131.4
 31
0.0
  0
ARC
  5
243
100
AcDbEntity
  8
LAY-3
  6
CONTINUOUS
 62
     3
100
AcDbCircle
 10
81.1
 20
143.5
 30
0.0
 40
0.2
100
AcDbArc
 50
0.0
 51
90.0
  0
ARC
  5
244
100
AcDbEntity
  8
LAY-3
  6
CONTINUOUS
 62
     3
100
AcDbCircle
 10
78.501733
 20
142.4
 30
0.0
 40
0.7
100
AcDbArc
 50
223.363423
 51
270.0
  0
ARC
  5
245
100
AcDbEntity
  8
LAY-3
  6
CONTINUOUS
 62
     3
100
AcDbCircle
 10
75.470821
 20
141.112372
 30
0.0
 40
2.387628
100
AcDbArc
 50
43.363423
 51
144.162347
  0
LINE
  5
246
100
AcDbEntity
  8
LAY-3
  6
CONTINUOUS
 62
     3
100
AcDbLine
 10
77.992823
 20
141.919364
 30
0.0
 11
77.206658
 21
142.751774
 31
0.0
  0
ARC
  5
247
100
AcDbEntity
  8
LAY-3
  6
CONTINUOUS
 62
     3
100
AcDbCircle
 10
72.55
 20
142.482302
 30
0.0
 40
0.782302
100
AcDbArc
 50
215.837653
 51
324.162347
  0
LINE
  5
248
100
AcDbEntity
  8
LAY-3
  6
CONTINUOUS
 62
     3
100
AcDbLine
 10
73.184196
 20
142.024272
 30
0.0
 11
73.535221
 21
142.510306
 31
0.0
  0
ARC
  5
249
100
AcDbEntity
  8
LAY-3
  6
CONTINUOUS
 62
     3
100
AcDbCircle
 10
66.598267
 20
142.4
 30
0.0
 40
0.7
100
AcDbArc
 50
270.0
 51
316.636577
  0
ARC
  5
24A
100
AcDbEntity
  8
LAY-3
  6
CONTINUOUS
 62
     3
100
AcDbCircle
 10
69.629179
 20
141.112372
 30
0.0
 40
2.387628
100
AcDbArc
 50
35.837653
 51
136.636577
  0
LINE
  5
24B
100
AcDbEntity
  8
LAY-3
  6
CONTINUOUS
 62
     3
100
AcDbLine
 10
71.564779
 20
142.510306
 30
0.0
 11
71.915804
 21
142.024272
 31
0.0
  0
LINE
  5
24C
100
AcDbEntity
  8
LAY-3
  6
CONTINUOUS
 62
     3
100
AcDbLine
 10
67.107177
 20
141.919364
 30
0.0
 11
67.893342
 21
142.751774
 31
0.0
  0
ARC
  5
24D
100
AcDbEntity
  8
LAY-3
  6
CONTINUOUS
 62
     3
100
AcDbCircle
 10
66.598267
 20
132.5
 30
0.0
 40
0.7
100
AcDbArc
 50
43.363423
 51
90.0
  0
ARC
  5
24E
100
AcDbEntity
  8
LAY-3
  6
CONTINUOUS
 62
     3
100
AcDbCircle
 10
69.629179
 20
133.787628
 30
0.0
 40
2.387628
100
AcDbArc
 50
223.363423
 51
324.162347
  0
LINE
  5
24F
100
AcDbEntity
  8
LAY-3
  6
CONTINUOUS
 62
     3
100
AcDbLine
 10
67.107177
 20
132.980636
 30
0.0
 11
67.893342
 21
132.148226
 31
0.0
  0
ARC
  5
250
100
AcDbEntity
  8
LAY-3
  6
CONTINUOUS
 62
     3
100
AcDbCircle
 10
72.55
 20
132.417698
 30
0.0
 40
0.782302
100
AcDbArc
 50
35.837653
 51
144.162347
  0
LINE
  5
251
100
AcDbEntity
  8
LAY-3
  6
CONTINUOUS
 62
     3
100
AcDbLine
 10
71.915804
 20
132.875728
 30
0.0
 11
71.564779
 21
132.389694
 31
0.0
  0
ARC
  5
252
100
AcDbEntity
  8
LAY-3
  6
CONTINUOUS
 62
     3
100
AcDbCircle
 10
78.501733
 20
132.5
 30
0.0
 40
0.7
100
AcDbArc
 50
90.0
 51
136.636577
  0
ARC
  5
253
100
AcDbEntity
  8
LAY-3
  6
CONTINUOUS
 62
     3
100
AcDbCircle
 10
75.470821
 20
133.787628
 30
0.0
 40
2.387628
100
AcDbArc
 50
215.837653
 51
316.636577
  0
LINE
  5
254
100
AcDbEntity
  8
LAY-3
  6
CONTINUOUS
 62
     3
100
AcDbLine
 10
73.535221
 20
132.389694
 30
0.0
 11
73.184196
 21
132.875728
 31
0.0
  0
LINE
  5
255
100
AcDbEntity
  8
LAY-3
  6
CONTINUOUS
 62
     3
100
AcDbLine
 10
77.992823
 20
132.980636
 30
0.0
 11
77.206658
 21
132.148226
 31
0.0
  0
TEXT
  5
256
100
AcDbEntity
  8
LAY-3
  6
CONTINUOUS
 62
     7
100
AcDbText
 10
47.006658
 20
168.55
 30
0.0
 40
7.5
  1
８０Ａ×１７５Ｌ
 41
0.7126
  7
EXCADSTD
 72
     5
 11
97.90666
 21
168.55
 31
0.0
100
AcDbText
  0
LINE
  5
257
100
AcDbEntity
  8
LAY-3
  6
EXLTYPE3
 62
     1
100
AcDbLine
 10
60.393342
 20
137.45
 30
0.0
 11
83.6
 21
137.45
 31
0.0
  0
LINE
  5
258
100
AcDbEntity
  8
LAY-3
  6
EXLTYPE3
 62
     1
100
AcDbLine
 10
122.183333
 20
137.45
 30
0.0
 11
149.583333
 21
137.45
 31
0.0
  0
LINE
  5
259
100
AcDbEntity
  8
LAY-3
  6
CONTINUOUS
 62
     3
100
AcDbLine
 10
65.8
 20
146.7
 30
0.0
 11
65.8
 21
128.2
 31
0.0
  0
LINE
  5
25A
100
AcDbEntity
  8
LAY-3
  6
CONTINUOUS
 62
     3
100
AcDbLine
 10
79.3
 20
146.7
 30
0.0
 11
79.3
 21
128.2
 31
0.0
  0
LINE
  5
25B
100
AcDbEntity
  8
LAY-3
  6
CONTINUOUS
 62
     3
100
AcDbLine
 10
79.3
 20
146.7
 30
0.0
 11
81.1
 21
146.7
 31
0.0
  0
LINE
  5
25C
100
AcDbEntity
  8
LAY-3
  6
CONTINUOUS
 62
     3
100
AcDbLine
 10
79.3
 20
128.2
 30
0.0
 11
81.1
 21
128.2
 31
0.0
  0
LINE
  5
25D
100
AcDbEntity
  8
LAY-3
  6
CONTINUOUS
 62
     3
100
AcDbLine
 10
64.0
 20
128.2
 30
0.0
 11
65.8
 21
128.2
 31
0.0
  0
LINE
  5
25E
100
AcDbEntity
  8
LAY-3
  6
CONTINUOUS
 62
     3
100
AcDbLine
 10
65.8
 20
146.7
 30
0.0
 11
64.0
 21
146.7
 31
0.0
  0
LINE
  5
25F
100
AcDbEntity
  8
LAY-3
  6
CONTINUOUS
 62
     3
100
AcDbLine
 10
78.501733
 20
141.7
 30
0.0
 11
79.3
 21
141.7
 31
0.0
  0
LINE
  5
260
100
AcDbEntity
  8
LAY-3
  6
CONTINUOUS
 62
     3
100
AcDbLine
 10
79.3
 20
133.2
 30
0.0
 11
78.501733
 21
133.2
 31
0.0
  0
LINE
  5
261
100
AcDbEntity
  8
LAY-3
  6
CONTINUOUS
 62
     3
100
AcDbLine
 10
66.598267
 20
133.2
 30
0.0
 11
65.8
 21
133.2
 31
0.0
  0
LINE
  5
262
100
AcDbEntity
  8
LAY-3
  6
CONTINUOUS
 62
     3
100
AcDbLine
 10
65.8
 20
141.7
 30
0.0
 11
66.598267
 21
141.7
 31
0.0
  0
LINE
  5
263
100
AcDbEntity
  8
LAY-3
  6
CONTINUOUS
 62
     3
100
AcDbLine
 10
144.989992
 20
147.95
 30
0.0
 11
146.789992
 21
147.95
 31
0.0
  0
LINE
  5
264
100
AcDbEntity
  8
LAY-3
  6
CONTINUOUS
 62
     3
100
AcDbLine
 10
124.689992
 20
147.95
 30
0.0
 11
126.489992
 21
147.95
 31
0.0
  0
LINE
  5
265
100
AcDbEntity
  8
LAY-3
  6
CONTINUOUS
 62
     3
100
AcDbLine
 10
124.689992
 20
147.95
 30
0.0
 11
124.689992
 21
126.95
 31
0.0
  0
LINE
  5
266
100
AcDbEntity
  8
LAY-3
  6
CONTINUOUS
 62
     3
100
AcDbLine
 10
126.489992
 20
147.95
 30
0.0
 11
126.489992
 21
126.95
 31
0.0
  0
LINE
  5
267
100
AcDbEntity
  8
LAY-3
  6
CONTINUOUS
 62
     3
100
AcDbLine
 10
124.689992
 20
126.95
 30
0.0
 11
126.489992
 21
126.95
 31
0.0
  0
LINE
  5
268
100
AcDbEntity
  8
LAY-3
  6
CONTINUOUS
 62
     3
100
AcDbLine
 10
144.989992
 20
147.95
 30
0.0
 11
144.989992
 21
126.95
 31
0.0
  0
LINE
  5
269
100
AcDbEntity
  8
LAY-3
  6
CONTINUOUS
 62
     3
100
AcDbLine
 10
146.789992
 20
147.95
 30
0.0
 11
146.789992
 21
131.95
 31
0.0
  0
LINE
  5
26A
100
AcDbEntity
  8
LAY-3
  6
CONTINUOUS
 62
     3
100
AcDbLine
 10
144.989992
 20
126.95
 30
0.0
 11
146.789992
 21
126.95
 31
0.0
  0
LINE
  5
26B
100
AcDbEntity
  8
LAY-3
  6
CONTINUOUS
 62
     3
100
AcDbLine
 10
126.489992
 20
142.95
 30
0.0
 11
127.96142
 21
142.95
 31
0.0
  0
LINE
  5
26C
100
AcDbEntity
  8
LAY-3
  6
CONTINUOUS
 62
     3
100
AcDbLine
 10
124.489992
 20
142.75
 30
0.0
 11
124.489992
 21
132.15
 31
0.0
  0
LINE
  5
26D
100
AcDbEntity
  8
LAY-3
  6
CONTINUOUS
 62
     3
100
AcDbLine
 10
146.989992
 20
142.75
 30
0.0
 11
146.989992
 21
132.15
 31
0.0
  0
LINE
  5
26E
100
AcDbEntity
  8
LAY-3
  6
CONTINUOUS
 62
     3
100
AcDbLine
 10
136.61282
 20
143.283165
 30
0.0
 11
137.711829
 21
144.265259
 31
0.0
  0
LINE
  5
26F
100
AcDbEntity
  8
LAY-3
  6
CONTINUOUS
 62
     3
100
AcDbLine
 10
134.867164
 20
143.283165
 30
0.0
 11
133.768155
 21
144.265259
 31
0.0
  0
LINE
  5
270
100
AcDbEntity
  8
LAY-3
  6
CONTINUOUS
 62
     3
100
AcDbLine
 10
128.685558
 20
143.260345
 30
0.0
 11
129.478064
 21
144.092476
 31
0.0
  0
LINE
  5
271
100
AcDbEntity
  8
LAY-3
  6
CONTINUOUS
 62
     3
100
AcDbLine
 10
142.001919
 20
144.092476
 30
0.0
 11
142.794425
 21
143.260345
 31
0.0
  0
LINE
  5
272
100
AcDbEntity
  8
LAY-3
  6
EXLTYPE3
 62
     1
100
AcDbLine
 10
315.476675
 20
207.45
 30
0.0
 11
336.496675
 21
207.45
 31
0.0
  0
ARC
  5
273
100
AcDbEntity
  8
LAY-3
  6
CONTINUOUS
 62
     3
100
AcDbCircle
 10
139.767697
 20
141.964645
 30
0.0
 40
3.085355
100
AcDbArc
 50
43.602819
 51
131.784516
  0
ARC
  5
274
100
AcDbEntity
  8
LAY-3
  6
CONTINUOUS
 62
     3
100
AcDbCircle
 10
131.712287
 20
141.964645
 30
0.0
 40
3.085355
100
AcDbArc
 50
48.215484
 51
136.397181
  0
ARC
  5
275
100
AcDbEntity
  8
LAY-3
  6
CONTINUOUS
 62
     3
100
AcDbCircle
 10
135.739992
 20
144.259902
 30
0.0
 40
1.309902
100
AcDbArc
 50
228.215484
 51
311.784516
  0
LINE
  5
276
100
AcDbEntity
  8
LAY-3
  6
CONTINUOUS
 62
     3
100
AcDbLine
 10
143.518563
 20
142.95
 30
0.0
 11
144.989992
 21
142.95
 31
0.0
  0
ARC
  5
277
100
AcDbEntity
  8
LAY-3
  6
CONTINUOUS
 62
     3
100
AcDbCircle
 10
143.518563
 20
143.95
 30
0.0
 40
1.0
100
AcDbArc
 50
223.602819
 51
270.0
  0
ARC
  5
278
100
AcDbEntity
  8
LAY-3
  6
CONTINUOUS
 62
     3
100
AcDbCircle
 10
127.96142
 20
143.95
 30
0.0
 40
1.0
100
AcDbArc
 50
270.0
 51
316.397181
  0
ARC
  5
279
100
AcDbEntity
  8
LAY-3
  6
CONTINUOUS
 62
     3
100
AcDbCircle
 10
139.767697
 20
132.935355
 30
0.0
 40
3.085355
100
AcDbArc
 50
228.215484
 51
316.397181
  0
ARC
  5
27A
100
AcDbEntity
  8
LAY-3
  6
CONTINUOUS
 62
     3
100
AcDbCircle
 10
135.739992
 20
130.640098
 30
0.0
 40
1.309902
100
AcDbArc
 50
48.215484
 51
131.784516
  0
LINE
  5
27B
100
AcDbEntity
  8
LAY-3
  6
CONTINUOUS
 62
     3
100
AcDbLine
 10
136.61282
 20
131.616835
 30
0.0
 11
137.711829
 21
130.634741
 31
0.0
  0
LINE
  5
27C
100
AcDbEntity
  8
LAY-3
  6
CONTINUOUS
 62
     3
100
AcDbLine
 10
134.867164
 20
131.616835
 30
0.0
 11
133.768155
 21
130.634741
 31
0.0
  0
ARC
  5
27D
100
AcDbEntity
  8
LAY-3
  6
CONTINUOUS
 62
     3
100
AcDbCircle
 10
131.712287
 20
132.935355
 30
0.0
 40
3.085355
100
AcDbArc
 50
223.602819
 51
311.784516
  0
LINE
  5
27E
100
AcDbEntity
  8
LAY-3
  6
CONTINUOUS
 62
     3
100
AcDbLine
 10
129.478064
 20
130.807524
 30
0.0
 11
128.685558
 21
131.639655
 31
0.0
  0
LINE
  5
27F
100
AcDbEntity
  8
LAY-3
  6
CONTINUOUS
 62
     3
100
AcDbLine
 10
127.96142
 20
131.95
 30
0.0
 11
126.489992
 21
131.95
 31
0.0
  0
ARC
  5
280
100
AcDbEntity
  8
LAY-3
  6
CONTINUOUS
 62
     3
100
AcDbCircle
 10
127.96142
 20
130.95
 30
0.0
 40
1.0
100
AcDbArc
 50
43.602819
 51
90.0
  0
LINE
  5
281
100
AcDbEntity
  8
LAY-3
  6
CONTINUOUS
 62
     3
100
AcDbLine
 10
142.794425
 20
131.639655
 30
0.0
 11
142.001919
 21
130.807524
 31
0.0
  0
LINE
  5
282
100
AcDbEntity
  8
LAY-3
  6
CONTINUOUS
 62
     3
100
AcDbLine
 10
143.518563
 20
131.95
 30
0.0
 11
144.989992
 21
131.95
 31
0.0
  0
ARC
  5
283
100
AcDbEntity
  8
LAY-3
  6
CONTINUOUS
 62
     3
100
AcDbCircle
 10
143.518563
 20
130.95
 30
0.0
 40
1.0
100
AcDbArc
 50
90.0
 51
136.397181
  0
TEXT
  5
284
100
AcDbEntity
  8
LAY-3
  6
CONTINUOUS
 62
     7
100
AcDbText
 10
106.701675
 20
168.348226
 30
0.0
 40
7.5
  1
１００Ａ×２２５Ｌ
 41
0.710578
  7
EXCADSTD
 72
     5
 11
163.801678
 21
168.348226
 31
0.0
100
AcDbText
  0
LINE
  5
285
100
AcDbEntity
  8
LAY-3
  6
CONTINUOUS
 62
     3
100
AcDbLine
 10
188.573325
 20
149.95
 30
0.0
 11
188.573325
 21
124.95
 31
0.0
  0
LINE
  5
286
100
AcDbEntity
  8
LAY-3
  6
CONTINUOUS
 62
     3
100
AcDbLine
 10
210.673325
 20
149.95
 30
0.0
 11
210.673325
 21
124.95
 31
0.0
  0
LINE
  5
287
100
AcDbEntity
  8
LAY-3
  6
CONTINUOUS
 62
     3
100
AcDbLine
 10
188.373325
 20
144.0
 30
0.0
 11
188.373325
 21
130.9
 31
0.0
  0
LINE
  5
288
100
AcDbEntity
  8
LAY-3
  6
CONTINUOUS
 62
     3
100
AcDbLine
 10
210.873325
 20
144.0
 30
0.0
 11
210.873325
 21
130.9
 31
0.0
  0
ARC
  5
289
100
AcDbEntity
  8
LAY-3
  6
CONTINUOUS
 62
     3
100
AcDbCircle
 10
195.59562
 20
143.214645
 30
0.0
 40
3.085355
100
AcDbArc
 50
48.215484
 51
136.397181
  0
ARC
  5
28A
100
AcDbEntity
  8
LAY-3
  6
CONTINUOUS
 62
     3
100
AcDbCircle
 10
199.623325
 20
145.509902
 30
0.0
 40
1.309902
100
AcDbArc
 50
228.215484
 51
311.784516
  0
LINE
  5
28B
100
AcDbEntity
  8
LAY-3
  6
CONTINUOUS
 62
     3
100
AcDbLine
 10
198.750497
 20
144.533165
 30
0.0
 11
197.651488
 21
145.515259
 31
0.0
  0
LINE
  5
28C
100
AcDbEntity
  8
LAY-3
  6
CONTINUOUS
 62
     3
100
AcDbLine
 10
200.496153
 20
144.533165
 30
0.0
 11
201.595162
 21
145.515259
 31
0.0
  0
ARC
  5
28D
100
AcDbEntity
  8
LAY-3
  6
CONTINUOUS
 62
     3
100
AcDbCircle
 10
203.65103
 20
143.214645
 30
0.0
 40
3.085355
100
AcDbArc
 50
43.602819
 51
131.784516
  0
LINE
  5
28E
100
AcDbEntity
  8
LAY-3
  6
CONTINUOUS
 62
     3
100
AcDbLine
 10
205.885253
 20
145.342476
 30
0.0
 11
206.677759
 21
144.510345
 31
0.0
  0
ARC
  5
28F
100
AcDbEntity
  8
LAY-3
  6
CONTINUOUS
 62
     3
100
AcDbCircle
 10
207.401896
 20
145.2
 30
0.0
 40
1.0
100
AcDbArc
 50
223.602819
 51
270.0
  0
LINE
  5
290
100
AcDbEntity
  8
LAY-3
  6
CONTINUOUS
 62
     3
100
AcDbLine
 10
192.568892
 20
144.510345
 30
0.0
 11
193.361397
 21
145.342476
 31
0.0
  0
ARC
  5
291
100
AcDbEntity
  8
LAY-3
  6
CONTINUOUS
 62
     3
100
AcDbCircle
 10
191.844754
 20
145.2
 30
0.0
 40
1.0
100
AcDbArc
 50
270.0
 51
316.397181
  0
ARC
  5
292
100
AcDbEntity
  8
LAY-3
  6
CONTINUOUS
 62
     3
100
AcDbCircle
 10
203.65103
 20
131.685355
 30
0.0
 40
3.085355
100
AcDbArc
 50
228.215484
 51
316.397181
  0
ARC
  5
293
100
AcDbEntity
  8
LAY-3
  6
CONTINUOUS
 62
     3
100
AcDbCircle
 10
199.623325
 20
129.390098
 30
0.0
 40
1.309902
100
AcDbArc
 50
48.215484
 51
131.784516
  0
LINE
  5
294
100
AcDbEntity
  8
LAY-3
  6
CONTINUOUS
 62
     3
100
AcDbLine
 10
200.496153
 20
130.366835
 30
0.0
 11
201.595162
 21
129.384741
 31
0.0
  0
LINE
  5
295
100
AcDbEntity
  8
LAY-3
  6
CONTINUOUS
 62
     3
100
AcDbLine
 10
198.750497
 20
130.366835
 30
0.0
 11
197.651488
 21
129.384741
 31
0.0
  0
ARC
  5
296
100
AcDbEntity
  8
LAY-3
  6
CONTINUOUS
 62
     3
100
AcDbCircle
 10
195.59562
 20
131.685355
 30
0.0
 40
3.085355
100
AcDbArc
 50
223.602819
 51
311.784516
  0
LINE
  5
297
100
AcDbEntity
  8
LAY-3
  6
CONTINUOUS
 62
     3
100
AcDbLine
 10
193.361397
 20
129.557524
 30
0.0
 11
192.568892
 21
130.389655
 31
0.0
  0
ARC
  5
298
100
AcDbEntity
  8
LAY-3
  6
CONTINUOUS
 62
     3
100
AcDbCircle
 10
191.844754
 20
129.7
 30
0.0
 40
1.0
100
AcDbArc
 50
43.602819
 51
90.0
  0
LINE
  5
299
100
AcDbEntity
  8
LAY-3
  6
CONTINUOUS
 62
     3
100
AcDbLine
 10
206.677759
 20
130.389655
 30
0.0
 11
205.885253
 21
129.557524
 31
0.0
  0
ARC
  5
29A
100
AcDbEntity
  8
LAY-3
  6
CONTINUOUS
 62
     3
100
AcDbCircle
 10
207.401896
 20
129.7
 30
0.0
 40
1.0
100
AcDbArc
 50
90.0
 51
136.397181
  0
LINE
  5
29B
100
AcDbEntity
  8
LAY-3
  6
EXLTYPE3
 62
     1
100
AcDbLine
 10
186.066667
 20
137.45
 30
0.0
 11
213.466667
 21
137.45
 31
0.0
  0
LINE
  5
29C
100
AcDbEntity
  8
LAY-3
  6
CONTINUOUS
 62
     3
100
AcDbLine
 10
190.573325
 20
149.95
 30
0.0
 11
188.573325
 21
149.95
 31
0.0
  0
LINE
  5
29D
100
AcDbEntity
  8
LAY-3
  6
CONTINUOUS
 62
     3
100
AcDbLine
 10
188.573325
 20
124.95
 30
0.0
 11
190.573325
 21
124.95
 31
0.0
  0
LINE
  5
29E
100
AcDbEntity
  8
LAY-3
  6
CONTINUOUS
 62
     3
100
AcDbLine
 10
208.673325
 20
149.95
 30
0.0
 11
210.673325
 21
149.95
 31
0.0
  0
LINE
  5
29F
100
AcDbEntity
  8
LAY-3
  6
CONTINUOUS
 62
     3
100
AcDbLine
 10
208.673325
 20
124.95
 30
0.0
 11
210.673325
 21
124.95
 31
0.0
  0
LINE
  5
2A0
100
AcDbEntity
  8
LAY-3
  6
CONTINUOUS
 62
     3
100
AcDbLine
 10
146.789992
 20
131.95
 30
0.0
 11
146.789992
 21
126.95
 31
0.0
  0
ARC
  5
2A1
100
AcDbEntity
  8
LAY-3
  6
CONTINUOUS
 62
     3
100
AcDbCircle
 10
146.789992
 20
142.75
 30
0.0
 40
0.2
100
AcDbArc
 50
0.0
 51
90.0
  0
ARC
  5
2A2
100
AcDbEntity
  8
LAY-3
  6
CONTINUOUS
 62
     3
100
AcDbCircle
 10
146.789992
 20
132.15
 30
0.0
 40
0.2
100
AcDbArc
 50
270.0
 51
0.0
  0
ARC
  5
2A3
100
AcDbEntity
  8
LAY-3
  6
CONTINUOUS
 62
     3
100
AcDbCircle
 10
124.689992
 20
132.15
 30
0.0
 40
0.2
100
AcDbArc
 50
180.0
 51
270.0
  0
ARC
  5
2A4
100
AcDbEntity
  8
LAY-3
  6
CONTINUOUS
 62
     3
100
AcDbCircle
 10
124.689992
 20
142.75
 30
0.0
 40
0.2
100
AcDbArc
 50
90.0
 51
180.0
  0
LINE
  5
2A5
100
AcDbEntity
  8
LAY-3
  6
CONTINUOUS
 62
     3
100
AcDbLine
 10
207.401896
 20
130.7
 30
0.0
 11
208.673325
 21
130.7
 31
0.0
  0
LINE
  5
2A6
100
AcDbEntity
  8
LAY-3
  6
CONTINUOUS
 62
     3
100
AcDbLine
 10
190.573325
 20
130.7
 30
0.0
 11
191.844754
 21
130.7
 31
0.0
  0
LINE
  5
2A7
100
AcDbEntity
  8
LAY-3
  6
CONTINUOUS
 62
     3
100
AcDbLine
 10
190.573325
 20
144.2
 30
0.0
 11
191.844754
 21
144.2
 31
0.0
  0
LINE
  5
2A8
100
AcDbEntity
  8
LAY-3
  6
CONTINUOUS
 62
     3
100
AcDbLine
 10
207.401896
 20
144.2
 30
0.0
 11
208.673325
 21
144.2
 31
0.0
  0
ARC
  5
2A9
100
AcDbEntity
  8
LAY-3
  6
CONTINUOUS
 62
     3
100
AcDbCircle
 10
188.573325
 20
130.9
 30
0.0
 40
0.2
100
AcDbArc
 50
180.0
 51
270.0
  0
ARC
  5
2AA
100
AcDbEntity
  8
LAY-3
  6
CONTINUOUS
 62
     3
100
AcDbCircle
 10
188.573325
 20
144.0
 30
0.0
 40
0.2
100
AcDbArc
 50
90.0
 51
180.0
  0
ARC
  5
2AB
100
AcDbEntity
  8
LAY-3
  6
CONTINUOUS
 62
     3
100
AcDbCircle
 10
210.673325
 20
144.0
 30
0.0
 40
0.2
100
AcDbArc
 50
0.0
 51
90.0
  0
ARC
  5
2AC
100
AcDbEntity
  8
LAY-3
  6
CONTINUOUS
 62
     3
100
AcDbCircle
 10
210.673325
 20
130.9
 30
0.0
 40
0.2
100
AcDbArc
 50
270.0
 51
0.0
  0
TEXT
  5
2AD
100
AcDbEntity
  8
LAY-3
  6
CONTINUOUS
 62
     7
100
AcDbText
 10
170.701675
 20
168.746453
 30
0.0
 40
7.5
  1
１２５Ａ×２２５Ｌ
 41
0.710578
  7
EXCADSTD
 72
     5
 11
227.801678
 21
168.746453
 31
0.0
100
AcDbText
  0
LINE
  5
2AE
100
AcDbEntity
  8
LAY-3
  6
EXLTYPE3
 62
     1
100
AcDbLine
 10
246.508333
 20
137.45
 30
0.0
 11
281.308333
 21
137.45
 31
0.0
  0
LINE
  5
2AF
100
AcDbEntity
  8
LAY-3
  6
CONTINUOUS
 62
     3
100
AcDbLine
 10
251.714992
 20
151.45
 30
0.0
 11
251.714992
 21
123.45
 31
0.0
  0
LINE
  5
2B0
100
AcDbEntity
  8
LAY-3
  6
CONTINUOUS
 62
     3
100
AcDbLine
 10
273.814992
 20
151.45
 30
0.0
 11
273.814992
 21
123.45
 31
0.0
  0
LINE
  5
2B1
100
AcDbEntity
  8
LAY-3
  6
CONTINUOUS
 62
     3
100
AcDbLine
 10
251.514992
 20
145.25
 30
0.0
 11
251.514992
 21
129.65
 31
0.0
  0
LINE
  5
2B2
100
AcDbEntity
  8
LAY-3
  6
CONTINUOUS
 62
     3
100
AcDbLine
 10
274.014992
 20
145.25
 30
0.0
 11
274.014992
 21
129.65
 31
0.0
  0
LINE
  5
2B3
100
AcDbEntity
  8
LAY-3
  6
CONTINUOUS
 62
     3
100
AcDbLine
 10
190.573325
 20
149.95
 30
0.0
 11
190.573325
 21
124.95
 31
0.0
  0
LINE
  5
2B4
100
AcDbEntity
  8
LAY-3
  6
CONTINUOUS
 62
     3
100
AcDbLine
 10
208.673325
 20
149.95
 30
0.0
 11
208.673325
 21
124.95
 31
0.0
  0
LINE
  5
2B5
100
AcDbEntity
  8
LAY-3
  6
CONTINUOUS
 62
     3
100
AcDbLine
 10
253.914992
 20
151.45
 30
0.0
 11
253.914992
 21
123.45
 31
0.0
  0
LINE
  5
2B6
100
AcDbEntity
  8
LAY-3
  6
CONTINUOUS
 62
     3
100
AcDbLine
 10
271.614992
 20
151.45
 30
0.0
 11
271.614992
 21
123.45
 31
0.0
  0
LINE
  5
2B7
100
AcDbEntity
  8
LAY-3
  6
CONTINUOUS
 62
     3
100
AcDbLine
 10
251.714992
 20
151.45
 30
0.0
 11
253.914992
 21
151.45
 31
0.0
  0
LINE
  5
2B8
100
AcDbEntity
  8
LAY-3
  6
CONTINUOUS
 62
     3
100
AcDbLine
 10
251.714992
 20
123.45
 30
0.0
 11
253.914992
 21
123.45
 31
0.0
  0
LINE
  5
2B9
100
AcDbEntity
  8
LAY-3
  6
CONTINUOUS
 62
     3
100
AcDbLine
 10
271.614992
 20
151.45
 30
0.0
 11
273.814992
 21
151.45
 31
0.0
  0
LINE
  5
2BA
100
AcDbEntity
  8
LAY-3
  6
CONTINUOUS
 62
     3
100
AcDbLine
 10
271.614992
 20
123.45
 30
0.0
 11
273.814992
 21
123.45
 31
0.0
  0
LINE
  5
2BB
100
AcDbEntity
  8
LAY-3
  6
CONTINUOUS
 62
     3
100
AcDbLine
 10
270.201314
 20
145.45
 30
0.0
 11
270.234154
 21
145.45
 31
0.0
  0
LINE
  5
2BC
100
AcDbEntity
  8
LAY-3
  6
CONTINUOUS
 62
     3
100
AcDbLine
 10
255.295829
 20
145.45
 30
0.0
 11
255.328669
 21
145.45
 31
0.0
  0
LINE
  5
2BD
100
AcDbEntity
  8
LAY-3
  6
CONTINUOUS
 62
     3
100
AcDbLine
 10
269.5764
 20
145.794632
 30
0.0
 11
268.801401
 21
146.914076
 31
0.0
  0
LINE
  5
2BE
100
AcDbEntity
  8
LAY-3
  6
CONTINUOUS
 62
     3
100
AcDbLine
 10
264.52394
 20
146.995264
 30
0.0
 11
263.741139
 21
145.95153
 31
0.0
  0
LINE
  5
2BF
100
AcDbEntity
  8
LAY-3
  6
CONTINUOUS
 62
     3
100
AcDbLine
 10
261.789976
 20
145.883351
 30
0.0
 11
260.646709
 21
147.20446
 31
0.0
  0
LINE
  5
2C0
100
AcDbEntity
  8
LAY-3
  6
CONTINUOUS
 62
     3
100
AcDbLine
 10
255.953583
 20
145.794632
 30
0.0
 11
256.785373
 21
146.996106
 31
0.0
  0
LINE
  5
2C1
100
AcDbEntity
  8
LAY-3
  6
CONTINUOUS
 62
     3
100
AcDbLine
 10
255.295829
 20
145.45
 30
0.0
 11
253.914992
 21
145.45
 31
0.0
  0
ARC
  5
2C2
100
AcDbEntity
  8
LAY-3
  6
CONTINUOUS
 62
     3
100
AcDbCircle
 10
255.295829
 20
146.25
 30
0.0
 40
0.8
100
AcDbArc
 50
270.0
 51
325.304846
  0
ARC
  5
2C3
100
AcDbEntity
  8
LAY-3
  6
CONTINUOUS
 62
     3
100
AcDbCircle
 10
258.796802
 20
145.603578
 30
0.0
 40
2.446422
100
AcDbArc
 50
40.872408
 51
145.304846
  0
ARC
  5
2C4
100
AcDbEntity
  8
LAY-3
  6
CONTINUOUS
 62
     3
100
AcDbCircle
 10
266.633412
 20
145.41316
 30
0.0
 40
2.63684
100
AcDbArc
 50
34.695154
 51
143.130102
  0
ARC
  5
2C5
100
AcDbEntity
  8
LAY-3
  6
CONTINUOUS
 62
     3
100
AcDbCircle
 10
262.738079
 20
146.703825
 30
0.0
 40
1.253825
100
AcDbArc
 50
220.872408
 51
323.130102
  0
ARC
  5
2C6
100
AcDbEntity
  8
LAY-3
  6
CONTINUOUS
 62
     3
100
AcDbCircle
 10
270.234154
 20
146.25
 30
0.0
 40
0.8
100
AcDbArc
 50
214.695154
 51
270.0
  0
LINE
  5
2C7
100
AcDbEntity
  8
LAY-3
  6
CONTINUOUS
 62
     3
100
AcDbLine
 10
271.614992
 20
145.45
 30
0.0
 11
270.234154
 21
145.45
 31
0.0
  0
ARC
  5
2C8
100
AcDbEntity
  8
LAY-3
  6
CONTINUOUS
 62
     3
100
AcDbCircle
 10
273.814992
 20
145.25
 30
0.0
 40
0.2
100
AcDbArc
 50
0.0
 51
90.0
  0
ARC
  5
2C9
100
AcDbEntity
  8
LAY-3
  6
CONTINUOUS
 62
     3
100
AcDbCircle
 10
273.814992
 20
129.65
 30
0.0
 40
0.2
100
AcDbArc
 50
270.0
 51
0.0
  0
ARC
  5
2CA
100
AcDbEntity
  8
LAY-3
  6
CONTINUOUS
 62
     3
100
AcDbCircle
 10
251.714992
 20
129.65
 30
0.0
 40
0.2
100
AcDbArc
 50
180.0
 51
270.0
  0
ARC
  5
2CB
100
AcDbEntity
  8
LAY-3
  6
CONTINUOUS
 62
     3
100
AcDbCircle
 10
251.714992
 20
145.25
 30
0.0
 40
0.2
100
AcDbArc
 50
90.0
 51
180.0
  0
ARC
  5
2CC
100
AcDbEntity
  8
LAY-3
  6
CONTINUOUS
 62
     3
100
AcDbCircle
 10
270.234154
 20
128.65
 30
0.0
 40
0.8
100
AcDbArc
 50
90.0
 51
145.304846
  0
ARC
  5
2CD
100
AcDbEntity
  8
LAY-3
  6
CONTINUOUS
 62
     3
100
AcDbCircle
 10
266.733182
 20
129.296422
 30
0.0
 40
2.446422
100
AcDbArc
 50
220.872408
 51
325.304846
  0
ARC
  5
2CE
100
AcDbEntity
  8
LAY-3
  6
CONTINUOUS
 62
     3
100
AcDbCircle
 10
258.896572
 20
129.48684
 30
0.0
 40
2.63684
100
AcDbArc
 50
214.695154
 51
323.130102
  0
ARC
  5
2CF
100
AcDbEntity
  8
LAY-3
  6
CONTINUOUS
 62
     3
100
AcDbCircle
 10
262.791904
 20
128.196175
 30
0.0
 40
1.253825
100
AcDbArc
 50
40.872408
 51
143.130102
  0
LINE
  5
2D0
100
AcDbEntity
  8
LAY-3
  6
CONTINUOUS
 62
     3
100
AcDbLine
 10
255.953583
 20
129.105368
 30
0.0
 11
256.728583
 21
127.985924
 31
0.0
  0
LINE
  5
2D1
100
AcDbEntity
  8
LAY-3
  6
CONTINUOUS
 62
     3
100
AcDbLine
 10
261.006044
 20
127.904736
 30
0.0
 11
261.788844
 21
128.94847
 31
0.0
  0
LINE
  5
2D2
100
AcDbEntity
  8
LAY-3
  6
CONTINUOUS
 62
     3
100
AcDbLine
 10
263.740007
 20
129.016649
 30
0.0
 11
264.883274
 21
127.69554
 31
0.0
  0
LINE
  5
2D3
100
AcDbEntity
  8
LAY-3
  6
CONTINUOUS
 62
     3
100
AcDbLine
 10
269.5764
 20
129.105368
 30
0.0
 11
268.744611
 21
127.903894
 31
0.0
  0
ARC
  5
2D4
100
AcDbEntity
  8
LAY-3
  6
CONTINUOUS
 62
     3
100
AcDbCircle
 10
255.295829
 20
128.65
 30
0.0
 40
0.8
100
AcDbArc
 50
34.695154
 51
90.0
  0
LINE
  5
2D5
100
AcDbEntity
  8
LAY-3
  6
CONTINUOUS
 62
     3
100
AcDbLine
 10
253.914992
 20
129.45
 30
0.0
 11
255.295829
 21
129.45
 31
0.0
  0
LINE
  5
2D6
100
AcDbEntity
  8
LAY-3
  6
CONTINUOUS
 62
     3
100
AcDbLine
 10
270.234154
 20
129.45
 30
0.0
 11
271.614992
 21
129.45
 31
0.0
  0
LINE
  5
2D7
100
AcDbEntity
  8
LAY-3
  6
CONTINUOUS
 62
     3
100
AcDbLine
 10
255.328669
 20
129.45
 30
0.0
 11
255.295829
 21
129.45
 31
0.0
  0
LINE
  5
2D8
100
AcDbEntity
  8
LAY-3
  6
CONTINUOUS
 62
     3
100
AcDbLine
 10
270.234154
 20
129.45
 30
0.0
 11
270.201314
 21
129.45
 31
0.0
  0
TEXT
  5
2D9
100
AcDbEntity
  8
LAY-3
  6
CONTINUOUS
 62
     7
100
AcDbText
 10
232.701675
 20
168.55
 30
0.0
 40
7.5
  1
１５０Ａ×２２５Ｌ
 41
0.710578
  7
EXCADSTD
 72
     5
 11
289.801678
 21
168.55
 31
0.0
100
AcDbText
  0
LINE
  5
2DA
100
AcDbEntity
  8
LAY-3
  6
EXLTYPE3
 62
     1
100
AcDbLine
 10
303.533333
 20
137.45
 30
0.0
 11
345.533333
 21
137.45
 31
0.0
  0
LINE
  5
2DB
100
AcDbEntity
  8
LAY-3
  6
CONTINUOUS
 62
     3
100
AcDbLine
 10
342.433333
 20
150.4
 30
0.0
 11
342.433333
 21
124.5
 31
0.0
  0
LINE
  5
2DC
100
AcDbEntity
  8
LAY-3
  6
CONTINUOUS
 62
     3
100
AcDbLine
 10
310.133333
 20
153.95
 30
0.0
 11
310.133333
 21
120.95
 31
0.0
  0
LINE
  5
2DD
100
AcDbEntity
  8
LAY-3
  6
CONTINUOUS
 62
     3
100
AcDbLine
 10
342.233333
 20
153.95
 30
0.0
 11
342.233333
 21
120.95
 31
0.0
  0
LINE
  5
2DE
100
AcDbEntity
  8
LAY-3
  6
CONTINUOUS
 62
     3
100
AcDbLine
 10
340.033333
 20
153.95
 30
0.0
 11
340.033333
 21
120.95
 31
0.0
  0
LINE
  5
2DF
100
AcDbEntity
  8
LAY-3
  6
CONTINUOUS
 62
     3
100
AcDbLine
 10
312.333333
 20
153.95
 30
0.0
 11
312.333333
 21
120.95
 31
0.0
  0
LINE
  5
2E0
100
AcDbEntity
  8
LAY-3
  6
CONTINUOUS
 62
     3
100
AcDbLine
 10
310.133333
 20
153.95
 30
0.0
 11
312.333333
 21
153.95
 31
0.0
  0
LINE
  5
2E1
100
AcDbEntity
  8
LAY-3
  6
CONTINUOUS
 62
     3
100
AcDbLine
 10
310.133333
 20
120.95
 30
0.0
 11
312.333333
 21
120.95
 31
0.0
  0
LINE
  5
2E2
100
AcDbEntity
  8
LAY-3
  6
CONTINUOUS
 62
     3
100
AcDbLine
 10
309.933333
 20
150.4
 30
0.0
 11
309.933333
 21
124.5
 31
0.0
  0
LINE
  5
2E3
100
AcDbEntity
  8
LAY-3
  6
CONTINUOUS
 62
     3
100
AcDbLine
 10
340.033333
 20
153.95
 30
0.0
 11
342.233333
 21
153.95
 31
0.0
  0
LINE
  5
2E4
100
AcDbEntity
  8
LAY-3
  6
CONTINUOUS
 62
     3
100
AcDbLine
 10
340.033333
 20
120.95
 30
0.0
 11
342.233333
 21
120.95
 31
0.0
  0
LINE
  5
2E5
100
AcDbEntity
  8
LAY-3
  6
CONTINUOUS
 62
     3
100
AcDbLine
 10
312.333333
 20
147.95
 30
0.0
 11
314.386271
 21
147.95
 31
0.0
  0
LINE
  5
2E6
100
AcDbEntity
  8
LAY-3
  6
CONTINUOUS
 62
     3
100
AcDbLine
 10
315.477361
 20
148.420669
 30
0.0
 11
315.937871
 21
148.90881
 31
0.0
  0
LINE
  5
2E7
100
AcDbEntity
  8
LAY-3
  6
CONTINUOUS
 62
     3
100
AcDbLine
 10
336.889306
 20
148.420669
 30
0.0
 11
336.428796
 21
148.90881
 31
0.0
  0
ARC
  5
2E8
100
AcDbEntity
  8
LAY-3
  6
CONTINUOUS
 62
     3
100
AcDbCircle
 10
332.508333
 20
145.21026
 30
0.0
 40
5.38974
100
AcDbArc
 50
43.331663
 51
134.837263
  0
ARC
  5
2E9
100
AcDbEntity
  8
LAY-3
  6
CONTINUOUS
 62
     3
100
AcDbCircle
 10
319.858333
 20
145.21026
 30
0.0
 40
5.38974
100
AcDbArc
 50
44.41253
 51
136.668337
  0
LINE
  5
2EA
100
AcDbEntity
  8
LAY-3
  6
CONTINUOUS
 62
     3
100
AcDbLine
 10
337.980396
 20
147.95
 30
0.0
 11
340.033333
 21
147.95
 31
0.0
  0
ARC
  5
2EB
100
AcDbEntity
  8
LAY-3
  6
CONTINUOUS
 62
     3
100
AcDbCircle
 10
326.183333
 20
151.427251
 30
0.0
 40
3.477251
100
AcDbArc
 50
225.04812
 51
313.807792
  0
ARC
  5
2EC
100
AcDbEntity
  8
LAY-3
  6
CONTINUOUS
 62
     3
100
AcDbCircle
 10
337.980396
 20
149.45
 30
0.0
 40
1.5
100
AcDbArc
 50
223.331663
 51
270.0
  0
ARC
  5
2ED
100
AcDbEntity
  8
LAY-3
  6
CONTINUOUS
 62
     3
100
AcDbCircle
 10
314.386271
 20
149.45
 30
0.0
 40
1.5
100
AcDbArc
 50
270.0
 51
316.668337
  0
ARC
  5
2EE
100
AcDbEntity
  8
LAY-3
  6
CONTINUOUS
 62
     3
100
AcDbCircle
 10
332.508333
 20
129.68974
 30
0.0
 40
5.38974
100
AcDbArc
 50
224.467588
 51
316.668337
  0
ARC
  5
2EF
100
AcDbEntity
  8
LAY-3
  6
CONTINUOUS
 62
     3
100
AcDbCircle
 10
326.183333
 20
123.472749
 30
0.0
 40
3.477251
100
AcDbArc
 50
44.961132
 51
133.816434
  0
ARC
  5
2F0
100
AcDbEntity
  8
LAY-3
  6
CONTINUOUS
 62
     3
100
AcDbCircle
 10
319.858333
 20
129.68974
 30
0.0
 40
5.38974
100
AcDbArc
 50
223.331663
 51
315.680011
  0
LINE
  5
2F1
100
AcDbEntity
  8
LAY-3
  6
CONTINUOUS
 62
     3
100
AcDbLine
 10
315.477361
 20
126.479331
 30
0.0
 11
315.937871
 21
125.99119
 31
0.0
  0
LINE
  5
2F2
100
AcDbEntity
  8
LAY-3
  6
CONTINUOUS
 62
     3
100
AcDbLine
 10
314.386271
 20
126.95
 30
0.0
 11
312.333333
 21
126.95
 31
0.0
  0
ARC
  5
2F3
100
AcDbEntity
  8
LAY-3
  6
CONTINUOUS
 62
     3
100
AcDbCircle
 10
314.386271
 20
125.45
 30
0.0
 40
1.5
100
AcDbArc
 50
43.331663
 51
90.0
  0
LINE
  5
2F4
100
AcDbEntity
  8
LAY-3
  6
CONTINUOUS
 62
     3
100
AcDbLine
 10
336.889306
 20
126.479331
 30
0.0
 11
336.428796
 21
125.99119
 31
0.0
  0
LINE
  5
2F5
100
AcDbEntity
  8
LAY-3
  6
CONTINUOUS
 62
     3
100
AcDbLine
 10
340.033333
 20
126.95
 30
0.0
 11
337.980396
 21
126.95
 31
0.0
  0
ARC
  5
2F6
100
AcDbEntity
  8
LAY-3
  6
CONTINUOUS
 62
     3
100
AcDbCircle
 10
337.980396
 20
125.45
 30
0.0
 40
1.5
100
AcDbArc
 50
90.0
 51
136.668337
  0
ARC
  5
2F7
100
AcDbEntity
  8
LAY-3
  6
CONTINUOUS
 62
     3
100
AcDbCircle
 10
310.133333
 20
124.5
 30
0.0
 40
0.2
100
AcDbArc
 50
180.0
 51
270.0
  0
ARC
  5
2F8
100
AcDbEntity
  8
LAY-3
  6
CONTINUOUS
 62
     3
100
AcDbCircle
 10
310.133333
 20
150.4
 30
0.0
 40
0.2
100
AcDbArc
 50
90.0
 51
180.0
  0
ARC
  5
2F9
100
AcDbEntity
  8
LAY-3
  6
CONTINUOUS
 62
     3
100
AcDbCircle
 10
342.233333
 20
150.4
 30
0.0
 40
0.2
100
AcDbArc
 50
0.0
 51
90.0
  0
ARC
  5
2FA
100
AcDbEntity
  8
LAY-3
  6
CONTINUOUS
 62
     3
100
AcDbCircle
 10
342.233333
 20
124.5
 30
0.0
 40
0.2
100
AcDbArc
 50
270.0
 51
0.0
  0
TEXT
  5
2FB
100
AcDbEntity
  8
LAY-3
  6
CONTINUOUS
 62
     7
100
AcDbText
 10
296.808333
 20
168.45
 30
0.0
 40
7.5
  1
２００Ａ×３２５Ｌ
 41
0.710578
  7
EXCADSTD
 72
     5
 11
353.908336
 21
168.45
 31
0.0
100
AcDbText
  0
LINE
  5
2FC
100
AcDbEntity
  8
LAY-3
  6
EXLTYPE3
 62
     1
100
AcDbLine
 10
369.616667
 20
137.45
 30
0.0
 11
409.316667
 21
137.45
 31
0.0
  0
LINE
  5
2FD
100
AcDbEntity
  8
LAY-3
  6
CONTINUOUS
 62
     3
100
AcDbLine
 10
372.716667
 20
150.25
 30
0.0
 11
372.716667
 21
124.65
 31
0.0
  0
LINE
  5
2FE
100
AcDbEntity
  8
LAY-3
  6
CONTINUOUS
 62
     3
100
AcDbLine
 10
405.216667
 20
150.25
 30
0.0
 11
405.216667
 21
124.65
 31
0.0
  0
LINE
  5
2FF
100
AcDbEntity
  8
LAY-3
  6
CONTINUOUS
 62
     3
100
AcDbLine
 10
372.916667
 20
157.45
 30
0.0
 11
372.916667
 21
117.45
 31
0.0
  0
LINE
  5
300
100
AcDbEntity
  8
LAY-3
  6
CONTINUOUS
 62
     3
100
AcDbLine
 10
405.016667
 20
157.45
 30
0.0
 11
405.016667
 21
117.45
 31
0.0
  0
LINE
  5
301
100
AcDbEntity
  8
LAY-3
  6
CONTINUOUS
 62
     3
100
AcDbLine
 10
372.916667
 20
157.45
 30
0.0
 11
374.716667
 21
157.45
 31
0.0
  0
LINE
  5
302
100
AcDbEntity
  8
LAY-3
  6
CONTINUOUS
 62
     3
100
AcDbLine
 10
372.916667
 20
117.45
 30
0.0
 11
374.716667
 21
117.45
 31
0.0
  0
LINE
  5
303
100
AcDbEntity
  8
LAY-3
  6
CONTINUOUS
 62
     3
100
AcDbLine
 10
403.216667
 20
157.45
 30
0.0
 11
403.216667
 21
117.45
 31
0.0
  0
LINE
  5
304
100
AcDbEntity
  8
LAY-3
  6
CONTINUOUS
 62
     3
100
AcDbLine
 10
374.716667
 20
157.45
 30
0.0
 11
374.716667
 21
117.45
 31
0.0
  0
LINE
  5
305
100
AcDbEntity
  8
LAY-3
  6
CONTINUOUS
 62
     3
100
AcDbLine
 10
403.216667
 20
117.45
 30
0.0
 11
405.016667
 21
117.45
 31
0.0
  0
LINE
  5
306
100
AcDbEntity
  8
LAY-3
  6
CONTINUOUS
 62
     3
100
AcDbLine
 10
403.216667
 20
157.45
 30
0.0
 11
405.016667
 21
157.45
 31
0.0
  0
LINE
  5
307
100
AcDbEntity
  8
LAY-3
  6
CONTINUOUS
 62
     3
100
AcDbLine
 10
374.716667
 20
150.45
 30
0.0
 11
375.947892
 21
150.45
 31
0.0
  0
LINE
  5
308
100
AcDbEntity
  8
LAY-3
  6
CONTINUOUS
 62
     3
100
AcDbLine
 10
387.271245
 20
151.168602
 30
0.0
 11
386.783568
 21
151.672535
 31
0.0
  0
LINE
  5
309
100
AcDbEntity
  8
LAY-3
  6
CONTINUOUS
 62
     3
100
AcDbLine
 10
390.662088
 20
151.168602
 30
0.0
 11
391.149765
 21
151.672535
 31
0.0
  0
LINE
  5
30A
100
AcDbEntity
  8
LAY-3
  6
CONTINUOUS
 62
     3
100
AcDbLine
 10
400.990889
 20
150.827118
 30
0.0
 11
399.66637
 21
152.000263
 31
0.0
  0
LINE
  5
30B
100
AcDbEntity
  8
LAY-3
  6
CONTINUOUS
 62
     3
100
AcDbLine
 10
378.266963
 20
152.000263
 30
0.0
 11
376.942445
 21
150.827118
 31
0.0
  0
LINE
  5
30C
100
AcDbEntity
  8
LAY-3
  6
CONTINUOUS
 62
     3
100
AcDbLine
 10
401.985441
 20
150.45
 30
0.0
 11
403.216667
 21
150.45
 31
0.0
  0
ARC
  5
30D
100
AcDbEntity
  8
LAY-3
  6
CONTINUOUS
 62
     3
100
AcDbCircle
 10
382.354005
 20
147.385861
 30
0.0
 40
6.164139
100
AcDbArc
 50
44.060809
 51
131.531771
  0
ARC
  5
30E
100
AcDbEntity
  8
LAY-3
  6
CONTINUOUS
 62
     3
100
AcDbCircle
 10
395.579329
 20
147.385861
 30
0.0
 40
6.164139
100
AcDbArc
 50
48.468229
 51
135.939191
  0
ARC
  5
30F
100
AcDbEntity
  8
LAY-3
  6
CONTINUOUS
 62
     3
100
AcDbCircle
 10
401.985441
 20
151.95
 30
0.0
 40
1.5
100
AcDbArc
 50
228.468229
 51
270.0
  0
ARC
  5
310
100
AcDbEntity
  8
LAY-3
  6
CONTINUOUS
 62
     3
100
AcDbCircle
 10
375.947892
 20
151.95
 30
0.0
 40
1.5
100
AcDbArc
 50
270.0
 51
311.531771
  0
ARC
  5
311
100
AcDbEntity
  8
LAY-3
  6
CONTINUOUS
 62
     3
100
AcDbCircle
 10
388.966667
 20
152.809333
 30
0.0
 40
2.359333
100
AcDbArc
 50
224.060809
 51
315.939191
  0
ARC
  5
312
100
AcDbEntity
  8
LAY-3
  6
CONTINUOUS
 62
     3
100
AcDbCircle
 10
395.579329
 20
127.514139
 30
0.0
 40
6.164139
100
AcDbArc
 50
224.060809
 51
311.531771
  0
LINE
  5
313
100
AcDbEntity
  8
LAY-3
  6
CONTINUOUS
 62
     3
100
AcDbLine
 10
390.662088
 20
123.731398
 30
0.0
 11
391.149765
 21
123.227465
 31
0.0
  0
LINE
  5
314
100
AcDbEntity
  8
LAY-3
  6
CONTINUOUS
 62
     3
100
AcDbLine
 10
387.271245
 20
123.731398
 30
0.0
 11
386.783568
 21
123.227465
 31
0.0
  0
ARC
  5
315
100
AcDbEntity
  8
LAY-3
  6
CONTINUOUS
 62
     3
100
AcDbCircle
 10
382.354005
 20
127.514139
 30
0.0
 40
6.164139
100
AcDbArc
 50
228.468229
 51
315.939191
  0
LINE
  5
316
100
AcDbEntity
  8
LAY-3
  6
CONTINUOUS
 62
     3
100
AcDbLine
 10
376.942445
 20
124.072882
 30
0.0
 11
378.266963
 21
122.899737
 31
0.0
  0
LINE
  5
317
100
AcDbEntity
  8
LAY-3
  6
CONTINUOUS
 62
     3
100
AcDbLine
 10
375.947892
 20
124.45
 30
0.0
 11
374.716667
 21
124.45
 31
0.0
  0
ARC
  5
318
100
AcDbEntity
  8
LAY-3
  6
CONTINUOUS
 62
     3
100
AcDbCircle
 10
375.947892
 20
122.95
 30
0.0
 40
1.5
100
AcDbArc
 50
48.468229
 51
90.0
  0
LINE
  5
319
100
AcDbEntity
  8
LAY-3
  6
CONTINUOUS
 62
     3
100
AcDbLine
 10
403.216667
 20
124.45
 30
0.0
 11
401.985441
 21
124.45
 31
0.0
  0
LINE
  5
31A
100
AcDbEntity
  8
LAY-3
  6
CONTINUOUS
 62
     3
100
AcDbLine
 10
399.66637
 20
122.899737
 30
0.0
 11
400.990889
 21
124.072882
 31
0.0
  0
ARC
  5
31B
100
AcDbEntity
  8
LAY-3
  6
CONTINUOUS
 62
     3
100
AcDbCircle
 10
401.985441
 20
122.95
 30
0.0
 40
1.5
100
AcDbArc
 50
90.0
 51
131.531771
  0
ARC
  5
31C
100
AcDbEntity
  8
LAY-3
  6
CONTINUOUS
 62
     3
100
AcDbCircle
 10
388.966667
 20
122.090667
 30
0.0
 40
2.359333
100
AcDbArc
 50
44.060809
 51
135.939191
  0
TEXT
  5
31D
100
AcDbEntity
  8
LAY-3
  6
CONTINUOUS
 62
     7
100
AcDbText
 10
361.008333
 20
168.55
 30
0.0
 40
7.5
  1
２５０Ａ×３２５Ｌ
 41
0.710578
  7
EXCADSTD
 72
     5
 11
418.108336
 21
168.55
 31
0.0
100
AcDbText
  0
LINE
  5
31E
100
AcDbEntity
  8
LAY-3
  6
EXLTYPE3
 62
     1
100
AcDbLine
 10
51.5
 20
67.45
 30
0.0
 11
93.8
 21
67.45
 31
0.0
  0
ARC
  5
31F
100
AcDbEntity
  8
LAY-3
  6
CONTINUOUS
 62
     3
100
AcDbCircle
 10
372.916667
 20
150.25
 30
0.0
 40
0.2
100
AcDbArc
 50
90.0
 51
180.0
  0
ARC
  5
320
100
AcDbEntity
  8
LAY-3
  6
CONTINUOUS
 62
     3
100
AcDbCircle
 10
372.916667
 20
124.65
 30
0.0
 40
0.2
100
AcDbArc
 50
180.0
 51
270.0
  0
ARC
  5
321
100
AcDbEntity
  8
LAY-3
  6
CONTINUOUS
 62
     3
100
AcDbCircle
 10
405.016667
 20
124.65
 30
0.0
 40
0.2
100
AcDbArc
 50
270.0
 51
0.0
  0
ARC
  5
322
100
AcDbEntity
  8
LAY-3
  6
CONTINUOUS
 62
     3
100
AcDbCircle
 10
405.016667
 20
150.25
 30
0.0
 40
0.2
100
AcDbArc
 50
0.0
 51
90.0
  0
LINE
  5
323
100
AcDbEntity
  8
LAY-3
  6
CONTINUOUS
 62
     3
100
AcDbLine
 10
55.5
 20
85.95
 30
0.0
 11
55.5
 21
49.15
 31
0.0
  0
LINE
  5
324
100
AcDbEntity
  8
LAY-3
  6
CONTINUOUS
 62
     3
100
AcDbLine
 10
88.0
 20
85.75
 30
0.0
 11
88.0
 21
49.15
 31
0.0
  0
LINE
  5
325
100
AcDbEntity
  8
LAY-3
  6
CONTINUOUS
 62
     3
100
AcDbLine
 10
87.8
 20
89.7
 30
0.0
 11
87.8
 21
45.2
 31
0.0
  0
LINE
  5
326
100
AcDbEntity
  8
LAY-3
  6
CONTINUOUS
 62
     3
100
AcDbLine
 10
55.7
 20
89.7
 30
0.0
 11
57.7
 21
89.7
 31
0.0
  0
LINE
  5
327
100
AcDbEntity
  8
LAY-3
  6
CONTINUOUS
 62
     3
100
AcDbLine
 10
55.7
 20
45.2
 30
0.0
 11
57.7
 21
45.2
 31
0.0
  0
LINE
  5
328
100
AcDbEntity
  8
LAY-3
  6
CONTINUOUS
 62
     3
100
AcDbLine
 10
85.8
 20
89.7
 30
0.0
 11
85.8
 21
45.2
 31
0.0
  0
LINE
  5
329
100
AcDbEntity
  8
LAY-3
  6
CONTINUOUS
 62
     3
100
AcDbLine
 10
57.7
 20
89.7
 30
0.0
 11
57.7
 21
45.2
 31
0.0
  0
LINE
  5
32A
100
AcDbEntity
  8
LAY-3
  6
CONTINUOUS
 62
     3
100
AcDbLine
 10
85.8
 20
89.7
 30
0.0
 11
87.8
 21
89.7
 31
0.0
  0
LINE
  5
32B
100
AcDbEntity
  8
LAY-3
  6
CONTINUOUS
 62
     3
100
AcDbLine
 10
85.8
 20
45.2
 30
0.0
 11
87.8
 21
45.2
 31
0.0
  0
LINE
  5
32C
100
AcDbEntity
  8
LAY-3
  6
CONTINUOUS
 62
     3
100
AcDbLine
 10
57.7
 20
82.95
 30
0.0
 11
59.17868
 21
82.95
 31
0.0
  0
LINE
  5
32D
100
AcDbEntity
  8
LAY-3
  6
CONTINUOUS
 62
     3
100
AcDbLine
 10
70.042893
 20
83.657107
 30
0.0
 11
69.500089
 21
84.199911
 31
0.0
  0
LINE
  5
32E
100
AcDbEntity
  8
LAY-3
  6
CONTINUOUS
 62
     3
100
AcDbLine
 10
73.457107
 20
83.657107
 30
0.0
 11
73.999911
 21
84.199911
 31
0.0
  0
LINE
  5
32F
100
AcDbEntity
  8
LAY-3
  6
CONTINUOUS
 62
     3
100
AcDbLine
 10
60.23934
 20
83.38934
 30
0.0
 11
61.049911
 21
84.199911
 31
0.0
  0
ARC
  5
330
100
AcDbEntity
  8
LAY-3
  6
CONTINUOUS
 62
     3
100
AcDbCircle
 10
71.75
 20
85.364214
 30
0.0
 40
2.414214
100
AcDbArc
 50
225.0
 51
315.0
  0
LINE
  5
331
100
AcDbEntity
  8
LAY-3
  6
CONTINUOUS
 62
     3
100
AcDbLine
 10
84.212576
 20
82.95
 30
0.0
 11
85.8
 21
82.95
 31
0.0
  0
ARC
  5
332
100
AcDbEntity
  8
LAY-3
  6
CONTINUOUS
 62
     3
100
AcDbCircle
 10
65.275
 20
79.974821
 30
0.0
 40
5.975179
100
AcDbArc
 50
45.0
 51
135.0
  0
ARC
  5
333
100
AcDbEntity
  8
LAY-3
  6
CONTINUOUS
 62
     3
100
AcDbCircle
 10
78.225
 20
79.974821
 30
0.0
 40
5.975179
100
AcDbArc
 50
36.774831
 51
135.0
  0
ARC
  5
334
100
AcDbEntity
  8
LAY-3
  6
CONTINUOUS
 62
     3
100
AcDbCircle
 10
84.212576
 20
84.45
 30
0.0
 40
1.5
100
AcDbArc
 50
216.774831
 51
270.0
  0
ARC
  5
335
100
AcDbEntity
  8
LAY-3
  6
CONTINUOUS
 62
     3
100
AcDbCircle
 10
59.17868
 20
84.45
 30
0.0
 40
1.5
100
AcDbArc
 50
270.0
 51
315.0
  0
LINE
  5
336
100
AcDbEntity
  8
LAY-3
  6
CONTINUOUS
 62
     3
100
AcDbLine
 10
55.5
 20
85.75
 30
0.0
 11
55.5
 21
48.95
 31
0.0
  0
LINE
  5
337
100
AcDbEntity
  8
LAY-3
  6
CONTINUOUS
 62
     3
100
AcDbLine
 10
55.7
 20
89.7
 30
0.0
 11
55.7
 21
45.2
 31
0.0
  0
ARC
  5
338
100
AcDbEntity
  8
LAY-3
  6
CONTINUOUS
 62
     3
100
AcDbCircle
 10
78.225
 20
54.925179
 30
0.0
 40
5.975179
100
AcDbArc
 50
225.0
 51
315.0
  0
LINE
  5
339
100
AcDbEntity
  8
LAY-3
  6
CONTINUOUS
 62
     3
100
AcDbLine
 10
73.457107
 20
51.242893
 30
0.0
 11
73.999911
 21
50.700089
 31
0.0
  0
ARC
  5
33A
100
AcDbEntity
  8
LAY-3
  6
CONTINUOUS
 62
     3
100
AcDbCircle
 10
71.75
 20
49.535786
 30
0.0
 40
2.414214
100
AcDbArc
 50
45.0
 51
135.0
  0
LINE
  5
33B
100
AcDbEntity
  8
LAY-3
  6
CONTINUOUS
 62
     3
100
AcDbLine
 10
70.042893
 20
51.242893
 30
0.0
 11
69.500089
 21
50.700089
 31
0.0
  0
LINE
  5
33C
100
AcDbEntity
  8
LAY-3
  6
CONTINUOUS
 62
     3
100
AcDbLine
 10
59.287424
 20
51.95
 30
0.0
 11
57.7
 21
51.95
 31
0.0
  0
ARC
  5
33D
100
AcDbEntity
  8
LAY-3
  6
CONTINUOUS
 62
     3
100
AcDbCircle
 10
65.275
 20
54.925179
 30
0.0
 40
5.975179
100
AcDbArc
 50
216.774831
 51
315.0
  0
ARC
  5
33E
100
AcDbEntity
  8
LAY-3
  6
CONTINUOUS
 62
     3
100
AcDbCircle
 10
59.287424
 20
50.45
 30
0.0
 40
1.5
100
AcDbArc
 50
36.774831
 51
90.0
  0
LINE
  5
33F
100
AcDbEntity
  8
LAY-3
  6
CONTINUOUS
 62
     3
100
AcDbLine
 10
85.8
 20
51.95
 30
0.0
 11
84.32132
 21
51.95
 31
0.0
  0
LINE
  5
340
100
AcDbEntity
  8
LAY-3
  6
CONTINUOUS
 62
     3
100
AcDbLine
 10
83.26066
 20
51.51066
 30
0.0
 11
82.450089
 21
50.700089
 31
0.0
  0
ARC
  5
341
100
AcDbEntity
  8
LAY-3
  6
CONTINUOUS
 62
     3
100
AcDbCircle
 10
84.32132
 20
50.45
 30
0.0
 40
1.5
100
AcDbArc
 50
90.0
 51
135.0
  0
ARC
  5
342
100
AcDbEntity
  8
LAY-3
  6
CONTINUOUS
 62
     3
100
AcDbCircle
 10
55.7
 20
49.15
 30
0.0
 40
0.2
100
AcDbArc
 50
180.0
 51
270.0
  0
ARC
  5
343
100
AcDbEntity
  8
LAY-3
  6
CONTINUOUS
 62
     3
100
AcDbCircle
 10
55.7
 20
85.75
 30
0.0
 40
0.2
100
AcDbArc
 50
90.0
 51
180.0
  0
ARC
  5
344
100
AcDbEntity
  8
LAY-3
  6
CONTINUOUS
 62
     3
100
AcDbCircle
 10
87.8
 20
85.75
 30
0.0
 40
0.2
100
AcDbArc
 50
0.0
 51
90.0
  0
ARC
  5
345
100
AcDbEntity
  8
LAY-3
  6
CONTINUOUS
 62
     3
100
AcDbCircle
 10
87.8
 20
49.15
 30
0.0
 40
0.2
100
AcDbArc
 50
270.0
 51
0.0
  0
TEXT
  5
346
100
AcDbEntity
  8
LAY-3
  6
CONTINUOUS
 62
     7
100
AcDbText
 10
44.6
 20
98.35
 30
0.0
 40
7.5
  1
３００Ａ×３２５Ｌ
 41
0.710578
  7
EXCADSTD
 72
     5
 11
101.700003
 21
98.35
 31
0.0
100
AcDbText
  0
LINE
  5
347
100
AcDbEntity
  8
LAY-3
  6
CONTINUOUS
 62
     3
100
AcDbLine
 10
69.045165
 20
209.19
 30
0.0
 11
68.879246
 21
209.19
 31
0.0
  0
LINE
  5
348
100
AcDbEntity
  8
LAY-3
  6
CONTINUOUS
 62
     3
100
AcDbLine
 10
72.162173
 20
209.456465
 30
0.0
 11
72.09314
 21
209.589929
 31
0.0
  0
LINE
  5
349
100
AcDbEntity
  8
LAY-3
  6
CONTINUOUS
 62
     3
100
AcDbLine
 10
69.409433
 20
209.432942
 30
0.0
 11
69.779328
 21
209.862021
 31
0.0
  0
LINE
  5
34A
100
AcDbEntity
  8
LAY-3
  6
CONTINUOUS
 62
     3
100
AcDbLine
 10
73.037827
 20
209.456465
 30
0.0
 11
73.10686
 21
209.589929
 31
0.0
  0
LINE
  5
34B
100
AcDbEntity
  8
LAY-3
  6
CONTINUOUS
 62
     3
100
AcDbLine
 10
75.790567
 20
209.432942
 30
0.0
 11
75.420672
 21
209.862021
 31
0.0
  0
ARC
  5
34C
100
AcDbEntity
  8
LAY-3
  6
CONTINUOUS
 62
     3
100
AcDbCircle
 10
70.844274
 20
208.943964
 30
0.0
 40
1.406036
100
AcDbArc
 50
27.349876
 51
139.236395
  0
ARC
  5
34D
100
AcDbEntity
  8
LAY-3
  6
CONTINUOUS
 62
     3
100
AcDbCircle
 10
74.355726
 20
208.943964
 30
0.0
 40
1.406036
100
AcDbArc
 50
40.763605
 51
152.650124
  0
ARC
  5
34E
100
AcDbEntity
  8
LAY-3
  6
CONTINUOUS
 62
     3
100
AcDbCircle
 10
72.6
 20
209.682927
 30
0.0
 40
0.492927
100
AcDbArc
 50
207.349876
 51
332.650124
  0
ARC
  5
34F
100
AcDbEntity
  8
LAY-3
  6
CONTINUOUS
 62
     3
100
AcDbCircle
 10
76.320754
 20
209.89
 30
0.0
 40
0.7
100
AcDbArc
 50
220.763605
 51
270.0
  0
ARC
  5
350
100
AcDbEntity
  8
LAY-3
  6
CONTINUOUS
 62
     3
100
AcDbCircle
 10
68.879246
 20
209.89
 30
0.0
 40
0.7
100
AcDbArc
 50
270.0
 51
319.236395
  0
ARC
  5
351
100
AcDbEntity
  8
LAY-3
  6
CONTINUOUS
 62
     3
100
AcDbCircle
 10
72.6
 20
205.217073
 30
0.0
 40
0.492927
100
AcDbArc
 50
27.349876
 51
152.650124
  0
ARC
  5
352
100
AcDbEntity
  8
LAY-3
  6
CONTINUOUS
 62
     3
100
AcDbCircle
 10
74.355726
 20
205.956036
 30
0.0
 40
1.406036
100
AcDbArc
 50
207.349876
 51
319.236395
  0
LINE
  5
353
100
AcDbEntity
  8
LAY-3
  6
CONTINUOUS
 62
     3
100
AcDbLine
 10
73.037827
 20
205.443535
 30
0.0
 11
73.10686
 21
205.310071
 31
0.0
  0
LINE
  5
354
100
AcDbEntity
  8
LAY-3
  6
CONTINUOUS
 62
     3
100
AcDbLine
 10
72.162173
 20
205.443535
 30
0.0
 11
72.09314
 21
205.310071
 31
0.0
  0
ARC
  5
355
100
AcDbEntity
  8
LAY-3
  6
CONTINUOUS
 62
     3
100
AcDbCircle
 10
70.844274
 20
205.956036
 30
0.0
 40
1.406036
100
AcDbArc
 50
220.763605
 51
332.650124
  0
LINE
  5
356
100
AcDbEntity
  8
LAY-3
  6
CONTINUOUS
 62
     3
100
AcDbLine
 10
69.409433
 20
205.467058
 30
0.0
 11
69.779328
 21
205.037979
 31
0.0
  0
ARC
  5
357
100
AcDbEntity
  8
LAY-3
  6
CONTINUOUS
 62
     3
100
AcDbCircle
 10
68.879246
 20
205.01
 30
0.0
 40
0.7
100
AcDbArc
 50
40.763605
 51
90.0
  0
LINE
  5
358
100
AcDbEntity
  8
LAY-3
  6
CONTINUOUS
 62
     3
100
AcDbLine
 10
75.790567
 20
205.467058
 30
0.0
 11
75.420672
 21
205.037979
 31
0.0
  0
ARC
  5
359
100
AcDbEntity
  8
LAY-3
  6
CONTINUOUS
 62
     3
100
AcDbCircle
 10
76.320754
 20
205.01
 30
0.0
 40
0.7
100
AcDbArc
 50
90.0
 51
139.236395
  0
LINE
  5
35A
100
AcDbEntity
  8
LAY-3
  6
CONTINUOUS
 62
     3
100
AcDbLine
 10
139.568798
 20
209.53
 30
0.0
 11
140.283333
 21
209.53
 31
0.0
  0
ARC
  5
35B
100
AcDbEntity
  8
LAY-3
  6
CONTINUOUS
 62
     3
100
AcDbCircle
 10
135.883333
 20
210.022927
 30
0.0
 40
0.492927
100
AcDbArc
 50
207.349876
 51
332.650124
  0
ARC
  5
35C
100
AcDbEntity
  8
LAY-3
  6
CONTINUOUS
 62
     3
100
AcDbCircle
 10
134.127607
 20
209.283964
 30
0.0
 40
1.406036
100
AcDbArc
 50
27.349876
 51
139.236395
  0
LINE
  5
35D
100
AcDbEntity
  8
LAY-3
  6
CONTINUOUS
 62
     3
100
AcDbLine
 10
135.445506
 20
209.796465
 30
0.0
 11
135.376474
 21
209.929929
 31
0.0
  0
LINE
  5
35E
100
AcDbEntity
  8
LAY-3
  6
CONTINUOUS
 62
     3
100
AcDbLine
 10
136.32116
 20
209.796465
 30
0.0
 11
136.390193
 21
209.929929
 31
0.0
  0
ARC
  5
35F
100
AcDbEntity
  8
LAY-3
  6
CONTINUOUS
 62
     3
100
AcDbCircle
 10
137.639059
 20
209.283964
 30
0.0
 40
1.406036
100
AcDbArc
 50
40.763605
 51
152.650124
  0
LINE
  5
360
100
AcDbEntity
  8
LAY-3
  6
CONTINUOUS
 62
     3
100
AcDbLine
 10
139.0739
 20
209.772942
 30
0.0
 11
138.704005
 21
210.202021
 31
0.0
  0
ARC
  5
361
100
AcDbEntity
  8
LAY-3
  6
CONTINUOUS
 62
     3
100
AcDbCircle
 10
139.604087
 20
210.23
 30
0.0
 40
0.7
100
AcDbArc
 50
220.763605
 51
270.0
  0
LINE
  5
362
100
AcDbEntity
  8
LAY-3
  6
CONTINUOUS
 62
     3
100
AcDbLine
 10
132.692766
 20
209.772942
 30
0.0
 11
133.062661
 21
210.202021
 31
0.0
  0
ARC
  5
363
100
AcDbEntity
  8
LAY-3
  6
CONTINUOUS
 62
     3
100
AcDbCircle
 10
132.162579
 20
210.23
 30
0.0
 40
0.7
100
AcDbArc
 50
270.0
 51
319.236395
  0
LINE
  5
364
100
AcDbEntity
  8
LAY-3
  6
CONTINUOUS
 62
     3
100
AcDbLine
 10
132.162579
 20
209.53
 30
0.0
 11
131.483333
 21
209.53
 31
0.0
  0
LINE
  5
365
100
AcDbEntity
  8
LAY-3
  6
CONTINUOUS
 62
     3
100
AcDbLine
 10
132.197869
 20
205.37
 30
0.0
 11
131.483333
 21
205.37
 31
0.0
  0
ARC
  5
366
100
AcDbEntity
  8
LAY-3
  6
CONTINUOUS
 62
     3
100
AcDbCircle
 10
135.883333
 20
204.877073
 30
0.0
 40
0.492927
100
AcDbArc
 50
27.349876
 51
152.650124
  0
ARC
  5
367
100
AcDbEntity
  8
LAY-3
  6
CONTINUOUS
 62
     3
100
AcDbCircle
 10
137.639059
 20
205.616036
 30
0.0
 40
1.406036
100
AcDbArc
 50
207.349876
 51
319.236395
  0
LINE
  5
368
100
AcDbEntity
  8
LAY-3
  6
CONTINUOUS
 62
     3
100
AcDbLine
 10
136.32116
 20
205.103535
 30
0.0
 11
136.390193
 21
204.970071
 31
0.0
  0
LINE
  5
369
100
AcDbEntity
  8
LAY-3
  6
CONTINUOUS
 62
     3
100
AcDbLine
 10
135.445506
 20
205.103535
 30
0.0
 11
135.376474
 21
204.970071
 31
0.0
  0
ARC
  5
36A
100
AcDbEntity
  8
LAY-3
  6
CONTINUOUS
 62
     3
100
AcDbCircle
 10
134.127607
 20
205.616036
 30
0.0
 40
1.406036
100
AcDbArc
 50
220.763605
 51
332.650124
  0
LINE
  5
36B
100
AcDbEntity
  8
LAY-3
  6
CONTINUOUS
 62
     3
100
AcDbLine
 10
132.692766
 20
205.127058
 30
0.0
 11
133.062661
 21
204.697979
 31
0.0
  0
ARC
  5
36C
100
AcDbEntity
  8
LAY-3
  6
CONTINUOUS
 62
     3
100
AcDbCircle
 10
132.162579
 20
204.67
 30
0.0
 40
0.7
100
AcDbArc
 50
40.763605
 51
90.0
  0
LINE
  5
36D
100
AcDbEntity
  8
LAY-3
  6
CONTINUOUS
 62
     3
100
AcDbLine
 10
139.0739
 20
205.127058
 30
0.0
 11
138.704005
 21
204.697979
 31
0.0
  0
ARC
  5
36E
100
AcDbEntity
  8
LAY-3
  6
CONTINUOUS
 62
     3
100
AcDbCircle
 10
139.604087
 20
204.67
 30
0.0
 40
0.7
100
AcDbArc
 50
90.0
 51
139.236395
  0
LINE
  5
36F
100
AcDbEntity
  8
LAY-3
  6
CONTINUOUS
 62
     3
100
AcDbLine
 10
139.604087
 20
205.37
 30
0.0
 11
140.283333
 21
205.37
 31
0.0
  0
LINE
  5
370
100
AcDbEntity
  8
LAY-3
  6
EXLTYPE3
 62
     1
100
AcDbLine
 10
277.208333
 20
207.45
 30
0.0
 11
245.808333
 21
207.45
 31
0.0
  0
LINE
  5
371
100
AcDbEntity
  8
LAY-3
  6
CONTINUOUS
 62
     2
100
AcDbLine
 10
40.808333
 20
289.25
 30
0.0
 11
421.108333
 21
289.25
 31
0.0
  0
LINE
  5
372
100
AcDbEntity
  8
LAY-3
  6
CONTINUOUS
 62
     2
100
AcDbLine
 10
421.108333
 20
289.25
 30
0.0
 11
421.108333
 21
37.45
 31
0.0
  0
LINE
  5
373
100
AcDbEntity
  8
LAY-3
  6
CONTINUOUS
 62
     2
100
AcDbLine
 10
421.108333
 20
37.45
 30
0.0
 11
40.808333
 21
37.45
 31
0.0
  0
LINE
  5
374
100
AcDbEntity
  8
LAY-3
  6
CONTINUOUS
 62
     2
100
AcDbLine
 10
40.808333
 20
37.45
 30
0.0
 11
40.808333
 21
289.25
 31
0.0
  0
LINE
  5
375
100
AcDbEntity
  8
LAY-3
  6
CONTINUOUS
 62
     2
100
AcDbLine
 10
421.108333
 20
97.45
 30
0.0
 11
40.808333
 21
97.45
 31
0.0
  0
LINE
  5
376
100
AcDbEntity
  8
LAY-3
  6
CONTINUOUS
 62
     2
100
AcDbLine
 10
421.108333
 20
107.45
 30
0.0
 11
40.808333
 21
107.45
 31
0.0
  0
LINE
  5
377
100
AcDbEntity
  8
LAY-3
  6
CONTINUOUS
 62
     2
100
AcDbLine
 10
421.108333
 20
167.45
 30
0.0
 11
40.808333
 21
167.45
 31
0.0
  0
LINE
  5
378
100
AcDbEntity
  8
LAY-3
  6
CONTINUOUS
 62
     2
100
AcDbLine
 10
421.108333
 20
177.45
 30
0.0
 11
40.808333
 21
177.45
 31
0.0
  0
LINE
  5
379
100
AcDbEntity
  8
LAY-3
  6
CONTINUOUS
 62
     2
100
AcDbLine
 10
421.108333
 20
237.45
 30
0.0
 11
40.808333
 21
237.45
 31
0.0
  0
LINE
  5
37A
100
AcDbEntity
  8
LAY-3
  6
CONTINUOUS
 62
     2
100
AcDbLine
 10
421.108333
 20
247.45
 30
0.0
 11
40.808333
 21
247.45
 31
0.0
  0
POINT
  5
37B
100
AcDbEntity
  8
LAY-3
  6
CONTINUOUS
 62
     2
100
AcDbPoint
 10
357.725
 20
247.45
 30
0.0
  0
POINT
  5
37C
100
AcDbEntity
  8
LAY-3
  6
CONTINUOUS
 62
     2
100
AcDbPoint
 10
294.341667
 20
247.45
 30
0.0
  0
POINT
  5
37D
100
AcDbEntity
  8
LAY-3
  6
CONTINUOUS
 62
     2
100
AcDbPoint
 10
230.958333
 20
247.45
 30
0.0
  0
POINT
  5
37E
100
AcDbEntity
  8
LAY-3
  6
CONTINUOUS
 62
     2
100
AcDbPoint
 10
167.575
 20
247.45
 30
0.0
  0
POINT
  5
37F
100
AcDbEntity
  8
LAY-3
  6
CONTINUOUS
 62
     2
100
AcDbPoint
 10
104.191667
 20
247.45
 30
0.0
  0
POINT
  5
380
100
AcDbEntity
  8
LAY-3
  6
CONTINUOUS
 62
     2
100
AcDbPoint
 10
167.575
 20
247.45
 30
0.0
  0
POINT
  5
381
100
AcDbEntity
  8
LAY-3
  6
CONTINUOUS
 62
     2
100
AcDbPoint
 10
230.958333
 20
247.45
 30
0.0
  0
POINT
  5
382
100
AcDbEntity
  8
LAY-3
  6
CONTINUOUS
 62
     2
100
AcDbPoint
 10
294.341667
 20
247.45
 30
0.0
  0
POINT
  5
383
100
AcDbEntity
  8
LAY-3
  6
CONTINUOUS
 62
     2
100
AcDbPoint
 10
357.725
 20
247.45
 30
0.0
  0
LINE
  5
384
100
AcDbEntity
  8
LAY-3
  6
CONTINUOUS
 62
     3
100
AcDbLine
 10
328.59043
 20
148.917837
 30
0.0
 11
328.708052
 21
149.032191
 31
0.0
  0
LINE
  5
385
100
AcDbEntity
  8
LAY-3
  6
CONTINUOUS
 62
     3
100
AcDbLine
 10
323.726611
 20
148.966399
 30
0.0
 11
323.70833
 21
148.982106
 31
0.0
  0
LINE
  5
386
100
AcDbEntity
  8
LAY-3
  6
CONTINUOUS
 62
     3
100
AcDbLine
 10
323.714417
 20
125.924118
 30
0.0
 11
323.775858
 21
125.9818
 31
0.0
  0
LINE
  5
387
100
AcDbEntity
  8
LAY-3
  6
CONTINUOUS
 62
     3
100
AcDbLine
 10
328.643789
 20
125.929868
 30
0.0
 11
328.661963
 21
125.914196
 31
0.0
  0
TEXT
  5
389
100
AcDbEntity
  8
LAY-3
  6
CONTINUOUS
 62
     1
100
AcDbText
 10
-24.849998
 20
-8.6
 30
0.0
 40
11.25
  1
スケールは１／１０となっています。必要に応じてサイズを１０倍して下さい。
 41
0.966667
  7
EXCADTTF1
 72
     5
 11
497.650002
 21
-8.6
 31
0.0
100
AcDbText
  0
LINE
  5
38A
100
AcDbEntity
  8
LAY-3
  6
CONTINUOUS
 62
     2
100
AcDbLine
 10
104.191667
 20
247.45
 30
0.0
 11
104.191667
 21
37.45
 31
0.0
  0
LINE
  5
38B
100
AcDbEntity
  8
LAY-3
  6
CONTINUOUS
 62
     2
100
AcDbLine
 10
167.575
 20
247.45
 30
0.0
 11
167.575
 21
37.45
 31
0.0
  0
LINE
  5
38C
100
AcDbEntity
  8
LAY-3
  6
CONTINUOUS
 62
     2
100
AcDbLine
 10
230.958333
 20
247.45
 30
0.0
 11
230.958333
 21
37.45
 31
0.0
  0
LINE
  5
38D
100
AcDbEntity
  8
LAY-3
  6
CONTINUOUS
 62
     2
100
AcDbLine
 10
294.341667
 20
247.45
 30
0.0
 11
294.341667
 21
37.45
 31
0.0
  0
LINE
  5
38E
100
AcDbEntity
  8
LAY-3
  6
CONTINUOUS
 62
     2
100
AcDbLine
 10
357.725
 20
247.45
 30
0.0
 11
357.725
 21
37.45
 31
0.0
  0
TEXT
  5
38F
100
AcDbEntity
  8
LAY-3
  6
CONTINUOUS
 62
     7
100
AcDbText
 10
212.708333
 20
262.55
 30
0.0
 40
15.0
  1
ＰＴコネクタ
 41
0.84
  7
EXCADSTD
 72
     5
 11
302.708333
 21
262.55
 31
0.0
100
AcDbText
  0
LINE
  5
390
100
AcDbEntity
  8
LAY-3
  6
CONTINUOUS
 62
     2
100
AcDbLine
 10
142.808333
 20
272.95
 30
0.0
 11
142.808333
 21
264.325
 31
0.0
  0
LINE
  5
391
100
AcDbEntity
  8
LAY-3
  6
CONTINUOUS
 62
     2
100
AcDbLine
 10
145.433333
 20
272.95
 30
0.0
 11
145.433333
 21
264.325
 31
0.0
  0
CIRCLE
  5
392
100
AcDbEntity
  8
LAY-3
  6
CONTINUOUS
 62
     2
100
AcDbCircle
 10
156.308333
 20
269.95
 30
0.0
 40
3.975
  0
CIRCLE
  5
393
100
AcDbEntity
  8
LAY-3
  6
CONTINUOUS
 62
     2
100
AcDbCircle
 10
156.308333
 20
269.95
 30
0.0
 40
5.25
  0
CIRCLE
  5
394
100
AcDbEntity
  8
LAY-3
  6
CONTINUOUS
 62
     2
100
AcDbCircle
 10
156.308333
 20
269.95
 30
0.0
 40
7.95
  0
LINE
  5
395
100
AcDbEntity
  8
LAY-3
  6
CONTINUOUS
 62
     2
100
AcDbLine
 10
137.558333
 20
275.575
 30
0.0
 11
137.558333
 21
272.95
 31
0.0
  0
LINE
  5
396
100
AcDbEntity
  8
LAY-3
  6
CONTINUOUS
 62
     2
100
AcDbLine
 10
142.808333
 20
264.325
 30
0.0
 11
145.433333
 21
264.325
 31
0.0
  0
ARC
  5
397
100
AcDbEntity
  8
LAY-3
  6
CONTINUOUS
 62
     2
100
AcDbCircle
 10
156.308333
 20
269.95
 30
0.0
 40
8.722445
100
AcDbArc
 50
139.842723
 51
159.882882
  0
ARC
  5
398
100
AcDbEntity
  8
LAY-3
  6
CONTINUOUS
 62
     2
100
AcDbCircle
 10
156.308333
 20
269.95
 30
0.0
 40
8.722445
100
AcDbArc
 50
20.117118
 51
40.157277
  0
LINE
  5
399
100
AcDbEntity
  8
LAY-3
  6
CONTINUOUS
 62
     2
100
AcDbLine
 10
172.058333
 20
266.95
 30
0.0
 11
172.058333
 21
264.325
 31
0.0
  0
LINE
  5
39A
100
AcDbEntity
  8
LAY-3
  6
CONTINUOUS
 62
     2
100
AcDbLine
 10
172.058333
 20
275.575
 30
0.0
 11
172.058333
 21
272.95
 31
0.0
  0
ARC
  5
39B
100
AcDbEntity
  8
LAY-3
  6
CONTINUOUS
 62
     2
100
AcDbCircle
 10
156.308333
 20
269.95
 30
0.0
 40
8.722445
100
AcDbArc
 50
319.842723
 51
348.135428
  0
LINE
  5
39C
100
AcDbEntity
  8
LAY-3
  6
CONTINUOUS
 62
     2
100
AcDbLine
 10
172.058333
 20
272.95
 30
0.0
 11
166.64934
 21
266.95
 31
0.0
  0
LINE
  5
39D
100
AcDbEntity
  8
LAY-3
  6
CONTINUOUS
 62
     2
100
AcDbLine
 10
169.165614
 20
272.95
 30
0.0
 11
164.844435
 21
268.156673
 31
0.0
  0
LINE
  5
39E
100
AcDbEntity
  8
LAY-3
  6
CONTINUOUS
 62
     2
100
AcDbLine
 10
173.333333
 20
275.575
 30
0.0
 11
173.333333
 21
264.325
 31
0.0
  0
LINE
  5
39F
100
AcDbEntity
  8
LAY-3
  6
CONTINUOUS
 62
     2
100
AcDbLine
 10
175.958333
 20
271.075
 30
0.0
 11
183.383333
 21
271.075
 31
0.0
  0
LINE
  5
3A0
100
AcDbEntity
  8
LAY-3
  6
CONTINUOUS
 62
     2
100
AcDbLine
 10
175.958333
 20
268.825
 30
0.0
 11
183.383333
 21
268.825
 31
0.0
  0
LINE
  5
3A1
100
AcDbEntity
  8
LAY-3
  6
CONTINUOUS
 62
     2
100
AcDbLine
 10
184.508333
 20
275.575
 30
0.0
 11
184.508333
 21
264.325
 31
0.0
  0
LINE
  5
3A2
100
AcDbEntity
  8
LAY-3
  6
CONTINUOUS
 62
     2
100
AcDbLine
 10
194.858333
 20
275.575
 30
0.0
 11
194.858333
 21
264.325
 31
0.0
  0
LINE
  5
3A3
100
AcDbEntity
  8
LAY-3
  6
CONTINUOUS
 62
     2
100
AcDbLine
 10
192.308333
 20
264.325
 30
0.0
 11
187.058333
 21
272.302654
 31
0.0
  0
LINE
  5
3A4
100
AcDbEntity
  8
LAY-3
  6
CONTINUOUS
 62
     2
100
AcDbLine
 10
187.058333
 20
275.575
 30
0.0
 11
192.308333
 21
267.597346
 31
0.0
  0
LINE
  5
3A5
100
AcDbEntity
  8
LAY-3
  6
CONTINUOUS
 62
     2
100
AcDbLine
 10
183.383333
 20
275.575
 30
0.0
 11
183.383333
 21
272.95
 31
0.0
  0
LINE
  5
3A6
100
AcDbEntity
  8
LAY-3
  6
CONTINUOUS
 62
     2
100
AcDbLine
 10
183.383333
 20
271.075
 30
0.0
 11
183.383333
 21
268.825
 31
0.0
  0
LINE
  5
3A7
100
AcDbEntity
  8
LAY-3
  6
CONTINUOUS
 62
     2
100
AcDbLine
 10
183.383333
 20
266.95
 30
0.0
 11
183.383333
 21
264.325
 31
0.0
  0
LINE
  5
3A8
100
AcDbEntity
  8
LAY-3
  6
CONTINUOUS
 62
     2
100
AcDbLine
 10
175.958333
 20
272.95
 30
0.0
 11
183.383333
 21
272.95
 31
0.0
  0
LINE
  5
3A9
100
AcDbEntity
  8
LAY-3
  6
CONTINUOUS
 62
     2
100
AcDbLine
 10
173.333333
 20
275.575
 30
0.0
 11
183.383333
 21
275.575
 31
0.0
  0
LINE
  5
3AA
100
AcDbEntity
  8
LAY-3
  6
CONTINUOUS
 62
     2
100
AcDbLine
 10
175.958333
 20
268.825
 30
0.0
 11
175.958333
 21
266.95
 31
0.0
  0
LINE
  5
3AB
100
AcDbEntity
  8
LAY-3
  6
CONTINUOUS
 62
     2
100
AcDbLine
 10
173.333333
 20
264.325
 30
0.0
 11
183.383333
 21
264.325
 31
0.0
  0
LINE
  5
3AC
100
AcDbEntity
  8
LAY-3
  6
CONTINUOUS
 62
     2
100
AcDbLine
 10
175.958333
 20
266.95
 30
0.0
 11
183.383333
 21
266.95
 31
0.0
  0
LINE
  5
3AD
100
AcDbEntity
  8
LAY-3
  6
CONTINUOUS
 62
     2
100
AcDbLine
 10
187.058333
 20
272.302654
 30
0.0
 11
187.058333
 21
264.325
 31
0.0
  0
LINE
  5
3AE
100
AcDbEntity
  8
LAY-3
  6
CONTINUOUS
 62
     2
100
AcDbLine
 10
184.508333
 20
275.575
 30
0.0
 11
187.058333
 21
275.575
 31
0.0
  0
LINE
  5
3AF
100
AcDbEntity
  8
LAY-3
  6
CONTINUOUS
 62
     2
100
AcDbLine
 10
192.308333
 20
275.575
 30
0.0
 11
194.858333
 21
275.575
 31
0.0
  0
LINE
  5
3B0
100
AcDbEntity
  8
LAY-3
  6
CONTINUOUS
 62
     2
100
AcDbLine
 10
184.508333
 20
264.325
 30
0.0
 11
187.058333
 21
264.325
 31
0.0
  0
LINE
  5
3B1
100
AcDbEntity
  8
LAY-3
  6
CONTINUOUS
 62
     2
100
AcDbLine
 10
192.308333
 20
264.325
 30
0.0
 11
194.858333
 21
264.325
 31
0.0
  0
LINE
  5
3B2
100
AcDbEntity
  8
LAY-3
  6
CONTINUOUS
 62
     2
100
AcDbLine
 10
192.308333
 20
275.575
 30
0.0
 11
192.308333
 21
267.597346
 31
0.0
  0
LINE
  5
3B3
100
AcDbEntity
  8
LAY-3
  6
CONTINUOUS
 62
     2
100
AcDbLine
 10
137.558333
 20
272.95
 30
0.0
 11
142.808333
 21
272.95
 31
0.0
  0
LINE
  5
3B4
100
AcDbEntity
  8
LAY-3
  6
CONTINUOUS
 62
     2
100
AcDbLine
 10
145.433333
 20
272.95
 30
0.0
 11
148.118031
 21
272.95
 31
0.0
  0
LINE
  5
3B5
100
AcDbEntity
  8
LAY-3
  6
CONTINUOUS
 62
     2
100
AcDbLine
 10
137.558333
 20
275.575
 30
0.0
 11
149.641968
 21
275.575
 31
0.0
  0
LINE
  5
3B6
100
AcDbEntity
  8
LAY-3
  6
CONTINUOUS
 62
     2
100
AcDbLine
 10
162.974699
 20
275.575
 30
0.0
 11
172.058333
 21
275.575
 31
0.0
  0
LINE
  5
3B7
100
AcDbEntity
  8
LAY-3
  6
CONTINUOUS
 62
     2
100
AcDbLine
 10
164.498636
 20
272.95
 30
0.0
 11
169.165614
 21
272.95
 31
0.0
  0
LINE
  5
3B8
100
AcDbEntity
  8
LAY-3
  6
CONTINUOUS
 62
     2
100
AcDbLine
 10
162.974699
 20
264.325
 30
0.0
 11
172.058333
 21
264.325
 31
0.0
  0
LINE
  5
3B9
100
AcDbEntity
  8
LAY-3
  6
CONTINUOUS
 62
     2
100
AcDbLine
 10
166.64934
 20
266.95
 30
0.0
 11
172.058333
 21
266.95
 31
0.0
  0
LINE
  5
3BA
100
AcDbEntity
  8
LAY-3
  6
CONTINUOUS
 62
     2
100
AcDbLine
 10
175.958333
 20
272.95
 30
0.0
 11
175.958333
 21
271.075
 31
0.0
  0
ENDSEC
  0
SECTION
  2
OBJECTS
  0
DICTIONARY
  5
19
100
AcDbDictionary
  3
ACAD_GROUP
350
1A
  3
ACAD_MLINESTYLE
350
1B
  0
DICTIONARY
  5
1A
102
{ACAD_REACTORS
330
19
102
}
100
AcDbDictionary
  0
DICTIONARY
  5
1B
102
{ACAD_REACTORS
330
19
102
}
100
AcDbDictionary
  3
STANDARD
350
1C
  0
MLINESTYLE
  5
1C
102
{ACAD_REACTORS
330
1B
102
}
100
AcDbMlineStyle
  2
Standard
 70
     0
  3

 62
     0
 51
90.0
 52
90.0
 71
     2
 49
0.5
 62
   256
  6
ByLayer
 49
-0.5
 62
   256
  6
ByLayer
  0
ENDSEC
  0
EOF
