  0
SECTION
  2
HEADER
  9
$ACADVER
  1
AC1014
  9
$ACADMAINTVER
 70
     0
  9
$DWGCODEPAGE
  3
DOS932
  9
$INSBASE
 10
0.0
 20
0.0
 30
0.0
  9
$EXTMIN
 10
-0.806578
 20
-0.271504
 30
0.0
  9
$EXTMAX
 10
2099.193422
 20
1458.417226
 30
0.0
  9
$LIMMIN
 10
0.0
 20
0.0
  9
$LIMMAX
 10
420.0
 20
297.0
  9
$ORTHOMODE
 70
     0
  9
$REGENMODE
 70
     1
  9
$FILLMODE
 70
     1
  9
$QTEXTMODE
 70
     0
  9
$MIRRTEXT
 70
     1
  9
$DRAGMODE
 70
     2
  9
$LTSCALE
 40
1.0
  9
$OSMODE
 70
     0
  9
$ATTMODE
 70
     1
  9
$TEXTSIZE
 40
0.2
  9
$TRACEWID
 40
0.05
  9
$TEXTSTYLE
  7
STANDARD
  9
$CLAYER
  8
LAY-1
  9
$CELTYPE
  6
CONTINUOUS
  9
$CECOLOR
 62
   256
  9
$CELTSCALE
 40
1.0
  9
$DELOBJ
 70
     1
  9
$DISPSILH
 70
     0
  9
$DIMSCALE
 40
1.0
  9
$DIMASZ
 40
0.18
  9
$DIMEXO
 40
0.0625
  9
$DIMDLI
 40
0.38
  9
$DIMRND
 40
0.0
  9
$DIMDLE
 40
0.0
  9
$DIMEXE
 40
0.18
  9
$DIMTP
 40
0.0
  9
$DIMTM
 40
0.0
  9
$DIMTXT
 40
0.18
  9
$DIMCEN
 40
0.09
  9
$DIMTSZ
 40
0.0
  9
$DIMTOL
 70
     0
  9
$DIMLIM
 70
     0
  9
$DIMTIH
 70
     1
  9
$DIMTOH
 70
     1
  9
$DIMSE1
 70
     0
  9
$DIMSE2
 70
     0
  9
$DIMTAD
 70
     0
  9
$DIMZIN
 70
     0
  9
$DIMBLK
  1

  9
$DIMASO
 70
     1
  9
$DIMSHO
 70
     1
  9
$DIMPOST
  1

  9
$DIMAPOST
  1

  9
$DIMALT
 70
     0
  9
$DIMALTD
 70
     2
  9
$DIMALTF
 40
25.4
  9
$DIMLFAC
 40
1.0
  9
$DIMTOFL
 70
     0
  9
$DIMTVP
 40
0.0
  9
$DIMTIX
 70
     0
  9
$DIMSOXD
 70
     0
  9
$DIMSAH
 70
     0
  9
$DIMBLK1
  1

  9
$DIMBLK2
  1

  9
$DIMSTYLE
  2
STANDARD
  9
$DIMCLRD
 70
     0
  9
$DIMCLRE
 70
     0
  9
$DIMCLRT
 70
     0
  9
$DIMTFAC
 40
1.0
  9
$DIMGAP
 40
0.09
  9
$DIMJUST
 70
     0
  9
$DIMSD1
 70
     0
  9
$DIMSD2
 70
     0
  9
$DIMTOLJ
 70
     1
  9
$DIMTZIN
 70
     0
  9
$DIMALTZ
 70
     0
  9
$DIMALTTZ
 70
     0
  9
$DIMFIT
 70
     3
  9
$DIMUPT
 70
     0
  9
$DIMUNIT
 70
     2
  9
$DIMDEC
 70
     4
  9
$DIMTDEC
 70
     4
  9
$DIMALTU
 70
     2
  9
$DIMALTTD
 70
     2
  9
$DIMTXSTY
  7
STANDARD
  9
$DIMAUNIT
 70
     0
  9
$LUNITS
 70
     2
  9
$LUPREC
 70
     4
  9
$SKETCHINC
 40
0.1
  9
$FILLETRAD
 40
0.0
  9
$AUNITS
 70
     0
  9
$AUPREC
 70
     0
  9
$MENU
  1
acad
  9
$ELEVATION
 40
0.0
  9
$PELEVATION
 40
0.0
  9
$THICKNESS
 40
0.0
  9
$LIMCHECK
 70
     0
  9
$BLIPMODE
 70
     1
  9
$CHAMFERA
 40
0.0
  9
$CHAMFERB
 40
0.0
  9
$CHAMFERC
 40
0.0
  9
$CHAMFERD
 40
0.0
  9
$SKPOLY
 70
     0
  9
$TDCREATE
 40
2458369.992781007
  9
$TDUPDATE
 40
2458369.992781007
  9
$TDINDWG
 40
0.0000000000
  9
$TDUSRTIMER
 40
0.0000000000
  9
$USRTIMER
 70
     1
  9
$ANGBASE
 50
0.0
  9
$ANGDIR
 70
     0
  9
$PDMODE
 70
     0
  9
$PDSIZE
 40
0.0
  9
$PLINEWID
 40
0.0
  9
$COORDS
 70
     1
  9
$SPLFRAME
 70
     0
  9
$SPLINETYPE
 70
     6
  9
$SPLINESEGS
 70
     8
  9
$ATTDIA
 70
     0
  9
$ATTREQ
 70
     1
  9
$HANDLING
 70
     1
  9
$HANDSEED
  5
5C9
  9
$SURFTAB1
 70
     6
  9
$SURFTAB2
 70
     6
  9
$SURFTYPE
 70
     6
  9
$SURFU
 70
     6
  9
$SURFV
 70
     6
  9
$UCSNAME
  2

  9
$UCSORG
 10
0.0
 20
0.0
 30
0.0
  9
$UCSXDIR
 10
1.0
 20
0.0
 30
0.0
  9
$UCSYDIR
 10
0.0
 20
1.0
 30
0.0
  9
$PUCSNAME
  2

  9
$PUCSORG
 10
0.0
 20
0.0
 30
0.0
  9
$PUCSXDIR
 10
1.0
 20
0.0
 30
0.0
  9
$PUCSYDIR
 10
0.0
 20
1.0
 30
0.0
  9
$USERI1
 70
     0
  9
$USERI2
 70
     0
  9
$USERI3
 70
     0
  9
$USERI4
 70
     0
  9
$USERI5
 70
     0
  9
$USERR1
 40
0.0
  9
$USERR2
 40
0.0
  9
$USERR3
 40
0.0
  9
$USERR4
 40
0.0
  9
$USERR5
 40
0.0
  9
$WORLDVIEW
 70
     1
  9
$SHADEDGE
 70
     3
  9
$SHADEDIF
 70
    70
  9
$TILEMODE
 70
     1
  9
$MAXACTVP
 70
    16
  9
$PINSBASE
 10
0.0
 20
0.0
 30
0.0
  9
$PLIMCHECK
 70
     0
  9
$PEXTMIN
 10
1.000000E+20
 20
1.000000E+20
 30
1.000000E+20
  9
$PEXTMAX
 10
-1.000000E+20
 20
-1.000000E+20
 30
-1.000000E+20
  9
$PLIMMIN
 10
0.0
 20
0.0
  9
$PLIMMAX
 10
12.0
 20
9.0
  9
$UNITMODE
 70
     0
  9
$VISRETAIN
 70
     0
  9
$PLINEGEN
 70
     1
  9
$PSLTSCALE
 70
     0
  9
$TREEDEPTH
 70
  3020
  9
$PICKSTYLE
 70
     1
  9
$CMLSTYLE
  2
Standard
  9
$CMLJUST
 70
     0
  9
$CMLSCALE
 40
1.0
  9
$PROXYGRAPHICS
 70
     0
  9
$MEASUREMENT
 70
     0
  0
ENDSEC
  0
SECTION
  2
CLASSES
  0
CLASS
  1
LWPOLYLINE
  2
AcDbPolyline
  3
"AutoCAD"
 90
        0
280
     0
281
     1
  0
CLASS
  1
IMAGE
  2
AcDbRasterImage
  3
ISM
 90
      127
280
     0
281
     1
  0
CLASS
  1
OLE2FRAME
  2
AcDbOle2Frame
  3
""
 90
        0
280
     0
281
     1
  0
CLASS
  1
HATCH
  2
AcDbHatch
  3
"ACAD_SEDONA"
 90
        0
280
     0
281
     1
  0
CLASS
  1
DICTIONARYVAR
  2
AcDbDictionaryVar
  3
"AutoCAD"
 90
        0
280
     0
281
     0
  0
CLASS
  1
RASTERVARIABLES
  2
AcDbRasterVariables
  3
ISM
 90
        0
280
     0
281
     0
  0
CLASS
  1
IMAGEDEF
  2
AcDbRasterImageDef
  3
ISM
 90
        0
280
     0
281
     0
  0
CLASS
  1
IMAGEDEF_REACTOR
  2
AcDbRasterImageDefReactor
  3
ISM
 90
        1
280
     0
281
     0
  0
CLASS
  1
IDBUFFER
  2
AcDbIdBuffer
  3
"Acad"
 90
        0
280
     0
281
     0
  0
CLASS
  1
SPATIAL_FILTER
  2
AcDbSpatialFilter
  3
"Acad"
 90
        0
280
     0
281
     0
  0
CLASS
  1
XRECORD
  2
AcDbXrecord
  3
"<Built In>"
 90
        0
280
     0
281
     0
  0
CLASS
  1
SORTENTSTABLE
  2
AcDbSortentsTable
  3
"AutoCAD"
 90
        0
280
     0
281
     0
  0
CLASS
  1
LAYER_INDEX
  2
AcDbLayerIndex
  3
"Acad"
 90
        0
280
     0
281
     0
  0
CLASS
  1
SPATIAL_INDEX
  2
AcDbSpatialIndex
  3
"Acad"
 90
        0
280
     0
281
     0
  0
CLASS
  1
OBJECT_PTR
  2
CAseDLPNTableRecord
  3
"ASE-LPNTableRecord"
 90
        1
280
     0
281
     0
  0
CLASS
  1
LAYOUT
  2
AcDbLayout
  3
"AutoCAD 2000"
 90
        1
280
     0
281
     0
  0
CLASS
  1
PLOTSETTINGS
  2
AcDbPlotSettings
  3
"AutoCAD 2000"
 90
        1
280
     0
281
     0
  0
CLASS
  1
ACDBDICTIONARYWDFLT
  2
AcDbDictionaryWithDefault
  3
"AutoCAD 2000"
 90
        1
280
     0
281
     0
  0
CLASS
  1
ACDBPLACEHOLDER
  2
AcDbPlaceHolder
  3
"AutoCAD 2000"
 90
        1
280
     0
281
     0
  0
CLASS
  1
VBA_PROJECT
  2
AcDbVbaProject
  3
"acadvba"
 90
        1
280
     0
281
     0
  0
CLASS
  1
WIPEOUT
  2
AcDbWipeout
  3
WipeOut|AutoCAD Express Tool|expresstools@autodesk.com
 90
      127
280
     0
281
     1
  0
CLASS
  1
WIPEOUTVARIABLES
  2
AcDbWipeoutVariables
  3
WipeOut|AutoCAD Express Tool|expresstools@autodesk.com
 90
        0
280
     0
281
     0
  0
CLASS
  1
RTEXT
  2
RText
  3
RText|AutoCAD Express Tool|expresstools@autodesk.com
 90
        0
280
     0
281
     1
  0
CLASS
  1
ARCALIGNEDTEXT
  2
AcDbArcAlignedText
  3
ATEXT|AutoCAD Express Tool|expresstools@autodesk.com
 90
        0
280
     0
281
     1
  0
ENDSEC
  0
SECTION
  2
TABLES
  0
TABLE
  2
VPORT
  5
7
100
AcDbSymbolTable
 70
     1
  0
VPORT
  5
15
100
AcDbSymbolTableRecord
100
AcDbViewportTableRecord
  2
*ACTIVE
 70
     0
 10
0.0
 20
0.0
 11
1.0
 21
1.0
 12
1049.193422
 22
729.072861
 13
0.0
 23
0.0
 14
1.0
 24
1.0
 15
0.0
 25
0.0
 16
0.0
 26
0.0
 36
1.0
 17
0.0
 27
0.0
 37
0.0
 40
1458.68873
 41
1.722533
 42
50.0
 43
0.0
 44
0.0
 50
0.0
 51
0.0
 71
     0
 72
   100
 73
     1
 74
     1
 75
     0
 76
     0
 77
     0
 78
     0
  0
ENDTAB
  0
TABLE
  2
LTYPE
  5
4
100
AcDbSymbolTable
 70
    10
  0
LTYPE
  5
11
100
AcDbSymbolTableRecord
100
AcDbLinetypeTableRecord
  2
BYBLOCK
 70
    64
  3

 72
    65
 73
     0
 40
0.0
  0
LTYPE
  5
12
100
AcDbSymbolTableRecord
100
AcDbLinetypeTableRecord
  2
BYLAYER
 70
    64
  3

 72
    65
 73
     0
 40
0.0
  0
LTYPE
  5
13
100
AcDbSymbolTableRecord
100
AcDbLinetypeTableRecord
  2
CONTINUOUS
 70
    64
  3
実線
 72
    65
 73
     0
 40
0.0
  0
LTYPE
  5
1D
100
AcDbSymbolTableRecord
100
AcDbLinetypeTableRecord
  2
EXLTYPE1
 70
    64
  3
一点鎖線
 72
    65
 73
     4
 40
2.56
 49
2.0
 74
     0
 49
-0.2
 74
     0
 49
0.16
 74
     0
 49
-0.2
 74
     0
  0
LTYPE
  5
1E
100
AcDbSymbolTableRecord
100
AcDbLinetypeTableRecord
  2
EXLTYPE2
 70
    64
  3
破線
 72
    65
 73
     2
 40
0.2
 49
0.1
 74
     0
 49
-0.1
 74
     0
  0
LTYPE
  5
1F
100
AcDbSymbolTableRecord
100
AcDbLinetypeTableRecord
  2
EXLTYPE3
 70
    64
  3
二点鎖線
 72
    65
 73
     6
 40
0.75
 49
0.5
 74
     0
 49
-0.05
 74
     0
 49
0.05
 74
     0
 49
-0.05
 74
     0
 49
0.05
 74
     0
 49
-0.05
 74
     0
  0
LTYPE
  5
20
100
AcDbSymbolTableRecord
100
AcDbLinetypeTableRecord
  2
EXLTYPE4
 70
    64
  3
一点鎖線2
 72
    65
 73
     4
 40
1.3
 49
1.0
 74
     0
 49
-0.1
 74
     0
 49
0.1
 74
     0
 49
-0.1
 74
     0
  0
LTYPE
  5
21
100
AcDbSymbolTableRecord
100
AcDbLinetypeTableRecord
  2
EXLTYPE5
 70
    64
  3
破線2
 72
    65
 73
     2
 40
0.1
 49
0.05
 74
     0
 49
-0.05
 74
     0
  0
LTYPE
  5
22
100
AcDbSymbolTableRecord
100
AcDbLinetypeTableRecord
  2
EXLTYPE6
 70
    64
  3
破線3
 72
    65
 73
     2
 40
0.2
 49
0.1
 74
     0
 49
-0.1
 74
     0
  0
LTYPE
  5
23
100
AcDbSymbolTableRecord
100
AcDbLinetypeTableRecord
  2
EXLTYPE7
 70
    64
  3
一点鎖線3
 72
    65
 73
     4
 40
2.8575
 49
1.905
 74
     0
 49
-0.3175
 74
     0
 49
0.3175
 74
     0
 49
-0.3175
 74
     0
  0
ENDTAB
  0
TABLE
  2
LAYER
  5
2
100
AcDbSymbolTable
 70
     2
  0
LAYER
  5
14
100
AcDbSymbolTableRecord
100
AcDbLayerTableRecord
  2
0
 70
     0
 62
     7
  6
CONTINUOUS
  0
LAYER
  5
26
100
AcDbSymbolTableRecord
100
AcDbLayerTableRecord
  2
LAY-1
 70
    64
 62
     7
  6
CONTINUOUS
  0
ENDTAB
  0
TABLE
  2
STYLE
  5
3
100
AcDbSymbolTable
 70
     3
  0
STYLE
  5
17
100
AcDbSymbolTableRecord
100
AcDbTextStyleTableRecord
  2
STANDARD
 70
     0
 40
0.0
 41
1.0
 50
0.0
 71
     0
 42
0.0
  3
monotxt
  4
extfont
  0
STYLE
  5
24
100
AcDbSymbolTableRecord
100
AcDbTextStyleTableRecord
  2
EXCADSTD
 70
    64
 40
0.0
 41
1.0
 50
0.0
 71
     0
 42
0.2
  3
monotxt
  4
extfont
  0
STYLE
  5
25
100
AcDbSymbolTableRecord
100
AcDbTextStyleTableRecord
  2
EXCADVERT
 70
    68
 40
0.0
 41
1.0
 50
0.0
 71
     0
 42
0.286885
  3
monotxt
  4
extfont
  0
ENDTAB
  0
TABLE
  2
VIEW
  5
5
100
AcDbSymbolTable
 70
     0
  0
ENDTAB
  0
TABLE
  2
UCS
  5
6
100
AcDbSymbolTable
 70
     0
  0
ENDTAB
  0
TABLE
  2
APPID
  5
8
100
AcDbSymbolTable
 70
     1
  0
APPID
  5
16
100
AcDbSymbolTableRecord
100
AcDbRegAppTableRecord
  2
ACAD
 70
     0
  0
ENDTAB
  0
TABLE
  2
DIMSTYLE
  5
9
100
AcDbSymbolTable
 70
     1
  0
DIMSTYLE
105
18
100
AcDbSymbolTableRecord
100
AcDbDimStyleTableRecord
  2
STANDARD
 70
     0
  3

  4

  5

  6

  7

 40
1.0
 41
0.18
 42
0.0625
 43
0.38
 44
0.18
 45
0.0
 46
0.0
 47
0.0
 48
0.0
 71
     0
 72
     0
 73
     1
 74
     1
 75
     0
 76
     0
 77
     0
 78
     0
140
0.18
141
0.09
142
0.0
143
25.4
144
1.0
145
0.0
146
1.0
147
0.09
170
     0
171
     2
172
     0
173
     0
174
     0
175
     0
176
     0
177
     0
178
     0
270
     2
271
     4
272
     4
273
     2
274
     2
275
     0
280
     0
281
     0
282
     0
283
     1
284
     0
285
     0
286
     0
287
     0
288
     0
340
17
  0
ENDTAB
  0
TABLE
  2
BLOCK_RECORD
  5
1
100
AcDbSymbolTable
 70
    14
  0
BLOCK_RECORD
  5
A
100
AcDbSymbolTableRecord
100
AcDbBlockTableRecord
  2
*MODEL_SPACE
  0
BLOCK_RECORD
  5
B
100
AcDbSymbolTableRecord
100
AcDbBlockTableRecord
  2
*PAPER_SPACE
  0
BLOCK_RECORD
  5
27
100
AcDbSymbolTableRecord
100
AcDbBlockTableRecord
  2
_EX_NORM
  0
BLOCK_RECORD
  5
28
100
AcDbSymbolTableRecord
100
AcDbBlockTableRecord
  2
_EX_BNORM
  0
BLOCK_RECORD
  5
29
100
AcDbSymbolTableRecord
100
AcDbBlockTableRecord
  2
_EX_BCIR
  0
BLOCK_RECORD
  5
2A
100
AcDbSymbolTableRecord
100
AcDbBlockTableRecord
  2
_EX_RCIVIL
  0
BLOCK_RECORD
  5
2B
100
AcDbSymbolTableRecord
100
AcDbBlockTableRecord
  2
_EX_SLANT
  0
BLOCK_RECORD
  5
2C
100
AcDbSymbolTableRecord
100
AcDbBlockTableRecord
  2
_EX_NONE
  0
BLOCK_RECORD
  5
2D
100
AcDbSymbolTableRecord
100
AcDbBlockTableRecord
  2
_EX_CIVIL
  0
BLOCK_RECORD
  5
2E
100
AcDbSymbolTableRecord
100
AcDbBlockTableRecord
  2
_EX_WCIR
  0
BLOCK_RECORD
  5
2F
100
AcDbSymbolTableRecord
100
AcDbBlockTableRecord
  2
_EX_WCIR2
  0
BLOCK_RECORD
  5
30
100
AcDbSymbolTableRecord
100
AcDbBlockTableRecord
  2
_EX_WNORM
  0
BLOCK_RECORD
  5
31
100
AcDbSymbolTableRecord
100
AcDbBlockTableRecord
  2
_EX_NNORM
  0
BLOCK_RECORD
  5
32
100
AcDbSymbolTableRecord
100
AcDbBlockTableRecord
  2
_EX_BBOX
  0
BLOCK_RECORD
  5
33
100
AcDbSymbolTableRecord
100
AcDbBlockTableRecord
  2
_EX_WBOX
  0
BLOCK_RECORD
  5
34
100
AcDbSymbolTableRecord
100
AcDbBlockTableRecord
  2
_EX_INTEGRAL
  0
ENDTAB
  0
ENDSEC
  0
SECTION
  2
BLOCKS
  0
BLOCK
  5
D
100
AcDbEntity
  8
0
100
AcDbBlockBegin
  2
*MODEL_SPACE
 70
     0
 10
0.0
 20
0.0
 30
0.0
  3
*MODEL_SPACE
  1

  0
ENDBLK
  5
E
100
AcDbEntity
  8
0
100
AcDbBlockEnd
  0
BLOCK
  5
F
100
AcDbEntity
 67
     1
  8
0
100
AcDbBlockBegin
  2
*PAPER_SPACE
 70
     0
 10
0.0
 20
0.0
 30
0.0
  3
*PAPER_SPACE
  1

  0
ENDBLK
  5
10
100
AcDbEntity
 67
     1
  8
0
100
AcDbBlockEnd
  0
BLOCK
  5
35
100
AcDbEntity
  8
0
100
AcDbBlockBegin
  2
_EX_NORM
 70
     0
 10
0.0
 20
0.0
 30
0.0
  3
_EX_NORM
  1

  0
LINE
  5
36
100
AcDbEntity
  8
0
  6
CONTINUOUS
 62
     0
100
AcDbLine
 10
0.0
 20
0.0
 30
0.0
 11
-1.0
 21
0.0
 31
0.0
  0
LINE
  5
37
100
AcDbEntity
  8
0
  6
CONTINUOUS
 62
     0
100
AcDbLine
 10
0.0
 20
0.0
 30
0.0
 11
-1.0
 21
0.166667
 31
0.0
  0
LINE
  5
38
100
AcDbEntity
  8
0
  6
CONTINUOUS
 62
     0
100
AcDbLine
 10
0.0
 20
0.0
 30
0.0
 11
-1.0
 21
-0.166667
 31
0.0
  0
ENDBLK
  5
39
100
AcDbEntity
  8
0
100
AcDbBlockEnd
  0
BLOCK
  5
3A
100
AcDbEntity
  8
0
100
AcDbBlockBegin
  2
_EX_BNORM
 70
     0
 10
0.0
 20
0.0
 30
0.0
  3
_EX_BNORM
  1

  0
LINE
  5
3B
100
AcDbEntity
  8
0
  6
CONTINUOUS
 62
     0
100
AcDbLine
 10
0.0
 20
0.0
 30
0.0
 11
-1.0
 21
0.0
 31
0.0
  0
LINE
  5
3C
100
AcDbEntity
  8
0
  6
CONTINUOUS
 62
     0
100
AcDbLine
 10
0.0
 20
0.0
 30
0.0
 11
-1.0
 21
0.166667
 31
0.0
  0
LINE
  5
3D
100
AcDbEntity
  8
0
  6
CONTINUOUS
 62
     0
100
AcDbLine
 10
0.0
 20
0.0
 30
0.0
 11
-1.0
 21
-0.166667
 31
0.0
  0
LINE
  5
3E
100
AcDbEntity
  8
0
  6
CONTINUOUS
 62
     0
100
AcDbLine
 10
0.0
 20
0.0
 30
0.0
 11
-1.0
 21
0.083333
 31
0.0
  0
LINE
  5
3F
100
AcDbEntity
  8
0
  6
CONTINUOUS
 62
     0
100
AcDbLine
 10
0.0
 20
0.0
 30
0.0
 11
-1.0
 21
-0.083333
 31
0.0
  0
LINE
  5
40
100
AcDbEntity
  8
0
  6
CONTINUOUS
 62
     0
100
AcDbLine
 10
-1.0
 20
0.166667
 30
0.0
 11
-1.0
 21
-0.166667
 31
0.0
  0
ENDBLK
  5
41
100
AcDbEntity
  8
0
100
AcDbBlockEnd
  0
BLOCK
  5
42
100
AcDbEntity
  8
0
100
AcDbBlockBegin
  2
_EX_BCIR
 70
     0
 10
0.0
 20
0.0
 30
0.0
  3
_EX_BCIR
  1

  0
LINE
  5
43
100
AcDbEntity
  8
0
  6
CONTINUOUS
 62
     0
100
AcDbLine
 10
0.0
 20
0.0
 30
0.0
 11
-1.0
 21
0.0
 31
0.0
  0
CIRCLE
  5
44
100
AcDbEntity
  8
0
  6
CONTINUOUS
 62
     0
100
AcDbCircle
 10
0.0
 20
0.0
 30
0.0
 40
0.5
  0
CIRCLE
  5
45
100
AcDbEntity
  8
0
  6
CONTINUOUS
 62
     0
100
AcDbCircle
 10
0.0
 20
0.0
 30
0.0
 40
0.25
  0
ENDBLK
  5
46
100
AcDbEntity
  8
0
100
AcDbBlockEnd
  0
BLOCK
  5
47
100
AcDbEntity
  8
0
100
AcDbBlockBegin
  2
_EX_RCIVIL
 70
     0
 10
0.0
 20
0.0
 30
0.0
  3
_EX_RCIVIL
  1

  0
LINE
  5
48
100
AcDbEntity
  8
0
  6
CONTINUOUS
 62
     0
100
AcDbLine
 10
0.0
 20
0.0
 30
0.0
 11
-1.0
 21
0.0
 31
0.0
  0
LINE
  5
49
100
AcDbEntity
  8
0
  6
CONTINUOUS
 62
     0
100
AcDbLine
 10
-1.0
 20
-0.25
 30
0.0
 11
0.0
 21
-0.25
 31
0.0
  0
LINE
  5
4A
100
AcDbEntity
  8
0
  6
CONTINUOUS
 62
     0
100
AcDbLine
 10
-1.0
 20
-0.125
 30
0.0
 11
0.0
 21
-0.125
 31
0.0
  0
ENDBLK
  5
4B
100
AcDbEntity
  8
0
100
AcDbBlockEnd
  0
BLOCK
  5
4C
100
AcDbEntity
  8
0
100
AcDbBlockBegin
  2
_EX_SLANT
 70
     0
 10
0.0
 20
0.0
 30
0.0
  3
_EX_SLANT
  1

  0
LINE
  5
4D
100
AcDbEntity
  8
0
  6
CONTINUOUS
 62
     0
100
AcDbLine
 10
0.0
 20
0.0
 30
0.0
 11
-1.0
 21
0.0
 31
0.0
  0
LINE
  5
4E
100
AcDbEntity
  8
0
  6
CONTINUOUS
 62
     0
100
AcDbLine
 10
0.707107
 20
0.707107
 30
0.0
 11
-0.707107
 21
-0.707107
 31
0.0
  0
ENDBLK
  5
4F
100
AcDbEntity
  8
0
100
AcDbBlockEnd
  0
BLOCK
  5
50
100
AcDbEntity
  8
0
100
AcDbBlockBegin
  2
_EX_NONE
 70
     0
 10
0.0
 20
0.0
 30
0.0
  3
_EX_NONE
  1

  0
LINE
  5
51
100
AcDbEntity
  8
0
  6
CONTINUOUS
 62
     0
100
AcDbLine
 10
0.0
 20
0.0
 30
0.0
 11
-1.0
 21
0.0
 31
0.0
  0
ENDBLK
  5
52
100
AcDbEntity
  8
0
100
AcDbBlockEnd
  0
BLOCK
  5
53
100
AcDbEntity
  8
0
100
AcDbBlockBegin
  2
_EX_CIVIL
 70
     0
 10
0.0
 20
0.0
 30
0.0
  3
_EX_CIVIL
  1

  0
LINE
  5
54
100
AcDbEntity
  8
0
  6
CONTINUOUS
 62
     0
100
AcDbLine
 10
0.0
 20
0.0
 30
0.0
 11
-1.0
 21
0.0
 31
0.0
  0
LINE
  5
55
100
AcDbEntity
  8
0
  6
CONTINUOUS
 62
     0
100
AcDbLine
 10
-1.0
 20
0.25
 30
0.0
 11
0.0
 21
0.25
 31
0.0
  0
LINE
  5
56
100
AcDbEntity
  8
0
  6
CONTINUOUS
 62
     0
100
AcDbLine
 10
-1.0
 20
0.125
 30
0.0
 11
0.0
 21
0.125
 31
0.0
  0
ENDBLK
  5
57
100
AcDbEntity
  8
0
100
AcDbBlockEnd
  0
BLOCK
  5
58
100
AcDbEntity
  8
0
100
AcDbBlockBegin
  2
_EX_WCIR
 70
     0
 10
0.0
 20
0.0
 30
0.0
  3
_EX_WCIR
  1

  0
LINE
  5
59
100
AcDbEntity
  8
0
  6
CONTINUOUS
 62
     0
100
AcDbLine
 10
0.0
 20
0.0
 30
0.0
 11
-1.0
 21
0.0
 31
0.0
  0
CIRCLE
  5
5A
100
AcDbEntity
  8
0
  6
CONTINUOUS
 62
     0
100
AcDbCircle
 10
0.0
 20
0.0
 30
0.0
 40
0.5
  0
ENDBLK
  5
5B
100
AcDbEntity
  8
0
100
AcDbBlockEnd
  0
BLOCK
  5
5C
100
AcDbEntity
  8
0
100
AcDbBlockBegin
  2
_EX_WCIR2
 70
     0
 10
0.0
 20
0.0
 30
0.0
  3
_EX_WCIR2
  1

  0
LINE
  5
5D
100
AcDbEntity
  8
0
  6
CONTINUOUS
 62
     0
100
AcDbLine
 10
-0.5
 20
0.0
 30
0.0
 11
-1.0
 21
0.0
 31
0.0
  0
CIRCLE
  5
5E
100
AcDbEntity
  8
0
  6
CONTINUOUS
 62
     0
100
AcDbCircle
 10
0.0
 20
0.0
 30
0.0
 40
0.5
  0
ENDBLK
  5
5F
100
AcDbEntity
  8
0
100
AcDbBlockEnd
  0
BLOCK
  5
60
100
AcDbEntity
  8
0
100
AcDbBlockBegin
  2
_EX_WNORM
 70
     0
 10
0.0
 20
0.0
 30
0.0
  3
_EX_WNORM
  1

  0
LINE
  5
61
100
AcDbEntity
  8
0
  6
CONTINUOUS
 62
     0
100
AcDbLine
 10
-1.0
 20
0.0
 30
0.0
 11
-1.0
 21
0.0
 31
0.0
  0
LINE
  5
62
100
AcDbEntity
  8
0
  6
CONTINUOUS
 62
     0
100
AcDbLine
 10
0.0
 20
0.0
 30
0.0
 11
-1.0
 21
0.166667
 31
0.0
  0
LINE
  5
63
100
AcDbEntity
  8
0
  6
CONTINUOUS
 62
     0
100
AcDbLine
 10
0.0
 20
0.0
 30
0.0
 11
-1.0
 21
-0.166667
 31
0.0
  0
LINE
  5
64
100
AcDbEntity
  8
0
  6
CONTINUOUS
 62
     0
100
AcDbLine
 10
-1.0
 20
0.166667
 30
0.0
 11
-1.0
 21
-0.166667
 31
0.0
  0
ENDBLK
  5
65
100
AcDbEntity
  8
0
100
AcDbBlockEnd
  0
BLOCK
  5
66
100
AcDbEntity
  8
0
100
AcDbBlockBegin
  2
_EX_NNORM
 70
     0
 10
0.0
 20
0.0
 30
0.0
  3
_EX_NNORM
  1

  0
LINE
  5
67
100
AcDbEntity
  8
0
  6
CONTINUOUS
 62
     0
100
AcDbLine
 10
0.0
 20
0.0
 30
0.0
 11
-1.0
 21
0.0
 31
0.0
  0
LINE
  5
68
100
AcDbEntity
  8
0
  6
CONTINUOUS
 62
     0
100
AcDbLine
 10
0.0
 20
0.0
 30
0.0
 11
-1.0
 21
0.166667
 31
0.0
  0
LINE
  5
69
100
AcDbEntity
  8
0
  6
CONTINUOUS
 62
     0
100
AcDbLine
 10
0.0
 20
0.0
 30
0.0
 11
-1.0
 21
-0.166667
 31
0.0
  0
LINE
  5
6A
100
AcDbEntity
  8
0
  6
CONTINUOUS
 62
     0
100
AcDbLine
 10
-1.0
 20
0.166667
 30
0.0
 11
-1.0
 21
-0.166667
 31
0.0
  0
ENDBLK
  5
6B
100
AcDbEntity
  8
0
100
AcDbBlockEnd
  0
BLOCK
  5
6C
100
AcDbEntity
  8
0
100
AcDbBlockBegin
  2
_EX_BBOX
 70
     0
 10
0.0
 20
0.0
 30
0.0
  3
_EX_BBOX
  1

  0
LINE
  5
6D
100
AcDbEntity
  8
0
  6
CONTINUOUS
 62
     0
100
AcDbLine
 10
0.0
 20
0.0
 30
0.0
 11
-1.0
 21
0.0
 31
0.0
  0
LINE
  5
6E
100
AcDbEntity
  8
0
  6
CONTINUOUS
 62
     0
100
AcDbLine
 10
-0.5
 20
0.5
 30
0.0
 11
0.5
 21
0.5
 31
0.0
  0
LINE
  5
6F
100
AcDbEntity
  8
0
  6
CONTINUOUS
 62
     0
100
AcDbLine
 10
0.5
 20
0.5
 30
0.0
 11
0.5
 21
-0.5
 31
0.0
  0
LINE
  5
70
100
AcDbEntity
  8
0
  6
CONTINUOUS
 62
     0
100
AcDbLine
 10
0.5
 20
-0.5
 30
0.0
 11
-0.5
 21
-0.5
 31
0.0
  0
LINE
  5
71
100
AcDbEntity
  8
0
  6
CONTINUOUS
 62
     0
100
AcDbLine
 10
-0.5
 20
-0.5
 30
0.0
 11
-0.5
 21
0.5
 31
0.0
  0
LINE
  5
72
100
AcDbEntity
  8
0
  6
CONTINUOUS
 62
     0
100
AcDbLine
 10
-0.25
 20
0.25
 30
0.0
 11
0.25
 21
0.25
 31
0.0
  0
LINE
  5
73
100
AcDbEntity
  8
0
  6
CONTINUOUS
 62
     0
100
AcDbLine
 10
0.25
 20
0.25
 30
0.0
 11
0.25
 21
-0.25
 31
0.0
  0
LINE
  5
74
100
AcDbEntity
  8
0
  6
CONTINUOUS
 62
     0
100
AcDbLine
 10
0.25
 20
-0.25
 30
0.0
 11
-0.25
 21
-0.25
 31
0.0
  0
LINE
  5
75
100
AcDbEntity
  8
0
  6
CONTINUOUS
 62
     0
100
AcDbLine
 10
-0.25
 20
-0.25
 30
0.0
 11
-0.25
 21
0.25
 31
0.0
  0
ENDBLK
  5
76
100
AcDbEntity
  8
0
100
AcDbBlockEnd
  0
BLOCK
  5
77
100
AcDbEntity
  8
0
100
AcDbBlockBegin
  2
_EX_WBOX
 70
     0
 10
0.0
 20
0.0
 30
0.0
  3
_EX_WBOX
  1

  0
LINE
  5
78
100
AcDbEntity
  8
0
  6
CONTINUOUS
 62
     0
100
AcDbLine
 10
-0.5
 20
0.0
 30
0.0
 11
-1.0
 21
0.0
 31
0.0
  0
LINE
  5
79
100
AcDbEntity
  8
0
  6
CONTINUOUS
 62
     0
100
AcDbLine
 10
-0.5
 20
0.5
 30
0.0
 11
0.5
 21
0.5
 31
0.0
  0
LINE
  5
7A
100
AcDbEntity
  8
0
  6
CONTINUOUS
 62
     0
100
AcDbLine
 10
0.5
 20
0.5
 30
0.0
 11
0.5
 21
-0.5
 31
0.0
  0
LINE
  5
7B
100
AcDbEntity
  8
0
  6
CONTINUOUS
 62
     0
100
AcDbLine
 10
0.5
 20
-0.5
 30
0.0
 11
-0.5
 21
-0.5
 31
0.0
  0
LINE
  5
7C
100
AcDbEntity
  8
0
  6
CONTINUOUS
 62
     0
100
AcDbLine
 10
-0.5
 20
-0.5
 30
0.0
 11
-0.5
 21
0.5
 31
0.0
  0
ENDBLK
  5
7D
100
AcDbEntity
  8
0
100
AcDbBlockEnd
  0
BLOCK
  5
7E
100
AcDbEntity
  8
0
100
AcDbBlockBegin
  2
_EX_INTEGRAL
 70
     0
 10
0.0
 20
0.0
 30
0.0
  3
_EX_INTEGRAL
  1

  0
LINE
  5
7F
100
AcDbEntity
  8
0
  6
CONTINUOUS
 62
     0
100
AcDbLine
 10
0.0
 20
0.0
 30
0.0
 11
-1.0
 21
0.0
 31
0.0
  0
ARC
  5
80
100
AcDbEntity
  8
0
  6
CONTINUOUS
 62
     0
100
AcDbCircle
 10
0.0
 20
0.0
 30
0.0
 40
0.707107
100
AcDbArc
 50
90.0
 51
180.0
  0
ARC
  5
81
100
AcDbEntity
  8
0
  6
CONTINUOUS
 62
     0
100
AcDbCircle
 10
0.0
 20
0.0
 30
0.0
 40
0.707107
100
AcDbArc
 50
270.0
 51
0.0
  0
ENDBLK
  5
82
100
AcDbEntity
  8
0
100
AcDbBlockEnd
  0
ENDSEC
  0
SECTION
  2
ENTITIES
  0
LINE
  5
83
100
AcDbEntity
  8
LAY-1
  6
CONTINUOUS
 62
     3
100
AcDbLine
 10
-12089.806578
 20
-35189.271504
 30
0.0
 11
-12089.806578
 21
-33826.119052
 31
0.0
  0
LINE
  5
84
100
AcDbEntity
  8
LAY-1
  6
CONTINUOUS
 62
     3
100
AcDbLine
 10
-11739.806578
 20
-35189.271504
 30
0.0
 11
-11739.806578
 21
-33826.119052
 31
0.0
  0
LINE
  5
85
100
AcDbEntity
  8
LAY-1
  6
CONTINUOUS
 62
     3
100
AcDbLine
 10
-11389.806578
 20
-35189.271504
 30
0.0
 11
-11389.806578
 21
-33826.119052
 31
0.0
  0
LINE
  5
86
100
AcDbEntity
  8
LAY-1
  6
CONTINUOUS
 62
     3
100
AcDbLine
 10
-11039.806578
 20
-35189.271504
 30
0.0
 11
-11039.806578
 21
-33826.119052
 31
0.0
  0
LINE
  5
87
100
AcDbEntity
  8
LAY-1
  6
CONTINUOUS
 62
     3
100
AcDbLine
 10
-10689.806578
 20
-35189.271504
 30
0.0
 11
-10689.806578
 21
-33826.119052
 31
0.0
  0
LINE
  5
88
100
AcDbEntity
  8
LAY-1
  6
CONTINUOUS
 62
     3
100
AcDbLine
 10
-10339.806578
 20
-35189.271504
 30
0.0
 11
-10339.806578
 21
-33826.119052
 31
0.0
  0
LINE
  5
89
100
AcDbEntity
  8
LAY-1
  6
CONTINUOUS
 62
     3
100
AcDbLine
 10
-11585.286819
 20
-35091.789544
 30
0.0
 11
-11582.786819
 21
-35094.289544
 31
0.0
  0
LINE
  5
8A
100
AcDbEntity
  8
LAY-1
  6
CONTINUOUS
 62
     3
100
AcDbLine
 10
-11587.286819
 20
-35086.289544
 30
0.0
 11
-11587.286819
 21
-35087.289544
 31
0.0
  0
LINE
  5
8B
100
AcDbEntity
  8
LAY-1
  6
CONTINUOUS
 62
     3
100
AcDbLine
 10
-11587.286819
 20
-35062.289544
 30
0.0
 11
-11587.286819
 21
-35063.289544
 31
0.0
  0
ARC
  5
8C
100
AcDbEntity
  8
LAY-1
  6
CONTINUOUS
 62
     3
100
AcDbCircle
 10
-11587.286819
 20
-35064.289544
 30
0.0
 40
1.0
100
AcDbArc
 50
0.0
 51
90.0
  0
LINE
  5
8D
100
AcDbEntity
  8
LAY-1
  6
CONTINUOUS
 62
     3
100
AcDbLine
 10
-11586.286819
 20
-35064.289544
 30
0.0
 11
-11586.286819
 21
-35085.289544
 31
0.0
  0
ARC
  5
8E
100
AcDbEntity
  8
LAY-1
  6
CONTINUOUS
 62
     3
100
AcDbCircle
 10
-11587.286819
 20
-35085.289544
 30
0.0
 40
1.0
100
AcDbArc
 50
270.0
 51
0.0
  0
LINE
  5
8F
100
AcDbEntity
  8
LAY-1
  6
CONTINUOUS
 62
     3
100
AcDbLine
 10
-11583.786819
 20
-35087.289544
 30
0.0
 11
-11583.786819
 21
-35091.289544
 31
0.0
  0
ARC
  5
90
100
AcDbEntity
  8
LAY-1
  6
CONTINUOUS
 62
     3
100
AcDbCircle
 10
-11584.286819
 20
-35091.289544
 30
0.0
 40
0.5
100
AcDbArc
 50
270.0
 51
0.0
  0
LINE
  5
91
100
AcDbEntity
  8
LAY-1
  6
CONTINUOUS
 62
     3
100
AcDbLine
 10
-11587.286819
 20
-35063.289544
 30
0.0
 11
-11576.286819
 21
-35063.289544
 31
0.0
  0
LINE
  5
92
100
AcDbEntity
  8
LAY-1
  6
CONTINUOUS
 62
     3
100
AcDbLine
 10
-11587.286819
 20
-35086.289544
 30
0.0
 11
-11576.286819
 21
-35086.289544
 31
0.0
  0
LINE
  5
93
100
AcDbEntity
  8
LAY-1
  6
CONTINUOUS
 62
     3
100
AcDbLine
 10
-11587.286819
 20
-35087.289544
 30
0.0
 11
-11576.286819
 21
-35087.289544
 31
0.0
  0
LINE
  5
94
100
AcDbEntity
  8
LAY-1
  6
CONTINUOUS
 62
     3
100
AcDbLine
 10
-11585.286819
 20
-35091.789544
 30
0.0
 11
-11576.286819
 21
-35091.789544
 31
0.0
  0
LINE
  5
95
100
AcDbEntity
  8
LAY-1
  6
CONTINUOUS
 62
     3
100
AcDbLine
 10
-11576.286819
 20
-35094.289544
 30
0.0
 11
-11582.786819
 21
-35094.289544
 31
0.0
  0
LINE
  5
96
100
AcDbEntity
  8
LAY-1
  6
CONTINUOUS
 62
     3
100
AcDbLine
 10
-11576.286819
 20
-35062.289544
 30
0.0
 11
-11587.286819
 21
-35062.289544
 31
0.0
  0
LINE
  5
97
100
AcDbEntity
  8
LAY-1
  6
CONTINUOUS
 62
     3
100
AcDbLine
 10
-11232.406181
 20
-35082.289544
 30
0.0
 11
-11232.406181
 21
-35083.289544
 31
0.0
  0
LINE
  5
98
100
AcDbEntity
  8
LAY-1
  6
CONTINUOUS
 62
     3
100
AcDbLine
 10
-11232.406181
 20
-35062.289544
 30
0.0
 11
-11232.406181
 21
-35064.289544
 31
0.0
  0
ARC
  5
99
100
AcDbEntity
  8
LAY-1
  6
CONTINUOUS
 62
     3
100
AcDbCircle
 10
-11232.406181
 20
-35065.289544
 30
0.0
 40
1.0
100
AcDbArc
 50
0.0
 51
90.0
  0
LINE
  5
9A
100
AcDbEntity
  8
LAY-1
  6
CONTINUOUS
 62
     3
100
AcDbLine
 10
-11231.406181
 20
-35065.289544
 30
0.0
 11
-11231.406181
 21
-35081.289544
 31
0.0
  0
ARC
  5
9B
100
AcDbEntity
  8
LAY-1
  6
CONTINUOUS
 62
     3
100
AcDbCircle
 10
-11232.406181
 20
-35081.289544
 30
0.0
 40
1.0
100
AcDbArc
 50
270.0
 51
0.0
  0
LINE
  5
9C
100
AcDbEntity
  8
LAY-1
  6
CONTINUOUS
 62
     3
100
AcDbLine
 10
-11217.406181
 20
-35062.289544
 30
0.0
 11
-11232.406181
 21
-35062.289544
 31
0.0
  0
LINE
  5
9D
100
AcDbEntity
  8
LAY-1
  6
CONTINUOUS
 62
     3
100
AcDbLine
 10
-11232.406181
 20
-35064.289544
 30
0.0
 11
-11217.406181
 21
-35064.289544
 31
0.0
  0
LINE
  5
9E
100
AcDbEntity
  8
LAY-1
  6
CONTINUOUS
 62
     3
100
AcDbLine
 10
-11232.406181
 20
-35082.289544
 30
0.0
 11
-11217.406181
 21
-35082.289544
 31
0.0
  0
LINE
  5
9F
100
AcDbEntity
  8
LAY-1
  6
CONTINUOUS
 62
     3
100
AcDbLine
 10
-11232.406181
 20
-35083.289544
 30
0.0
 11
-11217.406181
 21
-35083.289544
 31
0.0
  0
LINE
  5
A0
100
AcDbEntity
  8
LAY-1
  6
CONTINUOUS
 62
     3
100
AcDbLine
 10
-10888.108397
 20
-35062.289544
 30
0.0
 11
-10868.108397
 21
-35062.289544
 31
0.0
  0
LINE
  5
A1
100
AcDbEntity
  8
LAY-1
  6
CONTINUOUS
 62
     3
100
AcDbLine
 10
-10877.608397
 20
-35097.289544
 30
0.0
 11
-10868.108397
 21
-35097.289544
 31
0.0
  0
LINE
  5
A2
100
AcDbEntity
  8
LAY-1
  6
CONTINUOUS
 62
     3
100
AcDbLine
 10
-10877.608397
 20
-35097.289544
 30
0.0
 11
-10880.108397
 21
-35093.789544
 31
0.0
  0
LINE
  5
A3
100
AcDbEntity
  8
LAY-1
  6
CONTINUOUS
 62
     3
100
AcDbLine
 10
-10888.108397
 20
-35062.289544
 30
0.0
 11
-10888.108397
 21
-35064.289544
 31
0.0
  0
ARC
  5
A4
100
AcDbEntity
  8
LAY-1
  6
CONTINUOUS
 62
     3
100
AcDbCircle
 10
-10879.108397
 20
-35093.289544
 30
0.0
 40
0.5
100
AcDbArc
 50
270.0
 51
0.0
  0
LINE
  5
A5
100
AcDbEntity
  8
LAY-1
  6
CONTINUOUS
 62
     3
100
AcDbLine
 10
-10888.108397
 20
-35086.289544
 30
0.0
 11
-10888.108397
 21
-35087.289544
 31
0.0
  0
ARC
  5
A6
100
AcDbEntity
  8
LAY-1
  6
CONTINUOUS
 62
     3
100
AcDbCircle
 10
-10888.108397
 20
-35065.539544
 30
0.0
 40
1.25
100
AcDbArc
 50
0.0
 51
90.0
  0
LINE
  5
A7
100
AcDbEntity
  8
LAY-1
  6
CONTINUOUS
 62
     3
100
AcDbLine
 10
-10886.858397
 20
-35065.539544
 30
0.0
 11
-10886.858397
 21
-35085.039544
 31
0.0
  0
ARC
  5
A8
100
AcDbEntity
  8
LAY-1
  6
CONTINUOUS
 62
     3
100
AcDbCircle
 10
-10888.108397
 20
-35085.039544
 30
0.0
 40
1.25
100
AcDbArc
 50
270.0
 51
0.0
  0
LINE
  5
A9
100
AcDbEntity
  8
LAY-1
  6
CONTINUOUS
 62
     3
100
AcDbLine
 10
-10868.108397
 20
-35064.289544
 30
0.0
 11
-10888.108397
 21
-35064.289544
 31
0.0
  0
LINE
  5
AA
100
AcDbEntity
  8
LAY-1
  6
CONTINUOUS
 62
     3
100
AcDbLine
 10
-10868.108397
 20
-35087.289544
 30
0.0
 11
-10888.108397
 21
-35087.289544
 31
0.0
  0
LINE
  5
AB
100
AcDbEntity
  8
LAY-1
  6
CONTINUOUS
 62
     3
100
AcDbLine
 10
-10868.108397
 20
-35093.789544
 30
0.0
 11
-10880.108397
 21
-35093.789544
 31
0.0
  0
LINE
  5
AC
100
AcDbEntity
  8
LAY-1
  6
CONTINUOUS
 62
     3
100
AcDbLine
 10
-10878.608397
 20
-35093.289544
 30
0.0
 11
-10878.608397
 21
-35087.289544
 31
0.0
  0
LINE
  5
AD
100
AcDbEntity
  8
LAY-1
  6
CONTINUOUS
 62
     3
100
AcDbLine
 10
-10868.108397
 20
-35086.289544
 30
0.0
 11
-10888.108397
 21
-35086.289544
 31
0.0
  0
LINE
  5
AE
100
AcDbEntity
  8
LAY-1
  6
CONTINUOUS
 62
     3
100
AcDbLine
 10
-10551.377909
 20
-35062.289544
 30
0.0
 11
-10526.377909
 21
-35062.289544
 31
0.0
  0
LINE
  5
AF
100
AcDbEntity
  8
LAY-1
  6
CONTINUOUS
 62
     3
100
AcDbLine
 10
-10535.877909
 20
-35099.289544
 30
0.0
 11
-10526.377909
 21
-35099.289544
 31
0.0
  0
LINE
  5
B0
100
AcDbEntity
  8
LAY-1
  6
CONTINUOUS
 62
     3
100
AcDbLine
 10
-10535.877909
 20
-35099.289544
 30
0.0
 11
-10538.377909
 21
-35093.789544
 31
0.0
  0
ARC
  5
B1
100
AcDbEntity
  8
LAY-1
  6
CONTINUOUS
 62
     3
100
AcDbCircle
 10
-10537.377909
 20
-35093.289544
 30
0.0
 40
0.5
100
AcDbArc
 50
270.0
 51
0.0
  0
LINE
  5
B2
100
AcDbEntity
  8
LAY-1
  6
CONTINUOUS
 62
     3
100
AcDbLine
 10
-10551.377909
 20
-35062.289544
 30
0.0
 11
-10551.377909
 21
-35065.289544
 31
0.0
  0
LINE
  5
B3
100
AcDbEntity
  8
LAY-1
  6
CONTINUOUS
 62
     3
100
AcDbLine
 10
-10551.377909
 20
-35084.289544
 30
0.0
 11
-10551.377909
 21
-35085.289544
 31
0.0
  0
ARC
  5
B4
100
AcDbEntity
  8
LAY-1
  6
CONTINUOUS
 62
     3
100
AcDbCircle
 10
-10551.377909
 20
-35066.539544
 30
0.0
 40
1.25
100
AcDbArc
 50
0.0
 51
90.0
  0
LINE
  5
B5
100
AcDbEntity
  8
LAY-1
  6
CONTINUOUS
 62
     3
100
AcDbLine
 10
-10550.127909
 20
-35066.539544
 30
0.0
 11
-10550.127909
 21
-35083.039544
 31
0.0
  0
ARC
  5
B6
100
AcDbEntity
  8
LAY-1
  6
CONTINUOUS
 62
     3
100
AcDbCircle
 10
-10551.377909
 20
-35083.039544
 30
0.0
 40
1.25
100
AcDbArc
 50
270.0
 51
0.0
  0
LINE
  5
B7
100
AcDbEntity
  8
LAY-1
  6
CONTINUOUS
 62
     3
100
AcDbLine
 10
-10526.377909
 20
-35084.289544
 30
0.0
 11
-10551.377909
 21
-35084.289544
 31
0.0
  0
LINE
  5
B8
100
AcDbEntity
  8
LAY-1
  6
CONTINUOUS
 62
     3
100
AcDbLine
 10
-10526.377909
 20
-35085.289544
 30
0.0
 11
-10551.377909
 21
-35085.289544
 31
0.0
  0
LINE
  5
B9
100
AcDbEntity
  8
LAY-1
  6
CONTINUOUS
 62
     3
100
AcDbLine
 10
-10526.377909
 20
-35065.289544
 30
0.0
 11
-10551.377909
 21
-35065.289544
 31
0.0
  0
LINE
  5
BA
100
AcDbEntity
  8
LAY-1
  6
CONTINUOUS
 62
     3
100
AcDbLine
 10
-10536.877909
 20
-35093.289544
 30
0.0
 11
-10536.877909
 21
-35085.289544
 31
0.0
  0
LINE
  5
BB
100
AcDbEntity
  8
LAY-1
  6
CONTINUOUS
 62
     3
100
AcDbLine
 10
-10526.377909
 20
-35093.789544
 30
0.0
 11
-10538.377909
 21
-35093.789544
 31
0.0
  0
LINE
  5
BC
100
AcDbEntity
  8
LAY-1
  6
CONTINUOUS
 62
     3
100
AcDbLine
 10
-11228.406181
 20
-35088.789544
 30
0.0
 11
-11225.906181
 21
-35092.289544
 31
0.0
  0
ARC
  5
BD
100
AcDbEntity
  8
LAY-1
  6
CONTINUOUS
 62
     3
100
AcDbCircle
 10
-11227.406181
 20
-35088.289544
 30
0.0
 40
0.5
100
AcDbArc
 50
270.0
 51
0.0
  0
LINE
  5
BE
100
AcDbEntity
  8
LAY-1
  6
CONTINUOUS
 62
     3
100
AcDbLine
 10
-11226.906181
 20
-35083.289544
 30
0.0
 11
-11226.906181
 21
-35088.289544
 31
0.0
  0
LINE
  5
BF
100
AcDbEntity
  8
LAY-1
  6
CONTINUOUS
 62
     3
100
AcDbLine
 10
-11217.406181
 20
-35092.289544
 30
0.0
 11
-11225.906181
 21
-35092.289544
 31
0.0
  0
LINE
  5
C0
100
AcDbEntity
  8
LAY-1
  6
CONTINUOUS
 62
     3
100
AcDbLine
 10
-11228.406181
 20
-35088.789544
 30
0.0
 11
-11217.406181
 21
-35088.789544
 31
0.0
  0
LINE
  5
C1
100
AcDbEntity
  8
LAY-1
  6
CONTINUOUS
 62
     3
100
AcDbLine
 10
-11567.286819
 20
-35091.789544
 30
0.0
 11
-11569.786819
 21
-35094.289544
 31
0.0
  0
LINE
  5
C2
100
AcDbEntity
  8
LAY-1
  6
CONTINUOUS
 62
     3
100
AcDbLine
 10
-11565.286819
 20
-35086.289544
 30
0.0
 11
-11565.286819
 21
-35087.289544
 31
0.0
  0
LINE
  5
C3
100
AcDbEntity
  8
LAY-1
  6
CONTINUOUS
 62
     3
100
AcDbLine
 10
-11565.286819
 20
-35062.289544
 30
0.0
 11
-11565.286819
 21
-35063.289544
 31
0.0
  0
ARC
  5
C4
100
AcDbEntity
  8
LAY-1
  6
CONTINUOUS
 62
     3
100
AcDbCircle
 10
-11565.286819
 20
-35064.289544
 30
0.0
 40
1.0
100
AcDbArc
 50
90.0
 51
180.0
  0
LINE
  5
C5
100
AcDbEntity
  8
LAY-1
  6
CONTINUOUS
 62
     3
100
AcDbLine
 10
-11566.286819
 20
-35064.289544
 30
0.0
 11
-11566.286819
 21
-35085.289544
 31
0.0
  0
ARC
  5
C6
100
AcDbEntity
  8
LAY-1
  6
CONTINUOUS
 62
     3
100
AcDbCircle
 10
-11565.286819
 20
-35085.289544
 30
0.0
 40
1.0
100
AcDbArc
 50
180.0
 51
270.0
  0
LINE
  5
C7
100
AcDbEntity
  8
LAY-1
  6
CONTINUOUS
 62
     3
100
AcDbLine
 10
-11568.786819
 20
-35087.289544
 30
0.0
 11
-11568.786819
 21
-35091.289544
 31
0.0
  0
ARC
  5
C8
100
AcDbEntity
  8
LAY-1
  6
CONTINUOUS
 62
     3
100
AcDbCircle
 10
-11568.286819
 20
-35091.289544
 30
0.0
 40
0.5
100
AcDbArc
 50
180.0
 51
270.0
  0
LINE
  5
C9
100
AcDbEntity
  8
LAY-1
  6
CONTINUOUS
 62
     3
100
AcDbLine
 10
-11565.286819
 20
-35063.289544
 30
0.0
 11
-11576.286819
 21
-35063.289544
 31
0.0
  0
LINE
  5
CA
100
AcDbEntity
  8
LAY-1
  6
CONTINUOUS
 62
     3
100
AcDbLine
 10
-11565.286819
 20
-35086.289544
 30
0.0
 11
-11576.286819
 21
-35086.289544
 31
0.0
  0
LINE
  5
CB
100
AcDbEntity
  8
LAY-1
  6
CONTINUOUS
 62
     3
100
AcDbLine
 10
-11565.286819
 20
-35087.289544
 30
0.0
 11
-11576.286819
 21
-35087.289544
 31
0.0
  0
LINE
  5
CC
100
AcDbEntity
  8
LAY-1
  6
CONTINUOUS
 62
     3
100
AcDbLine
 10
-11567.286819
 20
-35091.789544
 30
0.0
 11
-11576.286819
 21
-35091.789544
 31
0.0
  0
LINE
  5
CD
100
AcDbEntity
  8
LAY-1
  6
CONTINUOUS
 62
     3
100
AcDbLine
 10
-11576.286819
 20
-35094.289544
 30
0.0
 11
-11569.786819
 21
-35094.289544
 31
0.0
  0
LINE
  5
CE
100
AcDbEntity
  8
LAY-1
  6
CONTINUOUS
 62
     3
100
AcDbLine
 10
-11576.286819
 20
-35062.289544
 30
0.0
 11
-11565.286819
 21
-35062.289544
 31
0.0
  0
LINE
  5
CF
100
AcDbEntity
  8
LAY-1
  6
CONTINUOUS
 62
     3
100
AcDbLine
 10
-11202.406181
 20
-35082.289544
 30
0.0
 11
-11202.406181
 21
-35083.289544
 31
0.0
  0
LINE
  5
D0
100
AcDbEntity
  8
LAY-1
  6
CONTINUOUS
 62
     3
100
AcDbLine
 10
-11202.406181
 20
-35062.289544
 30
0.0
 11
-11202.406181
 21
-35064.289544
 31
0.0
  0
ARC
  5
D1
100
AcDbEntity
  8
LAY-1
  6
CONTINUOUS
 62
     3
100
AcDbCircle
 10
-11202.406181
 20
-35065.289544
 30
0.0
 40
1.0
100
AcDbArc
 50
90.0
 51
180.0
  0
LINE
  5
D2
100
AcDbEntity
  8
LAY-1
  6
CONTINUOUS
 62
     3
100
AcDbLine
 10
-11203.406181
 20
-35065.289544
 30
0.0
 11
-11203.406181
 21
-35081.289544
 31
0.0
  0
ARC
  5
D3
100
AcDbEntity
  8
LAY-1
  6
CONTINUOUS
 62
     3
100
AcDbCircle
 10
-11202.406181
 20
-35081.289544
 30
0.0
 40
1.0
100
AcDbArc
 50
180.0
 51
270.0
  0
LINE
  5
D4
100
AcDbEntity
  8
LAY-1
  6
CONTINUOUS
 62
     3
100
AcDbLine
 10
-11217.406181
 20
-35062.289544
 30
0.0
 11
-11202.406181
 21
-35062.289544
 31
0.0
  0
LINE
  5
D5
100
AcDbEntity
  8
LAY-1
  6
CONTINUOUS
 62
     3
100
AcDbLine
 10
-11202.406181
 20
-35064.289544
 30
0.0
 11
-11217.406181
 21
-35064.289544
 31
0.0
  0
LINE
  5
D6
100
AcDbEntity
  8
LAY-1
  6
CONTINUOUS
 62
     3
100
AcDbLine
 10
-11202.406181
 20
-35082.289544
 30
0.0
 11
-11217.406181
 21
-35082.289544
 31
0.0
  0
LINE
  5
D7
100
AcDbEntity
  8
LAY-1
  6
CONTINUOUS
 62
     3
100
AcDbLine
 10
-11202.406181
 20
-35083.289544
 30
0.0
 11
-11217.406181
 21
-35083.289544
 31
0.0
  0
LINE
  5
D8
100
AcDbEntity
  8
LAY-1
  6
CONTINUOUS
 62
     3
100
AcDbLine
 10
-11206.406181
 20
-35088.789544
 30
0.0
 11
-11208.906181
 21
-35092.289544
 31
0.0
  0
ARC
  5
D9
100
AcDbEntity
  8
LAY-1
  6
CONTINUOUS
 62
     3
100
AcDbCircle
 10
-11207.406181
 20
-35088.289544
 30
0.0
 40
0.5
100
AcDbArc
 50
180.0
 51
270.0
  0
LINE
  5
DA
100
AcDbEntity
  8
LAY-1
  6
CONTINUOUS
 62
     3
100
AcDbLine
 10
-11207.906181
 20
-35083.289544
 30
0.0
 11
-11207.906181
 21
-35088.289544
 31
0.0
  0
LINE
  5
DB
100
AcDbEntity
  8
LAY-1
  6
CONTINUOUS
 62
     3
100
AcDbLine
 10
-11217.406181
 20
-35092.289544
 30
0.0
 11
-11208.906181
 21
-35092.289544
 31
0.0
  0
LINE
  5
DC
100
AcDbEntity
  8
LAY-1
  6
CONTINUOUS
 62
     3
100
AcDbLine
 10
-11206.406181
 20
-35088.789544
 30
0.0
 11
-11217.406181
 21
-35088.789544
 31
0.0
  0
LINE
  5
DD
100
AcDbEntity
  8
LAY-1
  6
CONTINUOUS
 62
     3
100
AcDbLine
 10
-10848.108397
 20
-35062.289544
 30
0.0
 11
-10868.108397
 21
-35062.289544
 31
0.0
  0
LINE
  5
DE
100
AcDbEntity
  8
LAY-1
  6
CONTINUOUS
 62
     3
100
AcDbLine
 10
-10858.608397
 20
-35097.289544
 30
0.0
 11
-10868.108397
 21
-35097.289544
 31
0.0
  0
LINE
  5
DF
100
AcDbEntity
  8
LAY-1
  6
CONTINUOUS
 62
     3
100
AcDbLine
 10
-10858.608397
 20
-35097.289544
 30
0.0
 11
-10856.108397
 21
-35093.789544
 31
0.0
  0
LINE
  5
E0
100
AcDbEntity
  8
LAY-1
  6
CONTINUOUS
 62
     3
100
AcDbLine
 10
-10848.108397
 20
-35062.289544
 30
0.0
 11
-10848.108397
 21
-35064.289544
 31
0.0
  0
ARC
  5
E1
100
AcDbEntity
  8
LAY-1
  6
CONTINUOUS
 62
     3
100
AcDbCircle
 10
-10857.108397
 20
-35093.289544
 30
0.0
 40
0.5
100
AcDbArc
 50
180.0
 51
270.0
  0
LINE
  5
E2
100
AcDbEntity
  8
LAY-1
  6
CONTINUOUS
 62
     3
100
AcDbLine
 10
-10848.108397
 20
-35086.289544
 30
0.0
 11
-10848.108397
 21
-35087.289544
 31
0.0
  0
ARC
  5
E3
100
AcDbEntity
  8
LAY-1
  6
CONTINUOUS
 62
     3
100
AcDbCircle
 10
-10848.108397
 20
-35065.539544
 30
0.0
 40
1.25
100
AcDbArc
 50
90.0
 51
180.0
  0
LINE
  5
E4
100
AcDbEntity
  8
LAY-1
  6
CONTINUOUS
 62
     3
100
AcDbLine
 10
-10849.358397
 20
-35065.539544
 30
0.0
 11
-10849.358397
 21
-35085.039544
 31
0.0
  0
ARC
  5
E5
100
AcDbEntity
  8
LAY-1
  6
CONTINUOUS
 62
     3
100
AcDbCircle
 10
-10848.108397
 20
-35085.039544
 30
0.0
 40
1.25
100
AcDbArc
 50
180.0
 51
270.0
  0
LINE
  5
E6
100
AcDbEntity
  8
LAY-1
  6
CONTINUOUS
 62
     3
100
AcDbLine
 10
-10868.108397
 20
-35064.289544
 30
0.0
 11
-10848.108397
 21
-35064.289544
 31
0.0
  0
LINE
  5
E7
100
AcDbEntity
  8
LAY-1
  6
CONTINUOUS
 62
     3
100
AcDbLine
 10
-10868.108397
 20
-35087.289544
 30
0.0
 11
-10848.108397
 21
-35087.289544
 31
0.0
  0
LINE
  5
E8
100
AcDbEntity
  8
LAY-1
  6
CONTINUOUS
 62
     3
100
AcDbLine
 10
-10868.108397
 20
-35093.789544
 30
0.0
 11
-10856.108397
 21
-35093.789544
 31
0.0
  0
LINE
  5
E9
100
AcDbEntity
  8
LAY-1
  6
CONTINUOUS
 62
     3
100
AcDbLine
 10
-10857.608397
 20
-35093.289544
 30
0.0
 11
-10857.608397
 21
-35087.289544
 31
0.0
  0
LINE
  5
EA
100
AcDbEntity
  8
LAY-1
  6
CONTINUOUS
 62
     3
100
AcDbLine
 10
-10868.108397
 20
-35086.289544
 30
0.0
 11
-10848.108397
 21
-35086.289544
 31
0.0
  0
LINE
  5
EB
100
AcDbEntity
  8
LAY-1
  6
CONTINUOUS
 62
     3
100
AcDbLine
 10
-10501.377909
 20
-35062.289544
 30
0.0
 11
-10526.377909
 21
-35062.289544
 31
0.0
  0
LINE
  5
EC
100
AcDbEntity
  8
LAY-1
  6
CONTINUOUS
 62
     3
100
AcDbLine
 10
-10516.877909
 20
-35099.289544
 30
0.0
 11
-10526.377909
 21
-35099.289544
 31
0.0
  0
LINE
  5
ED
100
AcDbEntity
  8
LAY-1
  6
CONTINUOUS
 62
     3
100
AcDbLine
 10
-10516.877909
 20
-35099.289544
 30
0.0
 11
-10514.377909
 21
-35093.789544
 31
0.0
  0
ARC
  5
EE
100
AcDbEntity
  8
LAY-1
  6
CONTINUOUS
 62
     3
100
AcDbCircle
 10
-10515.377909
 20
-35093.289544
 30
0.0
 40
0.5
100
AcDbArc
 50
180.0
 51
270.0
  0
LINE
  5
EF
100
AcDbEntity
  8
LAY-1
  6
CONTINUOUS
 62
     3
100
AcDbLine
 10
-10501.377909
 20
-35062.289544
 30
0.0
 11
-10501.377909
 21
-35065.289544
 31
0.0
  0
LINE
  5
F0
100
AcDbEntity
  8
LAY-1
  6
CONTINUOUS
 62
     3
100
AcDbLine
 10
-10501.377909
 20
-35084.289544
 30
0.0
 11
-10501.377909
 21
-35085.289544
 31
0.0
  0
ARC
  5
F1
100
AcDbEntity
  8
LAY-1
  6
CONTINUOUS
 62
     3
100
AcDbCircle
 10
-10501.377909
 20
-35066.539544
 30
0.0
 40
1.25
100
AcDbArc
 50
90.0
 51
180.0
  0
LINE
  5
F2
100
AcDbEntity
  8
LAY-1
  6
CONTINUOUS
 62
     3
100
AcDbLine
 10
-10502.627909
 20
-35066.539544
 30
0.0
 11
-10502.627909
 21
-35083.039544
 31
0.0
  0
ARC
  5
F3
100
AcDbEntity
  8
LAY-1
  6
CONTINUOUS
 62
     3
100
AcDbCircle
 10
-10501.377909
 20
-35083.039544
 30
0.0
 40
1.25
100
AcDbArc
 50
180.0
 51
270.0
  0
LINE
  5
F4
100
AcDbEntity
  8
LAY-1
  6
CONTINUOUS
 62
     3
100
AcDbLine
 10
-10526.377909
 20
-35084.289544
 30
0.0
 11
-10501.377909
 21
-35084.289544
 31
0.0
  0
LINE
  5
F5
100
AcDbEntity
  8
LAY-1
  6
CONTINUOUS
 62
     3
100
AcDbLine
 10
-10526.377909
 20
-35085.289544
 30
0.0
 11
-10501.377909
 21
-35085.289544
 31
0.0
  0
LINE
  5
F6
100
AcDbEntity
  8
LAY-1
  6
CONTINUOUS
 62
     3
100
AcDbLine
 10
-10526.377909
 20
-35065.289544
 30
0.0
 11
-10501.377909
 21
-35065.289544
 31
0.0
  0
LINE
  5
F7
100
AcDbEntity
  8
LAY-1
  6
CONTINUOUS
 62
     3
100
AcDbLine
 10
-10515.877909
 20
-35093.289544
 30
0.0
 11
-10515.877909
 21
-35085.289544
 31
0.0
  0
LINE
  5
F8
100
AcDbEntity
  8
LAY-1
  6
CONTINUOUS
 62
     3
100
AcDbLine
 10
-10526.377909
 20
-35093.789544
 30
0.0
 11
-10514.377909
 21
-35093.789544
 31
0.0
  0
CIRCLE
  5
F9
100
AcDbEntity
  8
LAY-1
  6
CONTINUOUS
 62
     3
100
AcDbCircle
 10
-10526.377909
 20
-34977.980165
 30
0.0
 40
7.0
  0
CIRCLE
  5
FA
100
AcDbEntity
  8
LAY-1
  6
CONTINUOUS
 62
     3
100
AcDbCircle
 10
-10526.377909
 20
-34977.980165
 30
0.0
 40
25.0
  0
CIRCLE
  5
FB
100
AcDbEntity
  8
LAY-1
  6
CONTINUOUS
 62
     3
100
AcDbCircle
 10
-10868.108397
 20
-34977.980165
 30
0.0
 40
7.0
  0
CIRCLE
  5
FC
100
AcDbEntity
  8
LAY-1
  6
CONTINUOUS
 62
     3
100
AcDbCircle
 10
-10868.108397
 20
-34977.980165
 30
0.0
 40
20.0
  0
CIRCLE
  5
FD
100
AcDbEntity
  8
LAY-1
  6
CONTINUOUS
 62
     3
100
AcDbCircle
 10
-11217.406181
 20
-34977.980165
 30
0.0
 40
6.0
  0
CIRCLE
  5
FE
100
AcDbEntity
  8
LAY-1
  6
CONTINUOUS
 62
     3
100
AcDbCircle
 10
-11217.406181
 20
-34977.980165
 30
0.0
 40
15.0
  0
CIRCLE
  5
FF
100
AcDbEntity
  8
LAY-1
  6
CONTINUOUS
 62
     3
100
AcDbCircle
 10
-11576.286819
 20
-34977.980165
 30
0.0
 40
5.5
  0
CIRCLE
  5
100
100
AcDbEntity
  8
LAY-1
  6
CONTINUOUS
 62
     3
100
AcDbCircle
 10
-11576.286819
 20
-34977.980165
 30
0.0
 40
11.0
  0
LINE
  5
101
100
AcDbEntity
  8
LAY-1
  6
CONTINUOUS
 62
     3
100
AcDbLine
 10
-10339.806578
 20
-33890.995557
 30
0.0
 11
-12439.806578
 21
-33890.995557
 31
0.0
  0
LINE
  5
102
100
AcDbEntity
  8
LAY-1
  6
CONTINUOUS
 62
     3
100
AcDbLine
 10
-10339.806578
 20
-34338.93477
 30
0.0
 11
-12439.806578
 21
-34338.93477
 31
0.0
  0
LINE
  5
103
100
AcDbEntity
  8
LAY-1
  6
CONTINUOUS
 62
     3
100
AcDbLine
 10
-12439.806578
 20
-34817.533758
 30
0.0
 11
-10339.806578
 21
-34817.533758
 31
0.0
  0
LINE
  5
104
100
AcDbEntity
  8
LAY-1
  6
CONTINUOUS
 62
     3
100
AcDbLine
 10
-10339.806578
 20
-34882.410263
 30
0.0
 11
-12439.806578
 21
-34882.410263
 31
0.0
  0
LINE
  5
105
100
AcDbEntity
  8
LAY-1
  6
CONTINUOUS
 62
     3
100
AcDbLine
 10
-12439.806578
 20
-34274.058266
 30
0.0
 11
-10339.806578
 21
-34274.058266
 31
0.0
  0
POLYLINE
  5
106
100
AcDbEntity
  8
LAY-1
  6
CONTINUOUS
 62
     3
100
AcDb2dPolyline
 66
     1
 10
0.0
 20
0.0
 30
0.0
 70
   128
  0
VERTEX
  5
107
100
AcDbEntity
  8
LAY-1
  6
CONTINUOUS
 62
     3
100
AcDbVertex
100
AcDb2dVertex
 10
-12439.806578
 20
-33730.582774
 30
0.0
  0
VERTEX
  5
108
100
AcDbEntity
  8
LAY-1
  6
CONTINUOUS
 62
     3
100
AcDbVertex
100
AcDb2dVertex
 10
-10339.806578
 20
-33730.582774
 30
0.0
  0
VERTEX
  5
109
100
AcDbEntity
  8
LAY-1
  6
CONTINUOUS
 62
     3
100
AcDbVertex
100
AcDb2dVertex
 10
-10339.806578
 20
-35189.271504
 30
0.0
  0
VERTEX
  5
10A
100
AcDbEntity
  8
LAY-1
  6
CONTINUOUS
 62
     3
100
AcDbVertex
100
AcDb2dVertex
 10
-12439.806578
 20
-35189.271504
 30
0.0
  0
VERTEX
  5
10B
100
AcDbEntity
  8
LAY-1
  6
CONTINUOUS
 62
     3
100
AcDbVertex
100
AcDb2dVertex
 10
-12439.806578
 20
-33730.582774
 30
0.0
  0
SEQEND
  5
10C
100
AcDbEntity
  8
LAY-1
  6
CONTINUOUS
 62
     3
  0
LINE
  5
10D
100
AcDbEntity
  8
LAY-1
  6
CONTINUOUS
 62
     3
100
AcDbLine
 10
-10339.806578
 20
-33826.119052
 30
0.0
 11
-12439.806578
 21
-33826.119052
 31
0.0
  0
TEXT
  5
10E
100
AcDbEntity
  8
LAY-1
  6
CONTINUOUS
 62
     7
100
AcDbText
 10
-11617.631893
 20
-33868.56243
 30
0.0
 40
25.0
  1
PTH-22SR
 50
359.999631
 41
0.649746
  7
EXCADSTD
 72
     5
 11
-11487.682659
 21
-33868.563267
 31
0.0
100
AcDbText
  0
TEXT
  5
10F
100
AcDbEntity
  8
LAY-1
  6
CONTINUOUS
 62
     7
100
AcDbText
 10
-11269.429032
 20
-33873.547639
 30
0.0
 40
25.0
  1
PTH-30SR
 50
359.999631
 41
0.649746
  7
EXCADSTD
 72
     5
 11
-11139.479798
 21
-33873.548476
 31
0.0
100
AcDbText
  0
TEXT
  5
110
100
AcDbEntity
  8
LAY-1
  6
CONTINUOUS
 62
     7
100
AcDbText
 10
-10920.864887
 20
-33872.693265
 30
0.0
 40
25.0
  1
PTH-40SR
 50
359.999631
 41
0.649746
  7
EXCADSTD
 72
     5
 11
-10790.915653
 21
-33872.694102
 31
0.0
100
AcDbText
  0
TEXT
  5
111
100
AcDbEntity
  8
LAY-1
  6
CONTINUOUS
 62
     7
100
AcDbText
 10
-10573.730357
 20
-33870.809641
 30
0.0
 40
25.0
  1
PTH-50SR
 50
359.999631
 41
0.649746
  7
EXCADSTD
 72
     5
 11
-10443.781123
 21
-33870.810478
 31
0.0
100
AcDbText
  0
TEXT
  5
112
100
AcDbEntity
  8
LAY-1
  6
CONTINUOUS
 62
     7
100
AcDbText
 10
-11617.631893
 20
-34316.917007
 30
0.0
 40
25.0
  1
PTH-22WR
 50
359.999631
 41
0.649746
  7
EXCADSTD
 72
     5
 11
-11487.682659
 21
-34316.917844
 31
0.0
100
AcDbText
  0
TEXT
  5
113
100
AcDbEntity
  8
LAY-1
  6
CONTINUOUS
 62
     7
100
AcDbText
 10
-11269.429032
 20
-34316.917007
 30
0.0
 40
25.0
  1
PTH-30WR
 50
359.999631
 41
0.649746
  7
EXCADSTD
 72
     5
 11
-11139.479798
 21
-34316.917844
 31
0.0
100
AcDbText
  0
TEXT
  5
114
100
AcDbEntity
  8
LAY-1
  6
CONTINUOUS
 62
     7
100
AcDbText
 10
-10920.864887
 20
-34316.917007
 30
0.0
 40
25.0
  1
PTH-40WR
 50
359.999631
 41
0.649746
  7
EXCADSTD
 72
     5
 11
-10790.915653
 21
-34316.917844
 31
0.0
100
AcDbText
  0
TEXT
  5
115
100
AcDbEntity
  8
LAY-1
  6
CONTINUOUS
 62
     7
100
AcDbText
 10
-10573.730357
 20
-34316.917007
 30
0.0
 40
25.0
  1
PTH-50WR
 50
359.999631
 41
0.649746
  7
EXCADSTD
 72
     5
 11
-10443.781123
 21
-34316.917844
 31
0.0
100
AcDbText
  0
TEXT
  5
116
100
AcDbEntity
  8
LAY-1
  6
CONTINUOUS
 62
     7
100
AcDbText
 10
-11618.053036
 20
-34860.392552
 30
0.0
 40
25.0
  1
PTH-22R
 50
359.999631
 41
0.649746
  7
EXCADSTD
 72
     5
 11
-11504.347456
 21
-34860.393284
 31
0.0
100
AcDbText
  0
TEXT
  5
117
100
AcDbEntity
  8
LAY-1
  6
CONTINUOUS
 62
     7
100
AcDbText
 10
-11267.306544
 20
-34860.392552
 30
0.0
 40
25.0
  1
PTH-30R
 50
359.999631
 41
0.649746
  7
EXCADSTD
 72
     5
 11
-11153.600964
 21
-34860.393284
 31
0.0
100
AcDbText
  0
TEXT
  5
118
100
AcDbEntity
  8
LAY-1
  6
CONTINUOUS
 62
     7
100
AcDbText
 10
-10918.165303
 20
-34860.392552
 30
0.0
 40
25.0
  1
PTH-40R
 50
359.999631
 41
0.649746
  7
EXCADSTD
 72
     5
 11
-10804.459723
 21
-34860.393284
 31
0.0
100
AcDbText
  0
TEXT
  5
119
100
AcDbEntity
  8
LAY-1
  6
CONTINUOUS
 62
     7
100
AcDbText
 10
-10575.803944
 20
-34860.392552
 30
0.0
 40
25.0
  1
PTH-50R
 50
359.999631
 41
0.649746
  7
EXCADSTD
 72
     5
 11
-10462.098364
 21
-34860.393284
 31
0.0
100
AcDbText
  0
TEXT
  5
11A
100
AcDbEntity
  8
LAY-1
  6
CONTINUOUS
 62
     7
100
AcDbText
 10
-12317.631893
 20
-33868.56243
 30
0.0
 40
25.0
  1
PTH-05SR
 50
359.999631
 41
0.649746
  7
EXCADSTD
 72
     5
 11
-12187.682659
 21
-33868.563267
 31
0.0
100
AcDbText
  0
TEXT
  5
11B
100
AcDbEntity
  8
LAY-1
  6
CONTINUOUS
 62
     7
100
AcDbText
 10
-12317.631893
 20
-34316.917007
 30
0.0
 40
25.0
  1
PTH-05WR
 50
359.999631
 41
0.649746
  7
EXCADSTD
 72
     5
 11
-12187.682659
 21
-34316.917844
 31
0.0
100
AcDbText
  0
TEXT
  5
11C
100
AcDbEntity
  8
LAY-1
  6
CONTINUOUS
 62
     7
100
AcDbText
 10
-12318.053036
 20
-34860.392552
 30
0.0
 40
25.0
  1
PTH-05R
 50
359.999631
 41
0.649746
  7
EXCADSTD
 72
     5
 11
-12204.347456
 21
-34860.393284
 31
0.0
100
AcDbText
  0
TEXT
  5
11D
100
AcDbEntity
  8
LAY-1
  6
CONTINUOUS
 62
     7
100
AcDbText
 10
-11967.631893
 20
-33868.56243
 30
0.0
 40
25.0
  1
PTH-10SR
 50
359.999631
 41
0.649746
  7
EXCADSTD
 72
     5
 11
-11837.682659
 21
-33868.563267
 31
0.0
100
AcDbText
  0
TEXT
  5
11E
100
AcDbEntity
  8
LAY-1
  6
CONTINUOUS
 62
     7
100
AcDbText
 10
-11967.631893
 20
-34316.917007
 30
0.0
 40
25.0
  1
PTH-10WR
 50
359.999631
 41
0.649746
  7
EXCADSTD
 72
     5
 11
-11837.682659
 21
-34316.917844
 31
0.0
100
AcDbText
  0
TEXT
  5
11F
100
AcDbEntity
  8
LAY-1
  6
CONTINUOUS
 62
     7
100
AcDbText
 10
-11968.053036
 20
-34860.392552
 30
0.0
 40
25.0
  1
PTH-10R
 50
359.999631
 41
0.649746
  7
EXCADSTD
 72
     5
 11
-11854.347456
 21
-34860.393284
 31
0.0
100
AcDbText
  0
CIRCLE
  5
120
100
AcDbEntity
  8
LAY-1
  6
CONTINUOUS
 62
     3
100
AcDbCircle
 10
-11926.286819
 20
-34977.980165
 30
0.0
 40
5.5
  0
CIRCLE
  5
121
100
AcDbEntity
  8
LAY-1
  6
CONTINUOUS
 62
     3
100
AcDbCircle
 10
-11926.286819
 20
-34977.980165
 30
0.0
 40
11.0
  0
CIRCLE
  5
122
100
AcDbEntity
  8
LAY-1
  6
CONTINUOUS
 62
     3
100
AcDbCircle
 10
-12276.286819
 20
-34977.980165
 30
0.0
 40
5.5
  0
CIRCLE
  5
123
100
AcDbEntity
  8
LAY-1
  6
CONTINUOUS
 62
     3
100
AcDbCircle
 10
-12276.286819
 20
-34977.980165
 30
0.0
 40
11.0
  0
TEXT
  5
124
100
AcDbEntity
  8
LAY-1
  6
CONTINUOUS
 62
     7
100
AcDbText
 10
-11749.607275
 20
-33789.487017
 30
0.0
 40
25.0
  1
防振ハンガーPTH-R（表面処理：三価クロメート）
 50
359.999631
 41
1.019842
  7
EXCADSTD
 72
     5
 11
-11018.642834
 21
-33789.491725
 31
0.0
100
AcDbText
  0
LINE
  5
125
100
AcDbEntity
  8
LAY-1
  6
CONTINUOUS
 62
     3
100
AcDbLine
 10
-12328.0
 20
-34037.239701
 30
0.0
 11
-12328.0
 21
-34015.239701
 31
0.0
  0
LINE
  5
126
100
AcDbEntity
  8
LAY-1
  6
CONTINUOUS
 62
     3
100
AcDbLine
 10
-12290.0
 20
-34038.239701
 30
0.0
 11
-12290.0
 21
-34014.239701
 31
0.0
  0
LINE
  5
127
100
AcDbEntity
  8
LAY-1
  6
CONTINUOUS
 62
     3
100
AcDbLine
 10
-12327.0
 20
-34014.239701
 30
0.0
 11
-12290.0
 21
-34014.239701
 31
0.0
  0
LINE
  5
128
100
AcDbEntity
  8
LAY-1
  6
CONTINUOUS
 62
     3
100
AcDbLine
 10
-12327.0
 20
-34038.239701
 30
0.0
 11
-12290.0
 21
-34038.239701
 31
0.0
  0
ARC
  5
129
100
AcDbEntity
  8
LAY-1
  6
CONTINUOUS
 62
     3
100
AcDbCircle
 10
-12327.0
 20
-34015.239701
 30
0.0
 40
1.0
100
AcDbArc
 50
90.0
 51
180.0
  0
ARC
  5
12A
100
AcDbEntity
  8
LAY-1
  6
CONTINUOUS
 62
     3
100
AcDbCircle
 10
-12327.0
 20
-34037.239701
 30
0.0
 40
1.0
100
AcDbArc
 50
180.0
 51
270.0
  0
CIRCLE
  5
12B
100
AcDbEntity
  8
LAY-1
  6
CONTINUOUS
 62
     3
100
AcDbCircle
 10
-12309.0
 20
-34026.239701
 30
0.0
 40
5.5
  0
LINE
  5
12C
100
AcDbEntity
  8
LAY-1
  6
EXLTYPE1
 62
     1
100
AcDbLine
 10
-12309.0
 20
-34043.239701
 30
0.0
 11
-12309.0
 21
-34009.239701
 31
0.0
  0
LINE
  5
12D
100
AcDbEntity
  8
LAY-1
  6
EXLTYPE1
 62
     1
100
AcDbLine
 10
-12333.0
 20
-34026.239701
 30
0.0
 11
-12285.0
 21
-34026.239701
 31
0.0
  0
LINE
  5
12E
100
AcDbEntity
  8
LAY-1
  6
EXLTYPE2
 62
     1
100
AcDbLine
 10
-12292.3
 20
-34038.239701
 30
0.0
 11
-12292.3
 21
-34014.239701
 31
0.0
  0
LINE
  5
12F
100
AcDbEntity
  8
LAY-1
  6
CONTINUOUS
 62
     3
100
AcDbLine
 10
-12328.0
 20
-34102.239701
 30
0.0
 11
-12294.6
 21
-34102.239701
 31
0.0
  0
LINE
  5
130
100
AcDbEntity
  8
LAY-1
  6
CONTINUOUS
 62
     3
100
AcDbLine
 10
-12328.0
 20
-34104.539701
 30
0.0
 11
-12294.6
 21
-34104.539701
 31
0.0
  0
LINE
  5
131
100
AcDbEntity
  8
LAY-1
  6
CONTINUOUS
 62
     3
100
AcDbLine
 10
-12328.0
 20
-34187.239701
 30
0.0
 11
-12294.6
 21
-34187.239701
 31
0.0
  0
LINE
  5
132
100
AcDbEntity
  8
LAY-1
  6
CONTINUOUS
 62
     3
100
AcDbLine
 10
-12328.0
 20
-34184.939701
 30
0.0
 11
-12294.6
 21
-34184.939701
 31
0.0
  0
ARC
  5
133
100
AcDbEntity
  8
LAY-1
  6
CONTINUOUS
 62
     3
100
AcDbCircle
 10
-12294.6
 20
-34106.839701
 30
0.0
 40
4.6
100
AcDbArc
 50
0.0
 51
90.0
  0
ARC
  5
134
100
AcDbEntity
  8
LAY-1
  6
CONTINUOUS
 62
     3
100
AcDbCircle
 10
-12294.6
 20
-34106.839701
 30
0.0
 40
2.3
100
AcDbArc
 50
0.0
 51
90.0
  0
ARC
  5
135
100
AcDbEntity
  8
LAY-1
  6
CONTINUOUS
 62
     3
100
AcDbCircle
 10
-12294.6
 20
-34182.639701
 30
0.0
 40
4.6
100
AcDbArc
 50
270.0
 51
0.0
  0
ARC
  5
136
100
AcDbEntity
  8
LAY-1
  6
CONTINUOUS
 62
     3
100
AcDbCircle
 10
-12294.6
 20
-34182.639701
 30
0.0
 40
2.3
100
AcDbArc
 50
270.0
 51
0.0
  0
LINE
  5
137
100
AcDbEntity
  8
LAY-1
  6
CONTINUOUS
 62
     3
100
AcDbLine
 10
-12290.0
 20
-34106.839701
 30
0.0
 11
-12290.0
 21
-34182.639701
 31
0.0
  0
LINE
  5
138
100
AcDbEntity
  8
LAY-1
  6
CONTINUOUS
 62
     3
100
AcDbLine
 10
-12292.3
 20
-34106.839701
 30
0.0
 11
-12292.3
 21
-34182.639701
 31
0.0
  0
LINE
  5
139
100
AcDbEntity
  8
LAY-1
  6
CONTINUOUS
 62
     3
100
AcDbLine
 10
-12328.0
 20
-34187.239701
 30
0.0
 11
-12328.0
 21
-34184.939701
 31
0.0
  0
LINE
  5
13A
100
AcDbEntity
  8
LAY-1
  6
CONTINUOUS
 62
     3
100
AcDbLine
 10
-12328.0
 20
-34102.239701
 30
0.0
 11
-12328.0
 21
-34104.539701
 31
0.0
  0
LINE
  5
13B
100
AcDbEntity
  8
LAY-1
  6
EXLTYPE1
 62
     1
100
AcDbLine
 10
-12309.0
 20
-34097.239701
 30
0.0
 11
-12309.0
 21
-34109.539701
 31
0.0
  0
LINE
  5
13C
100
AcDbEntity
  8
LAY-1
  6
EXLTYPE2
 62
     1
100
AcDbLine
 10
-12314.5
 20
-34102.239701
 30
0.0
 11
-12314.5
 21
-34104.539701
 31
0.0
  0
LINE
  5
13D
100
AcDbEntity
  8
LAY-1
  6
EXLTYPE2
 62
     1
100
AcDbLine
 10
-12303.5
 20
-34102.239701
 30
0.0
 11
-12303.5
 21
-34104.539701
 31
0.0
  0
LINE
  5
13E
100
AcDbEntity
  8
LAY-1
  6
EXLTYPE2
 62
     1
100
AcDbLine
 10
-12316.75
 20
-34187.239701
 30
0.0
 11
-12316.75
 21
-34184.939701
 31
0.0
  0
LINE
  5
13F
100
AcDbEntity
  8
LAY-1
  6
EXLTYPE2
 62
     1
100
AcDbLine
 10
-12301.25
 20
-34187.239701
 30
0.0
 11
-12301.25
 21
-34184.939701
 31
0.0
  0
LINE
  5
140
100
AcDbEntity
  8
LAY-1
  6
CONTINUOUS
 62
     3
100
AcDbLine
 10
-12216.995665
 20
-34102.239701
 30
0.0
 11
-12216.995665
 21
-34187.239701
 31
0.0
  0
LINE
  5
141
100
AcDbEntity
  8
LAY-1
  6
CONTINUOUS
 62
     3
100
AcDbLine
 10
-12240.995665
 20
-34102.239701
 30
0.0
 11
-12240.995665
 21
-34187.239701
 31
0.0
  0
LINE
  5
142
100
AcDbEntity
  8
LAY-1
  6
CONTINUOUS
 62
     3
100
AcDbLine
 10
-12216.995665
 20
-34102.239701
 30
0.0
 11
-12240.995665
 21
-34102.239701
 31
0.0
  0
LINE
  5
143
100
AcDbEntity
  8
LAY-1
  6
CONTINUOUS
 62
     3
100
AcDbLine
 10
-12216.995665
 20
-34187.239701
 30
0.0
 11
-12240.995665
 21
-34187.239701
 31
0.0
  0
LINE
  5
144
100
AcDbEntity
  8
LAY-1
  6
EXLTYPE1
 62
     1
100
AcDbLine
 10
-12228.995665
 20
-34097.239701
 30
0.0
 11
-12228.995665
 21
-34109.539701
 31
0.0
  0
LINE
  5
145
100
AcDbEntity
  8
LAY-1
  6
EXLTYPE2
 62
     1
100
AcDbLine
 10
-12234.995665
 20
-34102.239701
 30
0.0
 11
-12234.995665
 21
-34104.539701
 31
0.0
  0
LINE
  5
146
100
AcDbEntity
  8
LAY-1
  6
EXLTYPE2
 62
     1
100
AcDbLine
 10
-12216.995665
 20
-34104.539701
 30
0.0
 11
-12240.995665
 21
-34104.539701
 31
0.0
  0
LINE
  5
147
100
AcDbEntity
  8
LAY-1
  6
EXLTYPE2
 62
     1
100
AcDbLine
 10
-12216.995665
 20
-34184.939701
 30
0.0
 11
-12240.995665
 21
-34184.939701
 31
0.0
  0
LINE
  5
148
100
AcDbEntity
  8
LAY-1
  6
EXLTYPE2
 62
     1
100
AcDbLine
 10
-12236.745665
 20
-34187.239701
 30
0.0
 11
-12236.745665
 21
-34184.939701
 31
0.0
  0
LINE
  5
149
100
AcDbEntity
  8
LAY-1
  6
EXLTYPE2
 62
     1
100
AcDbLine
 10
-12221.245665
 20
-34187.239701
 30
0.0
 11
-12221.245665
 21
-34184.939701
 31
0.0
  0
LINE
  5
14A
100
AcDbEntity
  8
LAY-1
  6
EXLTYPE1
 62
     1
100
AcDbLine
 10
-11926.286819
 20
-35055.189544
 30
0.0
 11
-11926.286819
 21
-35101.289544
 31
0.0
  0
ARC
  5
14B
100
AcDbEntity
  8
LAY-1
  6
CONTINUOUS
 62
     3
100
AcDbCircle
 10
-11934.286819
 20
-35091.289544
 30
0.0
 40
0.5
100
AcDbArc
 50
270.0
 51
0.0
  0
LINE
  5
14C
100
AcDbEntity
  8
LAY-1
  6
CONTINUOUS
 62
     3
100
AcDbLine
 10
-11933.786819
 20
-35087.289544
 30
0.0
 11
-11933.786819
 21
-35091.289544
 31
0.0
  0
ARC
  5
14D
100
AcDbEntity
  8
LAY-1
  6
CONTINUOUS
 62
     3
100
AcDbCircle
 10
-11937.286819
 20
-35085.289544
 30
0.0
 40
1.0
100
AcDbArc
 50
270.0
 51
0.0
  0
LINE
  5
14E
100
AcDbEntity
  8
LAY-1
  6
CONTINUOUS
 62
     3
100
AcDbLine
 10
-11936.286819
 20
-35064.289544
 30
0.0
 11
-11936.286819
 21
-35085.289544
 31
0.0
  0
ARC
  5
14F
100
AcDbEntity
  8
LAY-1
  6
CONTINUOUS
 62
     3
100
AcDbCircle
 10
-11937.286819
 20
-35064.289544
 30
0.0
 40
1.0
100
AcDbArc
 50
0.0
 51
90.0
  0
LINE
  5
150
100
AcDbEntity
  8
LAY-1
  6
CONTINUOUS
 62
     3
100
AcDbLine
 10
-11937.286819
 20
-35062.289544
 30
0.0
 11
-11937.286819
 21
-35063.289544
 31
0.0
  0
LINE
  5
151
100
AcDbEntity
  8
LAY-1
  6
CONTINUOUS
 62
     3
100
AcDbLine
 10
-11937.286819
 20
-35086.289544
 30
0.0
 11
-11937.286819
 21
-35087.289544
 31
0.0
  0
LINE
  5
152
100
AcDbEntity
  8
LAY-1
  6
CONTINUOUS
 62
     3
100
AcDbLine
 10
-11935.286819
 20
-35091.789544
 30
0.0
 11
-11932.786819
 21
-35094.289544
 31
0.0
  0
ARC
  5
153
100
AcDbEntity
  8
LAY-1
  6
CONTINUOUS
 62
     3
100
AcDbCircle
 10
-11918.286819
 20
-35091.289544
 30
0.0
 40
0.5
100
AcDbArc
 50
180.0
 51
270.0
  0
LINE
  5
154
100
AcDbEntity
  8
LAY-1
  6
CONTINUOUS
 62
     3
100
AcDbLine
 10
-11918.786819
 20
-35087.289544
 30
0.0
 11
-11918.786819
 21
-35091.289544
 31
0.0
  0
ARC
  5
155
100
AcDbEntity
  8
LAY-1
  6
CONTINUOUS
 62
     3
100
AcDbCircle
 10
-11915.286819
 20
-35085.289544
 30
0.0
 40
1.0
100
AcDbArc
 50
180.0
 51
270.0
  0
LINE
  5
156
100
AcDbEntity
  8
LAY-1
  6
CONTINUOUS
 62
     3
100
AcDbLine
 10
-11916.286819
 20
-35064.289544
 30
0.0
 11
-11916.286819
 21
-35085.289544
 31
0.0
  0
ARC
  5
157
100
AcDbEntity
  8
LAY-1
  6
CONTINUOUS
 62
     3
100
AcDbCircle
 10
-11915.286819
 20
-35064.289544
 30
0.0
 40
1.0
100
AcDbArc
 50
90.0
 51
180.0
  0
LINE
  5
158
100
AcDbEntity
  8
LAY-1
  6
CONTINUOUS
 62
     3
100
AcDbLine
 10
-11915.286819
 20
-35062.289544
 30
0.0
 11
-11915.286819
 21
-35063.289544
 31
0.0
  0
LINE
  5
159
100
AcDbEntity
  8
LAY-1
  6
CONTINUOUS
 62
     3
100
AcDbLine
 10
-11915.286819
 20
-35086.289544
 30
0.0
 11
-11915.286819
 21
-35087.289544
 31
0.0
  0
LINE
  5
15A
100
AcDbEntity
  8
LAY-1
  6
CONTINUOUS
 62
     3
100
AcDbLine
 10
-11917.286819
 20
-35091.789544
 30
0.0
 11
-11919.786819
 21
-35094.289544
 31
0.0
  0
LINE
  5
15B
100
AcDbEntity
  8
LAY-1
  6
CONTINUOUS
 62
     3
100
AcDbLine
 10
-11915.286819
 20
-35062.289544
 30
0.0
 11
-11937.286819
 21
-35062.289544
 31
0.0
  0
LINE
  5
15C
100
AcDbEntity
  8
LAY-1
  6
CONTINUOUS
 62
     3
100
AcDbLine
 10
-11937.286819
 20
-35063.289544
 30
0.0
 11
-11915.286819
 21
-35063.289544
 31
0.0
  0
LINE
  5
15D
100
AcDbEntity
  8
LAY-1
  6
CONTINUOUS
 62
     3
100
AcDbLine
 10
-11937.286819
 20
-35086.289544
 30
0.0
 11
-11915.286819
 21
-35086.289544
 31
0.0
  0
LINE
  5
15E
100
AcDbEntity
  8
LAY-1
  6
CONTINUOUS
 62
     3
100
AcDbLine
 10
-11937.286819
 20
-35087.289544
 30
0.0
 11
-11915.286819
 21
-35087.289544
 31
0.0
  0
LINE
  5
15F
100
AcDbEntity
  8
LAY-1
  6
CONTINUOUS
 62
     3
100
AcDbLine
 10
-11935.286819
 20
-35091.789544
 30
0.0
 11
-11917.286819
 21
-35091.789544
 31
0.0
  0
LINE
  5
160
100
AcDbEntity
  8
LAY-1
  6
CONTINUOUS
 62
     3
100
AcDbLine
 10
-11932.786819
 20
-35094.289544
 30
0.0
 11
-11919.786819
 21
-35094.289544
 31
0.0
  0
LINE
  5
161
100
AcDbEntity
  8
LAY-1
  6
EXLTYPE1
 62
     1
100
AcDbLine
 10
-12276.286819
 20
-35055.189544
 30
0.0
 11
-12276.286819
 21
-35099.289544
 31
0.0
  0
LINE
  5
162
100
AcDbEntity
  8
LAY-1
  6
CONTINUOUS
 62
     3
100
AcDbLine
 10
-12285.036819
 20
-35085.289544
 30
0.0
 11
-12285.036819
 21
-35065.539544
 31
0.0
  0
ARC
  5
163
100
AcDbEntity
  8
LAY-1
  6
CONTINUOUS
 62
     3
100
AcDbCircle
 10
-12284.286819
 20
-35089.289544
 30
0.0
 40
0.5
100
AcDbArc
 50
270.0
 51
0.0
  0
LINE
  5
164
100
AcDbEntity
  8
LAY-1
  6
CONTINUOUS
 62
     3
100
AcDbLine
 10
-12283.786819
 20
-35085.289544
 30
0.0
 11
-12283.786819
 21
-35089.289544
 31
0.0
  0
LINE
  5
165
100
AcDbEntity
  8
LAY-1
  6
CONTINUOUS
 62
     3
100
AcDbLine
 10
-12285.286819
 20
-35089.789544
 30
0.0
 11
-12282.786819
 21
-35092.289544
 31
0.0
  0
ARC
  5
166
100
AcDbEntity
  8
LAY-1
  6
CONTINUOUS
 62
     3
100
AcDbCircle
 10
-12287.286819
 20
-35065.539544
 30
0.0
 40
2.25
100
AcDbArc
 50
0.0
 51
90.0
  0
LINE
  5
167
100
AcDbEntity
  8
LAY-1
  6
CONTINUOUS
 62
     3
100
AcDbLine
 10
-12287.286819
 20
-35062.289544
 30
0.0
 11
-12287.286819
 21
-35063.289544
 31
0.0
  0
LINE
  5
168
100
AcDbEntity
  8
LAY-1
  6
CONTINUOUS
 62
     3
100
AcDbLine
 10
-12267.536819
 20
-35085.289544
 30
0.0
 11
-12267.536819
 21
-35065.539544
 31
0.0
  0
ARC
  5
169
100
AcDbEntity
  8
LAY-1
  6
CONTINUOUS
 62
     3
100
AcDbCircle
 10
-12268.286819
 20
-35089.289544
 30
0.0
 40
0.5
100
AcDbArc
 50
180.0
 51
270.0
  0
LINE
  5
16A
100
AcDbEntity
  8
LAY-1
  6
CONTINUOUS
 62
     3
100
AcDbLine
 10
-12268.786819
 20
-35085.289544
 30
0.0
 11
-12268.786819
 21
-35089.289544
 31
0.0
  0
LINE
  5
16B
100
AcDbEntity
  8
LAY-1
  6
CONTINUOUS
 62
     3
100
AcDbLine
 10
-12267.286819
 20
-35089.789544
 30
0.0
 11
-12269.786819
 21
-35092.289544
 31
0.0
  0
ARC
  5
16C
100
AcDbEntity
  8
LAY-1
  6
CONTINUOUS
 62
     3
100
AcDbCircle
 10
-12265.286819
 20
-35065.539544
 30
0.0
 40
2.25
100
AcDbArc
 50
90.0
 51
180.0
  0
LINE
  5
16D
100
AcDbEntity
  8
LAY-1
  6
CONTINUOUS
 62
     3
100
AcDbLine
 10
-12265.286819
 20
-35062.289544
 30
0.0
 11
-12265.286819
 21
-35063.289544
 31
0.0
  0
LINE
  5
16E
100
AcDbEntity
  8
LAY-1
  6
CONTINUOUS
 62
     3
100
AcDbLine
 10
-12269.786819
 20
-35092.289544
 30
0.0
 11
-12282.786819
 21
-35092.289544
 31
0.0
  0
LINE
  5
16F
100
AcDbEntity
  8
LAY-1
  6
CONTINUOUS
 62
     3
100
AcDbLine
 10
-12265.286819
 20
-35062.289544
 30
0.0
 11
-12287.286819
 21
-35062.289544
 31
0.0
  0
LINE
  5
170
100
AcDbEntity
  8
LAY-1
  6
CONTINUOUS
 62
     3
100
AcDbLine
 10
-12287.286819
 20
-35063.289544
 30
0.0
 11
-12265.286819
 21
-35063.289544
 31
0.0
  0
LINE
  5
171
100
AcDbEntity
  8
LAY-1
  6
CONTINUOUS
 62
     3
100
AcDbLine
 10
-12285.036819
 20
-35085.289544
 30
0.0
 11
-12267.536819
 21
-35085.289544
 31
0.0
  0
LINE
  5
172
100
AcDbEntity
  8
LAY-1
  6
CONTINUOUS
 62
     3
100
AcDbLine
 10
-12285.286819
 20
-35089.789544
 30
0.0
 11
-12267.286819
 21
-35089.789544
 31
0.0
  0
LINE
  5
173
100
AcDbEntity
  8
LAY-1
  6
EXLTYPE1
 62
     1
100
AcDbLine
 10
-12309.0
 20
-34154.839701
 30
0.0
 11
-12309.0
 21
-34198.939701
 31
0.0
  0
LINE
  5
174
100
AcDbEntity
  8
LAY-1
  6
CONTINUOUS
 62
     3
100
AcDbLine
 10
-12317.75
 20
-34184.939701
 30
0.0
 11
-12317.75
 21
-34165.189701
 31
0.0
  0
ARC
  5
175
100
AcDbEntity
  8
LAY-1
  6
CONTINUOUS
 62
     3
100
AcDbCircle
 10
-12317.0
 20
-34188.939701
 30
0.0
 40
0.5
100
AcDbArc
 50
270.0
 51
0.0
  0
LINE
  5
176
100
AcDbEntity
  8
LAY-1
  6
CONTINUOUS
 62
     3
100
AcDbLine
 10
-12318.0
 20
-34189.439701
 30
0.0
 11
-12315.5
 21
-34191.939701
 31
0.0
  0
ARC
  5
177
100
AcDbEntity
  8
LAY-1
  6
CONTINUOUS
 62
     3
100
AcDbCircle
 10
-12320.0
 20
-34165.189701
 30
0.0
 40
2.25
100
AcDbArc
 50
0.0
 51
90.0
  0
LINE
  5
178
100
AcDbEntity
  8
LAY-1
  6
CONTINUOUS
 62
     3
100
AcDbLine
 10
-12320.0
 20
-34161.939701
 30
0.0
 11
-12320.0
 21
-34162.939701
 31
0.0
  0
LINE
  5
179
100
AcDbEntity
  8
LAY-1
  6
CONTINUOUS
 62
     3
100
AcDbLine
 10
-12300.25
 20
-34184.939701
 30
0.0
 11
-12300.25
 21
-34165.189701
 31
0.0
  0
ARC
  5
17A
100
AcDbEntity
  8
LAY-1
  6
CONTINUOUS
 62
     3
100
AcDbCircle
 10
-12301.0
 20
-34188.939701
 30
0.0
 40
0.5
100
AcDbArc
 50
180.0
 51
270.0
  0
LINE
  5
17B
100
AcDbEntity
  8
LAY-1
  6
CONTINUOUS
 62
     3
100
AcDbLine
 10
-12300.0
 20
-34189.439701
 30
0.0
 11
-12302.5
 21
-34191.939701
 31
0.0
  0
ARC
  5
17C
100
AcDbEntity
  8
LAY-1
  6
CONTINUOUS
 62
     3
100
AcDbCircle
 10
-12298.0
 20
-34165.189701
 30
0.0
 40
2.25
100
AcDbArc
 50
90.0
 51
180.0
  0
LINE
  5
17D
100
AcDbEntity
  8
LAY-1
  6
CONTINUOUS
 62
     3
100
AcDbLine
 10
-12298.0
 20
-34161.939701
 30
0.0
 11
-12298.0
 21
-34162.939701
 31
0.0
  0
LINE
  5
17E
100
AcDbEntity
  8
LAY-1
  6
CONTINUOUS
 62
     3
100
AcDbLine
 10
-12302.5
 20
-34191.939701
 30
0.0
 11
-12315.5
 21
-34191.939701
 31
0.0
  0
LINE
  5
17F
100
AcDbEntity
  8
LAY-1
  6
CONTINUOUS
 62
     3
100
AcDbLine
 10
-12298.0
 20
-34161.939701
 30
0.0
 11
-12320.0
 21
-34161.939701
 31
0.0
  0
LINE
  5
180
100
AcDbEntity
  8
LAY-1
  6
CONTINUOUS
 62
     3
100
AcDbLine
 10
-12320.0
 20
-34162.939701
 30
0.0
 11
-12298.0
 21
-34162.939701
 31
0.0
  0
LINE
  5
181
100
AcDbEntity
  8
LAY-1
  6
CONTINUOUS
 62
     3
100
AcDbLine
 10
-12317.75
 20
-34184.939701
 30
0.0
 11
-12300.25
 21
-34184.939701
 31
0.0
  0
LINE
  5
182
100
AcDbEntity
  8
LAY-1
  6
CONTINUOUS
 62
     3
100
AcDbLine
 10
-12318.0
 20
-34189.439701
 30
0.0
 11
-12300.0
 21
-34189.439701
 31
0.0
  0
LINE
  5
183
100
AcDbEntity
  8
LAY-1
  6
CONTINUOUS
 62
     3
100
AcDbLine
 10
-12316.5
 20
-34187.239701
 30
0.0
 11
-12316.5
 21
-34188.939701
 31
0.0
  0
LINE
  5
184
100
AcDbEntity
  8
LAY-1
  6
CONTINUOUS
 62
     3
100
AcDbLine
 10
-12301.5
 20
-34187.239701
 30
0.0
 11
-12301.5
 21
-34188.939701
 31
0.0
  0
ARC
  5
185
100
AcDbEntity
  8
LAY-1
  6
CONTINUOUS
 62
     3
100
AcDbCircle
 10
-12236.995665
 20
-34188.939701
 30
0.0
 40
0.5
100
AcDbArc
 50
270.0
 51
0.0
  0
LINE
  5
186
100
AcDbEntity
  8
LAY-1
  6
CONTINUOUS
 62
     3
100
AcDbLine
 10
-12237.995665
 20
-34189.439701
 30
0.0
 11
-12235.495665
 21
-34191.939701
 31
0.0
  0
ARC
  5
187
100
AcDbEntity
  8
LAY-1
  6
CONTINUOUS
 62
     3
100
AcDbCircle
 10
-12220.995665
 20
-34188.939701
 30
0.0
 40
0.5
100
AcDbArc
 50
180.0
 51
270.0
  0
LINE
  5
188
100
AcDbEntity
  8
LAY-1
  6
CONTINUOUS
 62
     3
100
AcDbLine
 10
-12219.995665
 20
-34189.439701
 30
0.0
 11
-12222.495665
 21
-34191.939701
 31
0.0
  0
LINE
  5
189
100
AcDbEntity
  8
LAY-1
  6
CONTINUOUS
 62
     3
100
AcDbLine
 10
-12222.495665
 20
-34191.939701
 30
0.0
 11
-12235.495665
 21
-34191.939701
 31
0.0
  0
LINE
  5
18A
100
AcDbEntity
  8
LAY-1
  6
CONTINUOUS
 62
     3
100
AcDbLine
 10
-12237.995665
 20
-34189.439701
 30
0.0
 11
-12219.995665
 21
-34189.439701
 31
0.0
  0
LINE
  5
18B
100
AcDbEntity
  8
LAY-1
  6
CONTINUOUS
 62
     3
100
AcDbLine
 10
-12236.495665
 20
-34187.239701
 30
0.0
 11
-12236.495665
 21
-34188.939701
 31
0.0
  0
LINE
  5
18C
100
AcDbEntity
  8
LAY-1
  6
CONTINUOUS
 62
     3
100
AcDbLine
 10
-12221.495665
 20
-34187.239701
 30
0.0
 11
-12221.495665
 21
-34188.939701
 31
0.0
  0
LINE
  5
18D
100
AcDbEntity
  8
LAY-1
  6
EXLTYPE1
 62
     1
100
AcDbLine
 10
-12228.995665
 20
-34198.939701
 30
0.0
 11
-12228.995665
 21
-34179.939701
 31
0.0
  0
LINE
  5
18E
100
AcDbEntity
  8
LAY-1
  6
CONTINUOUS
 62
     3
100
AcDbLine
 10
-11978.0
 20
-34037.239701
 30
0.0
 11
-11978.0
 21
-34015.239701
 31
0.0
  0
LINE
  5
18F
100
AcDbEntity
  8
LAY-1
  6
CONTINUOUS
 62
     3
100
AcDbLine
 10
-11940.0
 20
-34038.239701
 30
0.0
 11
-11940.0
 21
-34014.239701
 31
0.0
  0
LINE
  5
190
100
AcDbEntity
  8
LAY-1
  6
CONTINUOUS
 62
     3
100
AcDbLine
 10
-11977.0
 20
-34014.239701
 30
0.0
 11
-11940.0
 21
-34014.239701
 31
0.0
  0
LINE
  5
191
100
AcDbEntity
  8
LAY-1
  6
CONTINUOUS
 62
     3
100
AcDbLine
 10
-11977.0
 20
-34038.239701
 30
0.0
 11
-11940.0
 21
-34038.239701
 31
0.0
  0
ARC
  5
192
100
AcDbEntity
  8
LAY-1
  6
CONTINUOUS
 62
     3
100
AcDbCircle
 10
-11977.0
 20
-34015.239701
 30
0.0
 40
1.0
100
AcDbArc
 50
90.0
 51
180.0
  0
ARC
  5
193
100
AcDbEntity
  8
LAY-1
  6
CONTINUOUS
 62
     3
100
AcDbCircle
 10
-11977.0
 20
-34037.239701
 30
0.0
 40
1.0
100
AcDbArc
 50
180.0
 51
270.0
  0
CIRCLE
  5
194
100
AcDbEntity
  8
LAY-1
  6
CONTINUOUS
 62
     3
100
AcDbCircle
 10
-11959.0
 20
-34026.239701
 30
0.0
 40
5.5
  0
LINE
  5
195
100
AcDbEntity
  8
LAY-1
  6
EXLTYPE1
 62
     1
100
AcDbLine
 10
-11959.0
 20
-34043.239701
 30
0.0
 11
-11959.0
 21
-34009.239701
 31
0.0
  0
LINE
  5
196
100
AcDbEntity
  8
LAY-1
  6
EXLTYPE1
 62
     1
100
AcDbLine
 10
-11983.0
 20
-34026.239701
 30
0.0
 11
-11935.0
 21
-34026.239701
 31
0.0
  0
LINE
  5
197
100
AcDbEntity
  8
LAY-1
  6
CONTINUOUS
 62
     3
100
AcDbLine
 10
-11866.995665
 20
-34102.239701
 30
0.0
 11
-11890.995665
 21
-34102.239701
 31
0.0
  0
LINE
  5
198
100
AcDbEntity
  8
LAY-1
  6
CONTINUOUS
 62
     3
100
AcDbLine
 10
-11866.995665
 20
-34187.239701
 30
0.0
 11
-11890.995665
 21
-34187.239701
 31
0.0
  0
LINE
  5
199
100
AcDbEntity
  8
LAY-1
  6
CONTINUOUS
 62
     3
100
AcDbLine
 10
-11628.0
 20
-34037.239701
 30
0.0
 11
-11628.0
 21
-34015.239701
 31
0.0
  0
LINE
  5
19A
100
AcDbEntity
  8
LAY-1
  6
CONTINUOUS
 62
     3
100
AcDbLine
 10
-11590.0
 20
-34038.239701
 30
0.0
 11
-11590.0
 21
-34014.239701
 31
0.0
  0
LINE
  5
19B
100
AcDbEntity
  8
LAY-1
  6
CONTINUOUS
 62
     3
100
AcDbLine
 10
-11627.0
 20
-34014.239701
 30
0.0
 11
-11590.0
 21
-34014.239701
 31
0.0
  0
LINE
  5
19C
100
AcDbEntity
  8
LAY-1
  6
CONTINUOUS
 62
     3
100
AcDbLine
 10
-11627.0
 20
-34038.239701
 30
0.0
 11
-11590.0
 21
-34038.239701
 31
0.0
  0
ARC
  5
19D
100
AcDbEntity
  8
LAY-1
  6
CONTINUOUS
 62
     3
100
AcDbCircle
 10
-11627.0
 20
-34015.239701
 30
0.0
 40
1.0
100
AcDbArc
 50
90.0
 51
180.0
  0
ARC
  5
19E
100
AcDbEntity
  8
LAY-1
  6
CONTINUOUS
 62
     3
100
AcDbCircle
 10
-11627.0
 20
-34037.239701
 30
0.0
 40
1.0
100
AcDbArc
 50
180.0
 51
270.0
  0
CIRCLE
  5
19F
100
AcDbEntity
  8
LAY-1
  6
CONTINUOUS
 62
     3
100
AcDbCircle
 10
-11609.0
 20
-34026.239701
 30
0.0
 40
5.5
  0
LINE
  5
1A0
100
AcDbEntity
  8
LAY-1
  6
EXLTYPE1
 62
     1
100
AcDbLine
 10
-11609.0
 20
-34043.239701
 30
0.0
 11
-11609.0
 21
-34009.239701
 31
0.0
  0
LINE
  5
1A1
100
AcDbEntity
  8
LAY-1
  6
EXLTYPE1
 62
     1
100
AcDbLine
 10
-11633.0
 20
-34026.239701
 30
0.0
 11
-11585.0
 21
-34026.239701
 31
0.0
  0
LINE
  5
1A2
100
AcDbEntity
  8
LAY-1
  6
CONTINUOUS
 62
     3
100
AcDbLine
 10
-11516.995665
 20
-34102.239701
 30
0.0
 11
-11540.995665
 21
-34102.239701
 31
0.0
  0
LINE
  5
1A3
100
AcDbEntity
  8
LAY-1
  6
CONTINUOUS
 62
     3
100
AcDbLine
 10
-11516.995665
 20
-34187.239701
 30
0.0
 11
-11540.995665
 21
-34187.239701
 31
0.0
  0
CIRCLE
  5
1A4
100
AcDbEntity
  8
LAY-1
  6
CONTINUOUS
 62
     3
100
AcDbCircle
 10
-11260.0
 20
-34026.239701
 30
0.0
 40
5.5
  0
LINE
  5
1A5
100
AcDbEntity
  8
LAY-1
  6
EXLTYPE1
 62
     1
100
AcDbLine
 10
-11260.0
 20
-34046.239701
 30
0.0
 11
-11260.0
 21
-34006.239701
 31
0.0
  0
LINE
  5
1A6
100
AcDbEntity
  8
LAY-1
  6
CONTINUOUS
 62
     3
100
AcDbLine
 10
-11158.995665
 20
-34102.239701
 30
0.0
 11
-11188.995665
 21
-34102.239701
 31
0.0
  0
LINE
  5
1A7
100
AcDbEntity
  8
LAY-1
  6
CONTINUOUS
 62
     3
100
AcDbLine
 10
-11158.995665
 20
-34187.239701
 30
0.0
 11
-11188.995665
 21
-34187.239701
 31
0.0
  0
LINE
  5
1A8
100
AcDbEntity
  8
LAY-1
  6
EXLTYPE1
 62
     1
100
AcDbLine
 10
-11576.286819
 20
-35055.189544
 30
0.0
 11
-11576.286819
 21
-35101.289544
 31
0.0
  0
LINE
  5
1A9
100
AcDbEntity
  8
LAY-1
  6
EXLTYPE1
 62
     1
100
AcDbLine
 10
-10868.108397
 20
-35055.189544
 30
0.0
 11
-10868.108397
 21
-35105.289544
 31
0.0
  0
LINE
  5
1AA
100
AcDbEntity
  8
LAY-1
  6
EXLTYPE1
 62
     1
100
AcDbLine
 10
-10526.377909
 20
-35055.189544
 30
0.0
 11
-10526.377909
 21
-35105.289544
 31
0.0
  0
LINE
  5
1AB
100
AcDbEntity
  8
LAY-1
  6
EXLTYPE1
 62
     1
100
AcDbLine
 10
-11217.406181
 20
-35055.189544
 30
0.0
 11
-11217.406181
 21
-35101.289544
 31
0.0
  0
LINE
  5
1AC
100
AcDbEntity
  8
LAY-1
  6
EXLTYPE1
 62
     1
100
AcDbLine
 10
-10526.377909
 20
-34942.580165
 30
0.0
 11
-10526.377909
 21
-35013.380165
 31
0.0
  0
LINE
  5
1AD
100
AcDbEntity
  8
LAY-1
  6
EXLTYPE1
 62
     1
100
AcDbLine
 10
-10490.977909
 20
-34977.980165
 30
0.0
 11
-10561.777909
 21
-34977.980165
 31
0.0
  0
LINE
  5
1AE
100
AcDbEntity
  8
LAY-1
  6
EXLTYPE1
 62
     1
100
AcDbLine
 10
-10868.108397
 20
-34942.580165
 30
0.0
 11
-10868.108397
 21
-35013.380165
 31
0.0
  0
LINE
  5
1AF
100
AcDbEntity
  8
LAY-1
  6
EXLTYPE1
 62
     1
100
AcDbLine
 10
-10832.708397
 20
-34977.980165
 30
0.0
 11
-10903.508397
 21
-34977.980165
 31
0.0
  0
LINE
  5
1B0
100
AcDbEntity
  8
LAY-1
  6
EXLTYPE1
 62
     1
100
AcDbLine
 10
-11217.406181
 20
-34948.480165
 30
0.0
 11
-11217.406181
 21
-35007.480165
 31
0.0
  0
LINE
  5
1B1
100
AcDbEntity
  8
LAY-1
  6
EXLTYPE1
 62
     1
100
AcDbLine
 10
-11187.906181
 20
-34977.980165
 30
0.0
 11
-11246.906181
 21
-34977.980165
 31
0.0
  0
LINE
  5
1B2
100
AcDbEntity
  8
LAY-1
  6
EXLTYPE1
 62
     1
100
AcDbLine
 10
-11576.286819
 20
-34948.480165
 30
0.0
 11
-11576.286819
 21
-35007.480165
 31
0.0
  0
LINE
  5
1B3
100
AcDbEntity
  8
LAY-1
  6
EXLTYPE1
 62
     1
100
AcDbLine
 10
-11546.786819
 20
-34977.980165
 30
0.0
 11
-11605.786819
 21
-34977.980165
 31
0.0
  0
LINE
  5
1B4
100
AcDbEntity
  8
LAY-1
  6
EXLTYPE1
 62
     1
100
AcDbLine
 10
-11926.286819
 20
-34948.480165
 30
0.0
 11
-11926.286819
 21
-35007.480165
 31
0.0
  0
LINE
  5
1B5
100
AcDbEntity
  8
LAY-1
  6
EXLTYPE1
 62
     1
100
AcDbLine
 10
-11896.786819
 20
-34977.980165
 30
0.0
 11
-11955.786819
 21
-34977.980165
 31
0.0
  0
LINE
  5
1B6
100
AcDbEntity
  8
LAY-1
  6
EXLTYPE1
 62
     1
100
AcDbLine
 10
-12276.286819
 20
-34948.480165
 30
0.0
 11
-12276.286819
 21
-35007.480165
 31
0.0
  0
LINE
  5
1B7
100
AcDbEntity
  8
LAY-1
  6
EXLTYPE1
 62
     1
100
AcDbLine
 10
-12246.786819
 20
-34977.980165
 30
0.0
 11
-12305.786819
 21
-34977.980165
 31
0.0
  0
LINE
  5
1B8
100
AcDbEntity
  8
LAY-1
  6
EXLTYPE2
 62
     1
100
AcDbLine
 10
-12222.995665
 20
-34102.239701
 30
0.0
 11
-12222.995665
 21
-34104.539701
 31
0.0
  0
LINE
  5
1B9
100
AcDbEntity
  8
LAY-1
  6
EXLTYPE1
 62
     1
100
AcDbLine
 10
-10908.27896
 20
-34022.239789
 30
0.0
 11
-10908.27896
 21
-33972.239789
 31
0.0
  0
LINE
  5
1BA
100
AcDbEntity
  8
LAY-1
  6
EXLTYPE1
 62
     1
100
AcDbLine
 10
-10940.77896
 20
-33997.239789
 30
0.0
 11
-10875.77896
 21
-33997.239789
 31
0.0
  0
LINE
  5
1BB
100
AcDbEntity
  8
LAY-1
  6
EXLTYPE2
 62
     1
100
AcDbLine
 10
-10933.47896
 20
-34017.239789
 30
0.0
 11
-10933.47896
 21
-33977.239789
 31
0.0
  0
LINE
  5
1BC
100
AcDbEntity
  8
LAY-1
  6
EXLTYPE2
 62
     1
100
AcDbLine
 10
-10883.07896
 20
-34017.239789
 30
0.0
 11
-10883.07896
 21
-33977.239789
 31
0.0
  0
LINE
  5
1BD
100
AcDbEntity
  8
LAY-1
  6
CONTINUOUS
 62
     3
100
AcDbLine
 10
-10935.77896
 20
-34017.239789
 30
0.0
 11
-10935.77896
 21
-33977.239789
 31
0.0
  0
LINE
  5
1BE
100
AcDbEntity
  8
LAY-1
  6
CONTINUOUS
 62
     3
100
AcDbLine
 10
-10880.77896
 20
-34017.239789
 30
0.0
 11
-10880.77896
 21
-33977.239789
 31
0.0
  0
LINE
  5
1BF
100
AcDbEntity
  8
LAY-1
  6
CONTINUOUS
 62
     3
100
AcDbLine
 10
-10935.77896
 20
-33977.239789
 30
0.0
 11
-10880.77896
 21
-33977.239789
 31
0.0
  0
LINE
  5
1C0
100
AcDbEntity
  8
LAY-1
  6
CONTINUOUS
 62
     3
100
AcDbLine
 10
-10935.77896
 20
-34017.239789
 30
0.0
 11
-10880.77896
 21
-34017.239789
 31
0.0
  0
CIRCLE
  5
1C1
100
AcDbEntity
  8
LAY-1
  6
CONTINUOUS
 62
     3
100
AcDbCircle
 10
-10908.27896
 20
-33997.239789
 30
0.0
 40
10.5
  0
LINE
  5
1C2
100
AcDbEntity
  8
LAY-1
  6
EXLTYPE1
 62
     1
100
AcDbLine
 10
-10908.27896
 20
-34097.240437
 30
0.0
 11
-10908.27896
 21
-34109.540437
 31
0.0
  0
LINE
  5
1C3
100
AcDbEntity
  8
LAY-1
  6
EXLTYPE2
 62
     1
100
AcDbLine
 10
-10915.77896
 20
-34102.240433
 30
0.0
 11
-10915.77896
 21
-34104.540433
 31
0.0
  0
LINE
  5
1C4
100
AcDbEntity
  8
LAY-1
  6
EXLTYPE2
 62
     1
100
AcDbLine
 10
-10900.77896
 20
-34102.240442
 30
0.0
 11
-10900.77896
 21
-34104.540442
 31
0.0
  0
LINE
  5
1C5
100
AcDbEntity
  8
LAY-1
  6
CONTINUOUS
 62
     3
100
AcDbLine
 10
-10935.77896
 20
-34197.64045
 30
0.0
 11
-10935.77896
 21
-34106.840468
 31
0.0
  0
LINE
  5
1C6
100
AcDbEntity
  8
LAY-1
  6
CONTINUOUS
 62
     3
100
AcDbLine
 10
-10928.47896
 20
-34199.940419
 30
0.0
 11
-10928.47896
 21
-34197.640389
 31
0.0
  0
LINE
  5
1C7
100
AcDbEntity
  8
LAY-1
  6
CONTINUOUS
 62
     3
100
AcDbLine
 10
-10933.47896
 20
-34197.638081
 30
0.0
 11
-10933.47896
 21
-34106.842793
 31
0.0
  0
LINE
  5
1C8
100
AcDbEntity
  8
LAY-1
  6
CONTINUOUS
 62
     3
100
AcDbLine
 10
-10931.190786
 20
-34102.240437
 30
0.0
 11
-10885.37896
 21
-34102.240422
 31
0.0
  0
LINE
  5
1C9
100
AcDbEntity
  8
LAY-1
  6
CONTINUOUS
 62
     3
100
AcDbLine
 10
-10931.17896
 20
-34202.240452
 30
0.0
 11
-10887.77896
 21
-34202.239701
 31
0.0
  0
LINE
  5
1CA
100
AcDbEntity
  8
LAY-1
  6
CONTINUOUS
 62
     3
100
AcDbLine
 10
-10931.17896
 20
-34199.940452
 30
0.0
 11
-10885.37896
 21
-34199.94094
 31
0.0
  0
LINE
  5
1CB
100
AcDbEntity
  8
LAY-1
  6
CONTINUOUS
 62
     3
100
AcDbLine
 10
-10880.77896
 20
-34193.240437
 30
0.0
 11
-10880.77896
 21
-34106.840424
 31
0.0
  0
LINE
  5
1CC
100
AcDbEntity
  8
LAY-1
  6
CONTINUOUS
 62
     3
100
AcDbLine
 10
-10880.77896
 20
-34195.340938
 30
0.0
 11
-10880.77896
 21
-34106.840424
 31
0.0
  0
LINE
  5
1CD
100
AcDbEntity
  8
LAY-1
  6
CONTINUOUS
 62
     3
100
AcDbLine
 10
-10887.77896
 20
-34202.239701
 30
0.0
 11
-10887.77896
 21
-34199.939701
 31
0.0
  0
LINE
  5
1CE
100
AcDbEntity
  8
LAY-1
  6
CONTINUOUS
 62
     3
100
AcDbLine
 10
-10931.17896
 20
-34104.540423
 30
0.0
 11
-10885.37896
 21
-34104.540423
 31
0.0
  0
LINE
  5
1CF
100
AcDbEntity
  8
LAY-1
  6
CONTINUOUS
 62
     3
100
AcDbLine
 10
-10883.07896
 20
-34106.842793
 30
0.0
 11
-10883.07896
 21
-34195.338569
 31
0.0
  0
LINE
  5
1D0
100
AcDbEntity
  8
LAY-1
  6
CONTINUOUS
 62
     3
100
AcDbLine
 10
-10928.47896
 20
-34197.640389
 30
0.0
 11
-10885.37896
 21
-34197.640939
 31
0.0
  0
ARC
  5
1D1
100
AcDbEntity
  8
LAY-1
  6
CONTINUOUS
 62
     3
100
AcDbCircle
 10
-10931.17896
 20
-34197.64045
 30
0.0
 40
2.300001
100
AcDbArc
 50
179.940998
 51
270.0
  0
ARC
  5
1D2
100
AcDbEntity
  8
LAY-1
  6
CONTINUOUS
 62
     3
100
AcDbCircle
 10
-10931.17895
 20
-34197.640443
 30
0.0
 40
4.60001
100
AcDbArc
 50
180.000092
 51
269.999878
  0
ARC
  5
1D3
100
AcDbEntity
  8
LAY-1
  6
CONTINUOUS
 62
     3
100
AcDbCircle
 10
-10885.37896
 20
-34195.340938
 30
0.0
 40
2.300001
100
AcDbArc
 50
270.0
 51
0.059002
  0
ARC
  5
1D4
100
AcDbEntity
  8
LAY-1
  6
CONTINUOUS
 62
     3
100
AcDbCircle
 10
-10885.378969
 20
-34195.34093
 30
0.0
 40
4.60001
100
AcDbArc
 50
270.000122
 51
359.999908
  0
ARC
  5
1D5
100
AcDbEntity
  8
LAY-1
  6
CONTINUOUS
 62
     3
100
AcDbCircle
 10
-10931.17896
 20
-34106.840424
 30
0.0
 40
2.300001
100
AcDbArc
 50
90.0
 51
180.059002
  0
ARC
  5
1D6
100
AcDbEntity
  8
LAY-1
  6
CONTINUOUS
 62
     3
100
AcDbCircle
 10
-10931.17895
 20
-34106.840432
 30
0.0
 40
4.60001
100
AcDbArc
 50
90.000122
 51
179.999908
  0
ARC
  5
1D7
100
AcDbEntity
  8
LAY-1
  6
CONTINUOUS
 62
     3
100
AcDbCircle
 10
-10885.37896
 20
-34106.840424
 30
0.0
 40
2.300001
100
AcDbArc
 50
359.940998
 51
90.0
  0
ARC
  5
1D8
100
AcDbEntity
  8
LAY-1
  6
CONTINUOUS
 62
     3
100
AcDbCircle
 10
-10885.378969
 20
-34106.840432
 30
0.0
 40
4.60001
100
AcDbArc
 50
0.000092
 51
89.999878
  0
LINE
  5
1D9
100
AcDbEntity
  8
LAY-1
  6
CONTINUOUS
 62
     3
100
AcDbLine
 10
-10890.582188
 20
-34205.240251
 30
0.0
 11
-10889.582188
 21
-34202.239709
 31
0.0
  0
LINE
  5
1DA
100
AcDbEntity
  8
LAY-1
  6
CONTINUOUS
 62
     3
100
AcDbLine
 10
-10925.956629
 20
-34205.240452
 30
0.0
 11
-10925.956629
 21
-34202.240362
 31
0.0
  0
LINE
  5
1DB
100
AcDbEntity
  8
LAY-1
  6
CONTINUOUS
 62
     3
100
AcDbLine
 10
-10922.421095
 20
-34205.240371
 30
0.0
 11
-10922.421095
 21
-34202.240301
 31
0.0
  0
LINE
  5
1DC
100
AcDbEntity
  8
LAY-1
  6
CONTINUOUS
 62
     3
100
AcDbLine
 10
-10775.60129
 20
-34205.240251
 30
0.0
 11
-10775.60129
 21
-34202.240437
 31
0.0
  0
LINE
  5
1DD
100
AcDbEntity
  8
LAY-1
  6
CONTINUOUS
 62
     3
100
AcDbLine
 10
-10779.136824
 20
-34205.240251
 30
0.0
 11
-10779.136824
 21
-34202.240437
 31
0.0
  0
LINE
  5
1DE
100
AcDbEntity
  8
LAY-1
  6
CONTINUOUS
 62
     3
100
AcDbLine
 10
-10810.956629
 20
-34205.240251
 30
0.0
 11
-10811.956629
 21
-34202.240437
 31
0.0
  0
LINE
  5
1DF
100
AcDbEntity
  8
LAY-1
  6
CONTINUOUS
 62
     3
100
AcDbLine
 10
-10813.274048
 20
-34102.240437
 30
0.0
 11
-10773.274048
 21
-34102.240437
 31
0.0
  0
LINE
  5
1E0
100
AcDbEntity
  8
LAY-1
  6
CONTINUOUS
 62
     3
100
AcDbLine
 10
-10813.274048
 20
-34202.240437
 30
0.0
 11
-10813.274048
 21
-34102.240437
 31
0.0
  0
LINE
  5
1E1
100
AcDbEntity
  8
LAY-1
  6
CONTINUOUS
 62
     3
100
AcDbLine
 10
-10773.274048
 20
-34202.240437
 30
0.0
 11
-10773.274048
 21
-34102.240437
 31
0.0
  0
LINE
  5
1E2
100
AcDbEntity
  8
LAY-1
  6
CONTINUOUS
 62
     3
100
AcDbLine
 10
-10813.274048
 20
-34199.940437
 30
0.0
 11
-10773.274048
 21
-34199.940437
 31
0.0
  0
LINE
  5
1E3
100
AcDbEntity
  8
LAY-1
  6
CONTINUOUS
 62
     3
100
AcDbLine
 10
-10813.274048
 20
-34202.240437
 30
0.0
 11
-10773.274048
 21
-34202.240437
 31
0.0
  0
LINE
  5
1E4
100
AcDbEntity
  8
LAY-1
  6
EXLTYPE2
 62
     1
100
AcDbLine
 10
-10785.77896
 20
-34102.240437
 30
0.0
 11
-10785.77896
 21
-34104.540437
 31
0.0
  0
LINE
  5
1E5
100
AcDbEntity
  8
LAY-1
  6
EXLTYPE2
 62
     1
100
AcDbLine
 10
-10800.77896
 20
-34102.240437
 30
0.0
 11
-10800.77896
 21
-34104.540437
 31
0.0
  0
LINE
  5
1E6
100
AcDbEntity
  8
LAY-1
  6
EXLTYPE2
 62
     1
100
AcDbLine
 10
-10782.77896
 20
-34202.240437
 30
0.0
 11
-10782.77896
 21
-34197.640437
 31
0.0
  0
LINE
  5
1E7
100
AcDbEntity
  8
LAY-1
  6
EXLTYPE2
 62
     1
100
AcDbLine
 10
-10803.77896
 20
-34202.240437
 30
0.0
 11
-10803.77896
 21
-34197.640437
 31
0.0
  0
LINE
  5
1E8
100
AcDbEntity
  8
LAY-1
  6
EXLTYPE2
 62
     1
100
AcDbLine
 10
-10813.274048
 20
-34104.540437
 30
0.0
 11
-10773.274048
 21
-34104.540437
 31
0.0
  0
LINE
  5
1E9
100
AcDbEntity
  8
LAY-1
  6
EXLTYPE2
 62
     1
100
AcDbLine
 10
-10813.274048
 20
-34197.640437
 30
0.0
 11
-10773.274048
 21
-34197.640437
 31
0.0
  0
LINE
  5
1EA
100
AcDbEntity
  8
LAY-1
  6
EXLTYPE1
 62
     1
100
AcDbLine
 10
-10793.27896
 20
-34097.240437
 30
0.0
 11
-10793.27896
 21
-34109.540437
 31
0.0
  0
LINE
  5
1EB
100
AcDbEntity
  8
LAY-1
  6
CONTINUOUS
 62
     3
100
AcDbLine
 10
-10928.27896
 20
-34172.640647
 30
0.0
 11
-10908.27896
 21
-34172.640647
 31
0.0
  0
LINE
  5
1EC
100
AcDbEntity
  8
LAY-1
  6
CONTINUOUS
 62
     3
100
AcDbLine
 10
-10917.77896
 20
-34207.640647
 30
0.0
 11
-10908.27896
 21
-34207.640647
 31
0.0
  0
LINE
  5
1ED
100
AcDbEntity
  8
LAY-1
  6
CONTINUOUS
 62
     3
100
AcDbLine
 10
-10917.77896
 20
-34207.640647
 30
0.0
 11
-10920.27896
 21
-34204.140647
 31
0.0
  0
LINE
  5
1EE
100
AcDbEntity
  8
LAY-1
  6
CONTINUOUS
 62
     3
100
AcDbLine
 10
-10928.27896
 20
-34172.640647
 30
0.0
 11
-10928.27896
 21
-34174.640647
 31
0.0
  0
ARC
  5
1EF
100
AcDbEntity
  8
LAY-1
  6
CONTINUOUS
 62
     3
100
AcDbCircle
 10
-10919.27896
 20
-34203.640647
 30
0.0
 40
0.5
100
AcDbArc
 50
270.0
 51
0.0
  0
LINE
  5
1F0
100
AcDbEntity
  8
LAY-1
  6
CONTINUOUS
 62
     3
100
AcDbLine
 10
-10928.27896
 20
-34196.640647
 30
0.0
 11
-10928.27896
 21
-34197.640647
 31
0.0
  0
ARC
  5
1F1
100
AcDbEntity
  8
LAY-1
  6
CONTINUOUS
 62
     3
100
AcDbCircle
 10
-10928.27896
 20
-34175.890647
 30
0.0
 40
1.25
100
AcDbArc
 50
0.0
 51
90.0
  0
LINE
  5
1F2
100
AcDbEntity
  8
LAY-1
  6
CONTINUOUS
 62
     3
100
AcDbLine
 10
-10927.02896
 20
-34175.890647
 30
0.0
 11
-10927.02896
 21
-34195.390647
 31
0.0
  0
ARC
  5
1F3
100
AcDbEntity
  8
LAY-1
  6
CONTINUOUS
 62
     3
100
AcDbCircle
 10
-10928.27896
 20
-34195.390647
 30
0.0
 40
1.25
100
AcDbArc
 50
270.0
 51
0.0
  0
LINE
  5
1F4
100
AcDbEntity
  8
LAY-1
  6
CONTINUOUS
 62
     3
100
AcDbLine
 10
-10908.27896
 20
-34174.640647
 30
0.0
 11
-10928.27896
 21
-34174.640647
 31
0.0
  0
LINE
  5
1F5
100
AcDbEntity
  8
LAY-1
  6
CONTINUOUS
 62
     3
100
AcDbLine
 10
-10908.27896
 20
-34197.640647
 30
0.0
 11
-10928.27896
 21
-34197.640647
 31
0.0
  0
LINE
  5
1F6
100
AcDbEntity
  8
LAY-1
  6
CONTINUOUS
 62
     3
100
AcDbLine
 10
-10908.27896
 20
-34204.140647
 30
0.0
 11
-10920.27896
 21
-34204.140647
 31
0.0
  0
LINE
  5
1F7
100
AcDbEntity
  8
LAY-1
  6
CONTINUOUS
 62
     3
100
AcDbLine
 10
-10908.27896
 20
-34196.640647
 30
0.0
 11
-10928.27896
 21
-34196.640647
 31
0.0
  0
LINE
  5
1F8
100
AcDbEntity
  8
LAY-1
  6
CONTINUOUS
 62
     3
100
AcDbLine
 10
-10888.27896
 20
-34172.640647
 30
0.0
 11
-10908.27896
 21
-34172.640647
 31
0.0
  0
LINE
  5
1F9
100
AcDbEntity
  8
LAY-1
  6
CONTINUOUS
 62
     3
100
AcDbLine
 10
-10898.77896
 20
-34207.640647
 30
0.0
 11
-10908.27896
 21
-34207.640647
 31
0.0
  0
LINE
  5
1FA
100
AcDbEntity
  8
LAY-1
  6
CONTINUOUS
 62
     3
100
AcDbLine
 10
-10898.77896
 20
-34207.640647
 30
0.0
 11
-10896.27896
 21
-34204.140647
 31
0.0
  0
LINE
  5
1FB
100
AcDbEntity
  8
LAY-1
  6
CONTINUOUS
 62
     3
100
AcDbLine
 10
-10888.27896
 20
-34172.640647
 30
0.0
 11
-10888.27896
 21
-34174.640647
 31
0.0
  0
ARC
  5
1FC
100
AcDbEntity
  8
LAY-1
  6
CONTINUOUS
 62
     3
100
AcDbCircle
 10
-10897.27896
 20
-34203.640647
 30
0.0
 40
0.5
100
AcDbArc
 50
180.0
 51
270.0
  0
LINE
  5
1FD
100
AcDbEntity
  8
LAY-1
  6
CONTINUOUS
 62
     3
100
AcDbLine
 10
-10888.27896
 20
-34196.640647
 30
0.0
 11
-10888.27896
 21
-34197.640647
 31
0.0
  0
ARC
  5
1FE
100
AcDbEntity
  8
LAY-1
  6
CONTINUOUS
 62
     3
100
AcDbCircle
 10
-10888.27896
 20
-34175.890647
 30
0.0
 40
1.25
100
AcDbArc
 50
90.0
 51
180.0
  0
LINE
  5
1FF
100
AcDbEntity
  8
LAY-1
  6
CONTINUOUS
 62
     3
100
AcDbLine
 10
-10889.52896
 20
-34175.890647
 30
0.0
 11
-10889.52896
 21
-34195.390647
 31
0.0
  0
ARC
  5
200
100
AcDbEntity
  8
LAY-1
  6
CONTINUOUS
 62
     3
100
AcDbCircle
 10
-10888.27896
 20
-34195.390647
 30
0.0
 40
1.25
100
AcDbArc
 50
180.0
 51
270.0
  0
LINE
  5
201
100
AcDbEntity
  8
LAY-1
  6
CONTINUOUS
 62
     3
100
AcDbLine
 10
-10908.27896
 20
-34174.640647
 30
0.0
 11
-10888.27896
 21
-34174.640647
 31
0.0
  0
LINE
  5
202
100
AcDbEntity
  8
LAY-1
  6
CONTINUOUS
 62
     3
100
AcDbLine
 10
-10908.27896
 20
-34197.640647
 30
0.0
 11
-10888.27896
 21
-34197.640647
 31
0.0
  0
LINE
  5
203
100
AcDbEntity
  8
LAY-1
  6
CONTINUOUS
 62
     3
100
AcDbLine
 10
-10908.27896
 20
-34204.140647
 30
0.0
 11
-10896.27896
 21
-34204.140647
 31
0.0
  0
LINE
  5
204
100
AcDbEntity
  8
LAY-1
  6
CONTINUOUS
 62
     3
100
AcDbLine
 10
-10908.27896
 20
-34196.640647
 30
0.0
 11
-10888.27896
 21
-34196.640647
 31
0.0
  0
LINE
  5
205
100
AcDbEntity
  8
LAY-1
  6
EXLTYPE1
 62
     1
100
AcDbLine
 10
-10908.27896
 20
-34165.540647
 30
0.0
 11
-10908.27896
 21
-34215.640647
 31
0.0
  0
LINE
  5
206
100
AcDbEntity
  8
LAY-1
  6
CONTINUOUS
 62
     3
100
AcDbLine
 10
-10925.956629
 20
-34205.240452
 30
0.0
 11
-10921.130006
 21
-34205.240342
 31
0.0
  0
LINE
  5
207
100
AcDbEntity
  8
LAY-1
  6
CONTINUOUS
 62
     3
100
AcDbLine
 10
-10895.2
 20
-34205.240251
 30
0.0
 11
-10890.582188
 21
-34205.240251
 31
0.0
  0
LINE
  5
208
100
AcDbEntity
  8
LAY-1
  6
EXLTYPE2
 62
     1
100
AcDbLine
 10
-10918.77896
 20
-34202.240437
 30
0.0
 11
-10918.77896
 21
-34202.240238
 31
0.0
  0
LINE
  5
209
100
AcDbEntity
  8
LAY-1
  6
EXLTYPE2
 62
     1
100
AcDbLine
 10
-10897.77896
 20
-34197.640781
 30
0.0
 11
-10897.77896
 21
-34197.640524
 31
0.0
  0
LINE
  5
20A
100
AcDbEntity
  8
LAY-1
  6
CONTINUOUS
 62
     3
100
AcDbLine
 10
-10918.77896
 20
-34203.640647
 30
0.0
 11
-10918.77896
 21
-34202.240238
 31
0.0
  0
LINE
  5
20B
100
AcDbEntity
  8
LAY-1
  6
CONTINUOUS
 62
     3
100
AcDbLine
 10
-10897.77896
 20
-34197.640781
 30
0.0
 11
-10897.77896
 21
-34197.640647
 31
0.0
  0
LINE
  5
20C
100
AcDbEntity
  8
LAY-1
  6
EXLTYPE2
 62
     1
100
AcDbLine
 10
-10897.77896
 20
-34202.240524
 30
0.0
 11
-10897.77896
 21
-34202.239874
 31
0.0
  0
LINE
  5
20D
100
AcDbEntity
  8
LAY-1
  6
CONTINUOUS
 62
     3
100
AcDbLine
 10
-10897.77896
 20
-34203.640647
 30
0.0
 11
-10897.77896
 21
-34202.239874
 31
0.0
  0
LINE
  5
20E
100
AcDbEntity
  8
LAY-1
  6
EXLTYPE2
 62
     1
100
AcDbLine
 10
-10918.77896
 20
-34202.240238
 30
0.0
 11
-10918.77896
 21
-34197.640437
 31
0.0
  0
LINE
  5
20F
100
AcDbEntity
  8
LAY-1
  6
EXLTYPE2
 62
     1
100
AcDbLine
 10
-10897.77896
 20
-34202.240238
 30
0.0
 11
-10897.77896
 21
-34197.640437
 31
0.0
  0
LINE
  5
210
100
AcDbEntity
  8
LAY-1
  6
CONTINUOUS
 62
     3
100
AcDbLine
 10
-10802.77896
 20
-34207.641028
 30
0.0
 11
-10793.27896
 21
-34207.641028
 31
0.0
  0
LINE
  5
211
100
AcDbEntity
  8
LAY-1
  6
CONTINUOUS
 62
     3
100
AcDbLine
 10
-10802.77896
 20
-34207.641028
 30
0.0
 11
-10805.27896
 21
-34204.141028
 31
0.0
  0
ARC
  5
212
100
AcDbEntity
  8
LAY-1
  6
CONTINUOUS
 62
     3
100
AcDbCircle
 10
-10804.27896
 20
-34203.641028
 30
0.0
 40
0.5
100
AcDbArc
 50
270.0
 51
0.0
  0
LINE
  5
213
100
AcDbEntity
  8
LAY-1
  6
CONTINUOUS
 62
     3
100
AcDbLine
 10
-10793.27896
 20
-34204.141028
 30
0.0
 11
-10805.27896
 21
-34204.141028
 31
0.0
  0
LINE
  5
214
100
AcDbEntity
  8
LAY-1
  6
CONTINUOUS
 62
     3
100
AcDbLine
 10
-10783.77896
 20
-34207.641028
 30
0.0
 11
-10793.27896
 21
-34207.641028
 31
0.0
  0
LINE
  5
215
100
AcDbEntity
  8
LAY-1
  6
CONTINUOUS
 62
     3
100
AcDbLine
 10
-10783.77896
 20
-34207.641028
 30
0.0
 11
-10781.27896
 21
-34204.141028
 31
0.0
  0
ARC
  5
216
100
AcDbEntity
  8
LAY-1
  6
CONTINUOUS
 62
     3
100
AcDbCircle
 10
-10782.27896
 20
-34203.641028
 30
0.0
 40
0.5
100
AcDbArc
 50
180.0
 51
270.0
  0
LINE
  5
217
100
AcDbEntity
  8
LAY-1
  6
CONTINUOUS
 62
     3
100
AcDbLine
 10
-10793.27896
 20
-34204.141028
 30
0.0
 11
-10781.27896
 21
-34204.141028
 31
0.0
  0
LINE
  5
218
100
AcDbEntity
  8
LAY-1
  6
EXLTYPE2
 62
     1
100
AcDbLine
 10
-10803.77896
 20
-34202.240818
 30
0.0
 11
-10803.77896
 21
-34202.240619
 31
0.0
  0
LINE
  5
219
100
AcDbEntity
  8
LAY-1
  6
CONTINUOUS
 62
     3
100
AcDbLine
 10
-10803.77896
 20
-34203.641028
 30
0.0
 11
-10803.77896
 21
-34202.240619
 31
0.0
  0
LINE
  5
21A
100
AcDbEntity
  8
LAY-1
  6
EXLTYPE2
 62
     1
100
AcDbLine
 10
-10782.77896
 20
-34202.240906
 30
0.0
 11
-10782.77896
 21
-34202.240255
 31
0.0
  0
LINE
  5
21B
100
AcDbEntity
  8
LAY-1
  6
CONTINUOUS
 62
     3
100
AcDbLine
 10
-10782.77896
 20
-34203.641028
 30
0.0
 11
-10782.77896
 21
-34202.240255
 31
0.0
  0
LINE
  5
21C
100
AcDbEntity
  8
LAY-1
  6
CONTINUOUS
 62
     3
100
AcDbLine
 10
-10810.956629
 20
-34205.240251
 30
0.0
 11
-10806.59
 21
-34205.240251
 31
0.0
  0
LINE
  5
21D
100
AcDbEntity
  8
LAY-1
  6
CONTINUOUS
 62
     3
100
AcDbLine
 10
-10779.98
 20
-34205.240251
 30
0.0
 11
-10775.60129
 21
-34205.240251
 31
0.0
  0
LINE
  5
21E
100
AcDbEntity
  8
LAY-1
  6
EXLTYPE1
 62
     1
100
AcDbLine
 10
-10793.27896
 20
-34215.640647
 30
0.0
 11
-10793.27896
 21
-34192.640437
 31
0.0
  0
LINE
  5
21F
100
AcDbEntity
  8
LAY-1
  6
EXLTYPE2
 62
     1
100
AcDbLine
 10
-10607.3
 20
-34022.239789
 30
0.0
 11
-10607.3
 21
-33972.239789
 31
0.0
  0
LINE
  5
220
100
AcDbEntity
  8
LAY-1
  6
EXLTYPE2
 62
     1
100
AcDbLine
 10
-10548.7
 20
-34022.239789
 30
0.0
 11
-10548.7
 21
-33972.239789
 31
0.0
  0
LINE
  5
221
100
AcDbEntity
  8
LAY-1
  6
EXLTYPE1
 62
     1
100
AcDbLine
 10
-10615.5
 20
-33997.239789
 30
0.0
 11
-10540.5
 21
-33997.239789
 31
0.0
  0
LINE
  5
222
100
AcDbEntity
  8
LAY-1
  6
EXLTYPE1
 62
     1
100
AcDbLine
 10
-10578.0
 20
-34027.239789
 30
0.0
 11
-10578.0
 21
-33967.239789
 31
0.0
  0
CIRCLE
  5
223
100
AcDbEntity
  8
LAY-1
  6
CONTINUOUS
 62
     3
100
AcDbCircle
 10
-10578.0
 20
-33997.239789
 30
0.0
 40
10.5
  0
LINE
  5
224
100
AcDbEntity
  8
LAY-1
  6
CONTINUOUS
 62
     3
100
AcDbLine
 10
-10610.5
 20
-34022.239789
 30
0.0
 11
-10545.5
 21
-34022.239789
 31
0.0
  0
LINE
  5
225
100
AcDbEntity
  8
LAY-1
  6
CONTINUOUS
 62
     3
100
AcDbLine
 10
-10610.5
 20
-33972.239789
 30
0.0
 11
-10545.5
 21
-33972.239789
 31
0.0
  0
LINE
  5
226
100
AcDbEntity
  8
LAY-1
  6
CONTINUOUS
 62
     3
100
AcDbLine
 10
-10545.5
 20
-34022.239789
 30
0.0
 11
-10545.5
 21
-33972.239789
 31
0.0
  0
LINE
  5
227
100
AcDbEntity
  8
LAY-1
  6
CONTINUOUS
 62
     3
100
AcDbLine
 10
-10610.5
 20
-34022.239789
 30
0.0
 11
-10610.5
 21
-33972.239789
 31
0.0
  0
LINE
  5
228
100
AcDbEntity
  8
LAY-1
  6
EXLTYPE2
 62
     1
100
AcDbLine
 10
-10600.3
 20
-34199.040422
 30
0.0
 11
-10600.3
 21
-34195.840422
 31
0.0
  0
LINE
  5
229
100
AcDbEntity
  8
LAY-1
  6
EXLTYPE2
 62
     1
100
AcDbLine
 10
-10570.5
 20
-34102.240422
 30
0.0
 11
-10570.5
 21
-34105.440422
 31
0.0
  0
LINE
  5
22A
100
AcDbEntity
  8
LAY-1
  6
EXLTYPE2
 62
     1
100
AcDbLine
 10
-10585.5
 20
-34102.240422
 30
0.0
 11
-10585.5
 21
-34105.440422
 31
0.0
  0
LINE
  5
22B
100
AcDbEntity
  8
LAY-1
  6
EXLTYPE2
 62
     1
100
AcDbLine
 10
-10567.5
 20
-34202.240422
 30
0.0
 11
-10567.5
 21
-34195.840422
 31
0.0
  0
LINE
  5
22C
100
AcDbEntity
  8
LAY-1
  6
EXLTYPE2
 62
     1
100
AcDbLine
 10
-10588.5
 20
-34202.240422
 30
0.0
 11
-10588.5
 21
-34195.840422
 31
0.0
  0
LINE
  5
22D
100
AcDbEntity
  8
LAY-1
  6
EXLTYPE1
 62
     1
100
AcDbLine
 10
-10578.0
 20
-34097.240422
 30
0.0
 11
-10578.0
 21
-34110.440422
 31
0.0
  0
LINE
  5
22E
100
AcDbEntity
  8
LAY-1
  6
CONTINUOUS
 62
     3
100
AcDbLine
 10
-10560.32233
 20
-34205.240608
 30
0.0
 11
-10559.32233
 21
-34202.240066
 31
0.0
  0
LINE
  5
22F
100
AcDbEntity
  8
LAY-1
  6
CONTINUOUS
 62
     3
100
AcDbLine
 10
-10592.142136
 20
-34205.240422
 30
0.0
 11
-10592.142136
 21
-34202.240422
 31
0.0
  0
LINE
  5
230
100
AcDbEntity
  8
LAY-1
  6
CONTINUOUS
 62
     3
100
AcDbLine
 10
-10595.67767
 20
-34205.240756
 30
0.0
 11
-10595.67767
 21
-34202.240756
 31
0.0
  0
ARC
  5
231
100
AcDbEntity
  8
LAY-1
  6
CONTINUOUS
 62
     3
100
AcDbCircle
 10
-10604.1
 20
-34108.640422
 30
0.0
 40
6.4
100
AcDbArc
 50
90.0
 51
180.0
  0
ARC
  5
232
100
AcDbEntity
  8
LAY-1
  6
CONTINUOUS
 62
     3
100
AcDbCircle
 10
-10604.1
 20
-34108.640422
 30
0.0
 40
3.2
100
AcDbArc
 50
90.0
 51
180.0
  0
ARC
  5
233
100
AcDbEntity
  8
LAY-1
  6
CONTINUOUS
 62
     3
100
AcDbCircle
 10
-10551.9
 20
-34108.640422
 30
0.0
 40
6.4
100
AcDbArc
 50
0.0
 51
90.0
  0
ARC
  5
234
100
AcDbEntity
  8
LAY-1
  6
CONTINUOUS
 62
     3
100
AcDbCircle
 10
-10551.9
 20
-34108.640422
 30
0.0
 40
3.2
100
AcDbArc
 50
0.0
 51
90.0
  0
LINE
  5
235
100
AcDbEntity
  8
LAY-1
  6
CONTINUOUS
 62
     3
100
AcDbLine
 10
-10553.5
 20
-34202.240422
 30
0.0
 11
-10553.5
 21
-34199.040422
 31
0.0
  0
ARC
  5
236
100
AcDbEntity
  8
LAY-1
  6
CONTINUOUS
 62
     3
100
AcDbCircle
 10
-10551.9
 20
-34192.640422
 30
0.0
 40
6.4
100
AcDbArc
 50
270.0
 51
0.0
  0
ARC
  5
237
100
AcDbEntity
  8
LAY-1
  6
CONTINUOUS
 62
     3
100
AcDbCircle
 10
-10551.9
 20
-34192.640422
 30
0.0
 40
3.2
100
AcDbArc
 50
270.0
 51
0.0
  0
LINE
  5
238
100
AcDbEntity
  8
LAY-1
  6
CONTINUOUS
 62
     3
100
AcDbLine
 10
-10602.3
 20
-34199.040422
 30
0.0
 11
-10602.3
 21
-34195.840422
 31
0.0
  0
ARC
  5
239
100
AcDbEntity
  8
LAY-1
  6
CONTINUOUS
 62
     3
100
AcDbCircle
 10
-10604.1
 20
-34195.840422
 30
0.0
 40
6.4
100
AcDbArc
 50
180.0
 51
270.0
  0
ARC
  5
23A
100
AcDbEntity
  8
LAY-1
  6
CONTINUOUS
 62
     3
100
AcDbCircle
 10
-10604.1
 20
-34195.840422
 30
0.0
 40
3.2
100
AcDbArc
 50
180.0
 51
270.0
  0
LINE
  5
23B
100
AcDbEntity
  8
LAY-1
  6
CONTINUOUS
 62
     3
100
AcDbLine
 10
-10604.1
 20
-34105.440422
 30
0.0
 11
-10551.9
 21
-34105.440422
 31
0.0
  0
LINE
  5
23C
100
AcDbEntity
  8
LAY-1
  6
CONTINUOUS
 62
     3
100
AcDbLine
 10
-10548.7
 20
-34192.640422
 30
0.0
 11
-10548.7
 21
-34108.640422
 31
0.0
  0
LINE
  5
23D
100
AcDbEntity
  8
LAY-1
  6
CONTINUOUS
 62
     3
100
AcDbLine
 10
-10607.3
 20
-34195.840422
 30
0.0
 11
-10607.3
 21
-34108.640422
 31
0.0
  0
LINE
  5
23E
100
AcDbEntity
  8
LAY-1
  6
CONTINUOUS
 62
     3
100
AcDbLine
 10
-10602.3
 20
-34195.840422
 30
0.0
 11
-10551.9
 21
-34195.840422
 31
0.0
  0
LINE
  5
23F
100
AcDbEntity
  8
LAY-1
  6
CONTINUOUS
 62
     3
100
AcDbLine
 10
-10604.1
 20
-34199.040422
 30
0.0
 11
-10551.9
 21
-34199.040422
 31
0.0
  0
LINE
  5
240
100
AcDbEntity
  8
LAY-1
  6
CONTINUOUS
 62
     3
100
AcDbLine
 10
-10545.5
 20
-34192.640422
 30
0.0
 11
-10545.5
 21
-34108.640422
 31
0.0
  0
LINE
  5
241
100
AcDbEntity
  8
LAY-1
  6
CONTINUOUS
 62
     3
100
AcDbLine
 10
-10604.1
 20
-34202.240422
 30
0.0
 11
-10553.5
 21
-34202.240422
 31
0.0
  0
LINE
  5
242
100
AcDbEntity
  8
LAY-1
  6
CONTINUOUS
 62
     3
100
AcDbLine
 10
-10604.1
 20
-34102.240422
 30
0.0
 11
-10551.9
 21
-34102.240422
 31
0.0
  0
LINE
  5
243
100
AcDbEntity
  8
LAY-1
  6
CONTINUOUS
 62
     3
100
AcDbLine
 10
-10610.5
 20
-34195.840422
 30
0.0
 11
-10610.5
 21
-34108.640422
 31
0.0
  0
LINE
  5
244
100
AcDbEntity
  8
LAY-1
  6
EXLTYPE2
 62
     1
100
AcDbLine
 10
-10437.5
 20
-34195.840422
 30
0.0
 11
-10437.5
 21
-34202.240422
 31
0.0
  0
LINE
  5
245
100
AcDbEntity
  8
LAY-1
  6
EXLTYPE2
 62
     1
100
AcDbLine
 10
-10458.5
 20
-34195.840422
 30
0.0
 11
-10458.5
 21
-34202.240422
 31
0.0
  0
LINE
  5
246
100
AcDbEntity
  8
LAY-1
  6
EXLTYPE2
 62
     1
100
AcDbLine
 10
-10440.5
 20
-34105.440422
 30
0.0
 11
-10440.5
 21
-34102.240422
 31
0.0
  0
LINE
  5
247
100
AcDbEntity
  8
LAY-1
  6
EXLTYPE2
 62
     1
100
AcDbLine
 10
-10455.5
 20
-34105.440422
 30
0.0
 11
-10455.5
 21
-34102.240422
 31
0.0
  0
LINE
  5
248
100
AcDbEntity
  8
LAY-1
  6
EXLTYPE2
 62
     1
100
AcDbLine
 10
-10472.995088
 20
-34105.440422
 30
0.0
 11
-10422.995088
 21
-34105.440422
 31
0.0
  0
LINE
  5
249
100
AcDbEntity
  8
LAY-1
  6
EXLTYPE2
 62
     1
100
AcDbLine
 10
-10472.995088
 20
-34195.840422
 30
0.0
 11
-10422.995088
 21
-34195.840422
 31
0.0
  0
LINE
  5
24A
100
AcDbEntity
  8
LAY-1
  6
EXLTYPE1
 62
     1
100
AcDbLine
 10
-10448.0
 20
-34097.240422
 30
0.0
 11
-10448.0
 21
-34110.440422
 31
0.0
  0
LINE
  5
24B
100
AcDbEntity
  8
LAY-1
  6
CONTINUOUS
 62
     3
100
AcDbLine
 10
-10430.32233
 20
-34205.240236
 30
0.0
 11
-10430.32233
 21
-34202.240422
 31
0.0
  0
LINE
  5
24C
100
AcDbEntity
  8
LAY-1
  6
CONTINUOUS
 62
     3
100
AcDbLine
 10
-10433.857864
 20
-34205.240236
 30
0.0
 11
-10433.857864
 21
-34202.240422
 31
0.0
  0
LINE
  5
24D
100
AcDbEntity
  8
LAY-1
  6
CONTINUOUS
 62
     3
100
AcDbLine
 10
-10465.67767
 20
-34205.240236
 30
0.0
 11
-10466.67767
 21
-34202.240422
 31
0.0
  0
LINE
  5
24E
100
AcDbEntity
  8
LAY-1
  6
CONTINUOUS
 62
     3
100
AcDbLine
 10
-10472.995088
 20
-34102.240422
 30
0.0
 11
-10422.995088
 21
-34102.240422
 31
0.0
  0
LINE
  5
24F
100
AcDbEntity
  8
LAY-1
  6
CONTINUOUS
 62
     3
100
AcDbLine
 10
-10472.995088
 20
-34202.240422
 30
0.0
 11
-10472.995088
 21
-34102.240422
 31
0.0
  0
LINE
  5
250
100
AcDbEntity
  8
LAY-1
  6
CONTINUOUS
 62
     3
100
AcDbLine
 10
-10422.995088
 20
-34202.240422
 30
0.0
 11
-10422.995088
 21
-34102.240422
 31
0.0
  0
LINE
  5
251
100
AcDbEntity
  8
LAY-1
  6
CONTINUOUS
 62
     3
100
AcDbLine
 10
-10472.995088
 20
-34199.040422
 30
0.0
 11
-10422.995088
 21
-34199.040422
 31
0.0
  0
LINE
  5
252
100
AcDbEntity
  8
LAY-1
  6
CONTINUOUS
 62
     3
100
AcDbLine
 10
-10472.995088
 20
-34202.240422
 30
0.0
 11
-10422.995088
 21
-34202.240422
 31
0.0
  0
LINE
  5
253
100
AcDbEntity
  8
LAY-1
  6
CONTINUOUS
 62
     3
100
AcDbLine
 10
-10603.0
 20
-34172.840422
 30
0.0
 11
-10578.0
 21
-34172.840422
 31
0.0
  0
LINE
  5
254
100
AcDbEntity
  8
LAY-1
  6
CONTINUOUS
 62
     3
100
AcDbLine
 10
-10587.5
 20
-34209.840422
 30
0.0
 11
-10578.0
 21
-34209.840422
 31
0.0
  0
LINE
  5
255
100
AcDbEntity
  8
LAY-1
  6
CONTINUOUS
 62
     3
100
AcDbLine
 10
-10587.5
 20
-34209.840422
 30
0.0
 11
-10590.0
 21
-34204.340422
 31
0.0
  0
ARC
  5
256
100
AcDbEntity
  8
LAY-1
  6
CONTINUOUS
 62
     3
100
AcDbCircle
 10
-10589.0
 20
-34203.840422
 30
0.0
 40
0.5
100
AcDbArc
 50
270.0
 51
0.0
  0
LINE
  5
257
100
AcDbEntity
  8
LAY-1
  6
CONTINUOUS
 62
     3
100
AcDbLine
 10
-10603.0
 20
-34172.840422
 30
0.0
 11
-10603.0
 21
-34175.840422
 31
0.0
  0
LINE
  5
258
100
AcDbEntity
  8
LAY-1
  6
CONTINUOUS
 62
     3
100
AcDbLine
 10
-10603.0
 20
-34194.840422
 30
0.0
 11
-10603.0
 21
-34195.840422
 31
0.0
  0
ARC
  5
259
100
AcDbEntity
  8
LAY-1
  6
CONTINUOUS
 62
     3
100
AcDbCircle
 10
-10603.0
 20
-34177.090422
 30
0.0
 40
1.25
100
AcDbArc
 50
0.0
 51
90.0
  0
LINE
  5
25A
100
AcDbEntity
  8
LAY-1
  6
CONTINUOUS
 62
     3
100
AcDbLine
 10
-10601.75
 20
-34177.090422
 30
0.0
 11
-10601.75
 21
-34193.590422
 31
0.0
  0
ARC
  5
25B
100
AcDbEntity
  8
LAY-1
  6
CONTINUOUS
 62
     3
100
AcDbCircle
 10
-10603.0
 20
-34193.590422
 30
0.0
 40
1.25
100
AcDbArc
 50
270.0
 51
0.0
  0
LINE
  5
25C
100
AcDbEntity
  8
LAY-1
  6
CONTINUOUS
 62
     3
100
AcDbLine
 10
-10578.0
 20
-34194.840422
 30
0.0
 11
-10603.0
 21
-34194.840422
 31
0.0
  0
LINE
  5
25D
100
AcDbEntity
  8
LAY-1
  6
CONTINUOUS
 62
     3
100
AcDbLine
 10
-10578.0
 20
-34195.840422
 30
0.0
 11
-10603.0
 21
-34195.840422
 31
0.0
  0
LINE
  5
25E
100
AcDbEntity
  8
LAY-1
  6
CONTINUOUS
 62
     3
100
AcDbLine
 10
-10578.0
 20
-34175.840422
 30
0.0
 11
-10603.0
 21
-34175.840422
 31
0.0
  0
LINE
  5
25F
100
AcDbEntity
  8
LAY-1
  6
CONTINUOUS
 62
     3
100
AcDbLine
 10
-10578.0
 20
-34204.340422
 30
0.0
 11
-10590.0
 21
-34204.340422
 31
0.0
  0
LINE
  5
260
100
AcDbEntity
  8
LAY-1
  6
CONTINUOUS
 62
     3
100
AcDbLine
 10
-10553.0
 20
-34172.840422
 30
0.0
 11
-10578.0
 21
-34172.840422
 31
0.0
  0
LINE
  5
261
100
AcDbEntity
  8
LAY-1
  6
CONTINUOUS
 62
     3
100
AcDbLine
 10
-10568.5
 20
-34209.840422
 30
0.0
 11
-10578.0
 21
-34209.840422
 31
0.0
  0
LINE
  5
262
100
AcDbEntity
  8
LAY-1
  6
CONTINUOUS
 62
     3
100
AcDbLine
 10
-10568.5
 20
-34209.840422
 30
0.0
 11
-10566.0
 21
-34204.340422
 31
0.0
  0
ARC
  5
263
100
AcDbEntity
  8
LAY-1
  6
CONTINUOUS
 62
     3
100
AcDbCircle
 10
-10567.0
 20
-34203.840422
 30
0.0
 40
0.5
100
AcDbArc
 50
180.0
 51
270.0
  0
LINE
  5
264
100
AcDbEntity
  8
LAY-1
  6
CONTINUOUS
 62
     3
100
AcDbLine
 10
-10553.0
 20
-34172.840422
 30
0.0
 11
-10553.0
 21
-34175.840422
 31
0.0
  0
LINE
  5
265
100
AcDbEntity
  8
LAY-1
  6
CONTINUOUS
 62
     3
100
AcDbLine
 10
-10553.0
 20
-34194.840422
 30
0.0
 11
-10553.0
 21
-34195.840422
 31
0.0
  0
ARC
  5
266
100
AcDbEntity
  8
LAY-1
  6
CONTINUOUS
 62
     3
100
AcDbCircle
 10
-10553.0
 20
-34177.090422
 30
0.0
 40
1.25
100
AcDbArc
 50
90.0
 51
180.0
  0
LINE
  5
267
100
AcDbEntity
  8
LAY-1
  6
CONTINUOUS
 62
     3
100
AcDbLine
 10
-10554.25
 20
-34177.090422
 30
0.0
 11
-10554.25
 21
-34193.590422
 31
0.0
  0
ARC
  5
268
100
AcDbEntity
  8
LAY-1
  6
CONTINUOUS
 62
     3
100
AcDbCircle
 10
-10553.0
 20
-34193.590422
 30
0.0
 40
1.25
100
AcDbArc
 50
180.0
 51
270.0
  0
LINE
  5
269
100
AcDbEntity
  8
LAY-1
  6
CONTINUOUS
 62
     3
100
AcDbLine
 10
-10578.0
 20
-34194.840422
 30
0.0
 11
-10553.0
 21
-34194.840422
 31
0.0
  0
LINE
  5
26A
100
AcDbEntity
  8
LAY-1
  6
CONTINUOUS
 62
     3
100
AcDbLine
 10
-10578.0
 20
-34195.840422
 30
0.0
 11
-10553.0
 21
-34195.840422
 31
0.0
  0
LINE
  5
26B
100
AcDbEntity
  8
LAY-1
  6
CONTINUOUS
 62
     3
100
AcDbLine
 10
-10578.0
 20
-34175.840422
 30
0.0
 11
-10553.0
 21
-34175.840422
 31
0.0
  0
LINE
  5
26C
100
AcDbEntity
  8
LAY-1
  6
CONTINUOUS
 62
     3
100
AcDbLine
 10
-10578.0
 20
-34204.340422
 30
0.0
 11
-10566.0
 21
-34204.340422
 31
0.0
  0
LINE
  5
26D
100
AcDbEntity
  8
LAY-1
  6
EXLTYPE1
 62
     1
100
AcDbLine
 10
-10578.0
 20
-34165.740422
 30
0.0
 11
-10578.0
 21
-34215.840422
 31
0.0
  0
LINE
  5
26E
100
AcDbEntity
  8
LAY-1
  6
CONTINUOUS
 62
     3
100
AcDbLine
 10
-10588.5
 20
-34203.840422
 30
0.0
 11
-10588.5
 21
-34202.240422
 31
0.0
  0
LINE
  5
26F
100
AcDbEntity
  8
LAY-1
  6
CONTINUOUS
 62
     3
100
AcDbLine
 10
-10567.5
 20
-34203.840422
 30
0.0
 11
-10567.5
 21
-34202.240422
 31
0.0
  0
LINE
  5
270
100
AcDbEntity
  8
LAY-1
  6
CONTINUOUS
 62
     3
100
AcDbLine
 10
-10595.67767
 20
-34205.240809
 30
0.0
 11
-10590.700008
 21
-34205.240705
 31
0.0
  0
LINE
  5
271
100
AcDbEntity
  8
LAY-1
  6
CONTINUOUS
 62
     3
100
AcDbLine
 10
-10565.1
 20
-34205.240608
 30
0.0
 11
-10560.32233
 21
-34205.240608
 31
0.0
  0
LINE
  5
272
100
AcDbEntity
  8
LAY-1
  6
CONTINUOUS
 62
     3
100
AcDbLine
 10
-10457.5
 20
-34209.840422
 30
0.0
 11
-10448.0
 21
-34209.840422
 31
0.0
  0
LINE
  5
273
100
AcDbEntity
  8
LAY-1
  6
CONTINUOUS
 62
     3
100
AcDbLine
 10
-10457.5
 20
-34209.840422
 30
0.0
 11
-10460.0
 21
-34204.340422
 31
0.0
  0
ARC
  5
274
100
AcDbEntity
  8
LAY-1
  6
CONTINUOUS
 62
     3
100
AcDbCircle
 10
-10459.0
 20
-34203.840422
 30
0.0
 40
0.5
100
AcDbArc
 50
270.0
 51
0.0
  0
LINE
  5
275
100
AcDbEntity
  8
LAY-1
  6
CONTINUOUS
 62
     3
100
AcDbLine
 10
-10448.0
 20
-34204.340422
 30
0.0
 11
-10460.0
 21
-34204.340422
 31
0.0
  0
LINE
  5
276
100
AcDbEntity
  8
LAY-1
  6
CONTINUOUS
 62
     3
100
AcDbLine
 10
-10438.5
 20
-34209.840422
 30
0.0
 11
-10448.0
 21
-34209.840422
 31
0.0
  0
LINE
  5
277
100
AcDbEntity
  8
LAY-1
  6
CONTINUOUS
 62
     3
100
AcDbLine
 10
-10438.5
 20
-34209.840422
 30
0.0
 11
-10436.0
 21
-34204.340422
 31
0.0
  0
ARC
  5
278
100
AcDbEntity
  8
LAY-1
  6
CONTINUOUS
 62
     3
100
AcDbCircle
 10
-10437.0
 20
-34203.840422
 30
0.0
 40
0.5
100
AcDbArc
 50
180.0
 51
270.0
  0
LINE
  5
279
100
AcDbEntity
  8
LAY-1
  6
CONTINUOUS
 62
     3
100
AcDbLine
 10
-10448.0
 20
-34204.340422
 30
0.0
 11
-10436.0
 21
-34204.340422
 31
0.0
  0
LINE
  5
27A
100
AcDbEntity
  8
LAY-1
  6
CONTINUOUS
 62
     3
100
AcDbLine
 10
-10458.5
 20
-34203.840422
 30
0.0
 11
-10458.5
 21
-34202.240422
 31
0.0
  0
LINE
  5
27B
100
AcDbEntity
  8
LAY-1
  6
CONTINUOUS
 62
     3
100
AcDbLine
 10
-10437.5
 20
-34203.840422
 30
0.0
 11
-10437.5
 21
-34202.240422
 31
0.0
  0
LINE
  5
27C
100
AcDbEntity
  8
LAY-1
  6
CONTINUOUS
 62
     3
100
AcDbLine
 10
-10465.67767
 20
-34205.240236
 30
0.0
 11
-10461.18
 21
-34205.240236
 31
0.0
  0
LINE
  5
27D
100
AcDbEntity
  8
LAY-1
  6
CONTINUOUS
 62
     3
100
AcDbLine
 10
-10434.87
 20
-34205.240236
 30
0.0
 11
-10430.32233
 21
-34205.240236
 31
0.0
  0
LINE
  5
27E
100
AcDbEntity
  8
LAY-1
  6
EXLTYPE1
 62
     1
100
AcDbLine
 10
-10448.0
 20
-34215.840422
 30
0.0
 11
-10448.0
 21
-34190.840422
 31
0.0
  0
LINE
  5
27F
100
AcDbEntity
  8
LAY-1
  6
CONTINUOUS
 62
     3
100
AcDbLine
 10
-12290.0
 20
-34486.178915
 30
0.0
 11
-12290.0
 21
-34462.178915
 31
0.0
  0
LINE
  5
280
100
AcDbEntity
  8
LAY-1
  6
CONTINUOUS
 62
     3
100
AcDbLine
 10
-12326.980227
 20
-34486.178915
 30
0.0
 11
-12290.0
 21
-34486.178915
 31
0.0
  0
LINE
  5
281
100
AcDbEntity
  8
LAY-1
  6
CONTINUOUS
 62
     3
100
AcDbLine
 10
-12328.0
 20
-34485.178915
 30
0.0
 11
-12328.0
 21
-34463.178915
 31
0.0
  0
ARC
  5
282
100
AcDbEntity
  8
LAY-1
  6
CONTINUOUS
 62
     3
100
AcDbCircle
 10
-12327.0
 20
-34463.178915
 30
0.0
 40
1.0
100
AcDbArc
 50
90.0
 51
180.0
  0
ARC
  5
283
100
AcDbEntity
  8
LAY-1
  6
CONTINUOUS
 62
     3
100
AcDbCircle
 10
-12327.0
 20
-34485.178915
 30
0.0
 40
1.0
100
AcDbArc
 50
180.0
 51
270.0
  0
LINE
  5
284
100
AcDbEntity
  8
LAY-1
  6
CONTINUOUS
 62
     3
100
AcDbLine
 10
-12290.0
 20
-34462.178915
 30
0.0
 11
-12326.980227
 21
-34462.178915
 31
0.0
  0
LINE
  5
285
100
AcDbEntity
  8
LAY-1
  6
EXLTYPE1
 62
     1
100
AcDbLine
 10
-12309.0
 20
-34491.178915
 30
0.0
 11
-12309.0
 21
-34457.178915
 31
0.0
  0
LINE
  5
286
100
AcDbEntity
  8
LAY-1
  6
EXLTYPE1
 62
     1
100
AcDbLine
 10
-12333.0
 20
-34474.178915
 30
0.0
 11
-12285.0
 21
-34474.178915
 31
0.0
  0
LINE
  5
287
100
AcDbEntity
  8
LAY-1
  6
EXLTYPE2
 62
     1
100
AcDbLine
 10
-12292.5
 20
-34486.178915
 30
0.0
 11
-12292.5
 21
-34462.178915
 31
0.0
  0
LINE
  5
288
100
AcDbEntity
  8
LAY-1
  6
CONTINUOUS
 62
     3
100
AcDbLine
 10
-12328.0
 20
-34685.178915
 30
0.0
 11
-12294.6
 21
-34685.178915
 31
0.0
  0
LINE
  5
289
100
AcDbEntity
  8
LAY-1
  6
CONTINUOUS
 62
     3
100
AcDbLine
 10
-12328.0
 20
-34575.178915
 30
0.0
 11
-12294.6
 21
-34575.178915
 31
0.0
  0
LINE
  5
28A
100
AcDbEntity
  8
LAY-1
  6
CONTINUOUS
 62
     3
100
AcDbLine
 10
-12328.0
 20
-34577.478915
 30
0.0
 11
-12294.6
 21
-34577.478915
 31
0.0
  0
LINE
  5
28B
100
AcDbEntity
  8
LAY-1
  6
CONTINUOUS
 62
     3
100
AcDbLine
 10
-12294.6
 20
-34682.878915
 30
0.0
 11
-12328.0
 21
-34682.878915
 31
0.0
  0
LINE
  5
28C
100
AcDbEntity
  8
LAY-1
  6
CONTINUOUS
 62
     3
100
AcDbLine
 10
-12290.0
 20
-34579.778915
 30
0.0
 11
-12290.0
 21
-34680.578915
 31
0.0
  0
LINE
  5
28D
100
AcDbEntity
  8
LAY-1
  6
CONTINUOUS
 62
     3
100
AcDbLine
 10
-12328.0
 20
-34575.178915
 30
0.0
 11
-12328.0
 21
-34577.478915
 31
0.0
  0
LINE
  5
28E
100
AcDbEntity
  8
LAY-1
  6
CONTINUOUS
 62
     3
100
AcDbLine
 10
-12328.0
 20
-34682.878915
 30
0.0
 11
-12328.0
 21
-34685.178915
 31
0.0
  0
LINE
  5
28F
100
AcDbEntity
  8
LAY-1
  6
CONTINUOUS
 62
     3
100
AcDbLine
 10
-12292.3
 20
-34579.778915
 30
0.0
 11
-12292.3
 21
-34680.578915
 31
0.0
  0
ARC
  5
290
100
AcDbEntity
  8
LAY-1
  6
CONTINUOUS
 62
     3
100
AcDbCircle
 10
-12294.6
 20
-34579.778915
 30
0.0
 40
4.6
100
AcDbArc
 50
0.0
 51
90.0
  0
ARC
  5
291
100
AcDbEntity
  8
LAY-1
  6
CONTINUOUS
 62
     3
100
AcDbCircle
 10
-12294.6
 20
-34579.778915
 30
0.0
 40
2.3
100
AcDbArc
 50
0.0
 51
90.0
  0
ARC
  5
292
100
AcDbEntity
  8
LAY-1
  6
CONTINUOUS
 62
     3
100
AcDbCircle
 10
-12294.6
 20
-34680.578915
 30
0.0
 40
4.6
100
AcDbArc
 50
270.0
 51
0.0
  0
ARC
  5
293
100
AcDbEntity
  8
LAY-1
  6
CONTINUOUS
 62
     3
100
AcDbCircle
 10
-12294.6
 20
-34680.578915
 30
0.0
 40
2.3
100
AcDbArc
 50
270.0
 51
0.0
  0
LINE
  5
294
100
AcDbEntity
  8
LAY-1
  6
EXLTYPE2
 62
     1
100
AcDbLine
 10
-12316.75
 20
-34575.178915
 30
0.0
 11
-12316.75
 21
-34577.478915
 31
0.0
  0
LINE
  5
295
100
AcDbEntity
  8
LAY-1
  6
EXLTYPE2
 62
     1
100
AcDbLine
 10
-12301.25
 20
-34575.178915
 30
0.0
 11
-12301.25
 21
-34577.478915
 31
0.0
  0
LINE
  5
296
100
AcDbEntity
  8
LAY-1
  6
EXLTYPE2
 62
     1
100
AcDbLine
 10
-12316.75
 20
-34685.178915
 30
0.0
 11
-12316.75
 21
-34682.878915
 31
0.0
  0
LINE
  5
297
100
AcDbEntity
  8
LAY-1
  6
EXLTYPE2
 62
     1
100
AcDbLine
 10
-12301.25
 20
-34685.178915
 30
0.0
 11
-12301.25
 21
-34682.878915
 31
0.0
  0
LINE
  5
298
100
AcDbEntity
  8
LAY-1
  6
CONTINUOUS
 62
     3
100
AcDbLine
 10
-12216.995665
 20
-34575.178915
 30
0.0
 11
-12216.995665
 21
-34685.178915
 31
0.0
  0
LINE
  5
299
100
AcDbEntity
  8
LAY-1
  6
CONTINUOUS
 62
     3
100
AcDbLine
 10
-12240.995665
 20
-34575.178915
 30
0.0
 11
-12240.995665
 21
-34685.178915
 31
0.0
  0
LINE
  5
29A
100
AcDbEntity
  8
LAY-1
  6
CONTINUOUS
 62
     3
100
AcDbLine
 10
-12216.995665
 20
-34575.178915
 30
0.0
 11
-12240.995665
 21
-34575.178915
 31
0.0
  0
LINE
  5
29B
100
AcDbEntity
  8
LAY-1
  6
CONTINUOUS
 62
     3
100
AcDbLine
 10
-12216.995665
 20
-34685.178915
 30
0.0
 11
-12240.995665
 21
-34685.178915
 31
0.0
  0
LINE
  5
29C
100
AcDbEntity
  8
LAY-1
  6
EXLTYPE2
 62
     1
100
AcDbLine
 10
-12216.995665
 20
-34577.478915
 30
0.0
 11
-12240.995665
 21
-34577.478915
 31
0.0
  0
LINE
  5
29D
100
AcDbEntity
  8
LAY-1
  6
EXLTYPE2
 62
     1
100
AcDbLine
 10
-12216.995665
 20
-34682.878915
 30
0.0
 11
-12240.995665
 21
-34682.878915
 31
0.0
  0
LINE
  5
29E
100
AcDbEntity
  8
LAY-1
  6
EXLTYPE2
 62
     1
100
AcDbLine
 10
-12236.745665
 20
-34575.178915
 30
0.0
 11
-12236.745665
 21
-34577.478915
 31
0.0
  0
LINE
  5
29F
100
AcDbEntity
  8
LAY-1
  6
EXLTYPE2
 62
     1
100
AcDbLine
 10
-12221.245665
 20
-34575.178915
 30
0.0
 11
-12221.245665
 21
-34577.478915
 31
0.0
  0
LINE
  5
2A0
100
AcDbEntity
  8
LAY-1
  6
EXLTYPE2
 62
     1
100
AcDbLine
 10
-12236.745665
 20
-34685.178915
 30
0.0
 11
-12236.745665
 21
-34682.878915
 31
0.0
  0
LINE
  5
2A1
100
AcDbEntity
  8
LAY-1
  6
EXLTYPE2
 62
     1
100
AcDbLine
 10
-12221.245665
 20
-34685.178915
 30
0.0
 11
-12221.245665
 21
-34682.878915
 31
0.0
  0
LINE
  5
2A2
100
AcDbEntity
  8
LAY-1
  6
CONTINUOUS
 62
     3
100
AcDbLine
 10
-12317.75
 20
-34682.878915
 30
0.0
 11
-12317.75
 21
-34663.128915
 31
0.0
  0
ARC
  5
2A3
100
AcDbEntity
  8
LAY-1
  6
CONTINUOUS
 62
     3
100
AcDbCircle
 10
-12320.0
 20
-34663.128915
 30
0.0
 40
2.25
100
AcDbArc
 50
0.0
 51
90.0
  0
LINE
  5
2A4
100
AcDbEntity
  8
LAY-1
  6
CONTINUOUS
 62
     3
100
AcDbLine
 10
-12320.0
 20
-34659.878915
 30
0.0
 11
-12320.0
 21
-34660.878915
 31
0.0
  0
LINE
  5
2A5
100
AcDbEntity
  8
LAY-1
  6
CONTINUOUS
 62
     3
100
AcDbLine
 10
-12300.25
 20
-34682.878915
 30
0.0
 11
-12300.25
 21
-34663.128915
 31
0.0
  0
ARC
  5
2A6
100
AcDbEntity
  8
LAY-1
  6
CONTINUOUS
 62
     3
100
AcDbCircle
 10
-12298.0
 20
-34663.128915
 30
0.0
 40
2.25
100
AcDbArc
 50
90.0
 51
180.0
  0
LINE
  5
2A7
100
AcDbEntity
  8
LAY-1
  6
CONTINUOUS
 62
     3
100
AcDbLine
 10
-12298.0
 20
-34659.878915
 30
0.0
 11
-12298.0
 21
-34660.878915
 31
0.0
  0
LINE
  5
2A8
100
AcDbEntity
  8
LAY-1
  6
CONTINUOUS
 62
     3
100
AcDbLine
 10
-12298.0
 20
-34659.878915
 30
0.0
 11
-12320.0
 21
-34659.878915
 31
0.0
  0
LINE
  5
2A9
100
AcDbEntity
  8
LAY-1
  6
CONTINUOUS
 62
     3
100
AcDbLine
 10
-12320.0
 20
-34660.878915
 30
0.0
 11
-12298.0
 21
-34660.878915
 31
0.0
  0
LINE
  5
2AA
100
AcDbEntity
  8
LAY-1
  6
CONTINUOUS
 62
     3
100
AcDbLine
 10
-12317.75
 20
-34682.878915
 30
0.0
 11
-12300.25
 21
-34682.878915
 31
0.0
  0
LINE
  5
2AB
100
AcDbEntity
  8
LAY-1
  6
EXLTYPE1
 62
     1
100
AcDbLine
 10
-12309.0
 20
-34652.778915
 30
0.0
 11
-12309.0
 21
-34696.878915
 31
0.0
  0
ARC
  5
2AC
100
AcDbEntity
  8
LAY-1
  6
CONTINUOUS
 62
     3
100
AcDbCircle
 10
-12317.0
 20
-34686.878915
 30
0.0
 40
0.5
100
AcDbArc
 50
270.0
 51
0.0
  0
LINE
  5
2AD
100
AcDbEntity
  8
LAY-1
  6
CONTINUOUS
 62
     3
100
AcDbLine
 10
-12318.0
 20
-34687.378915
 30
0.0
 11
-12315.5
 21
-34689.878915
 31
0.0
  0
ARC
  5
2AE
100
AcDbEntity
  8
LAY-1
  6
CONTINUOUS
 62
     3
100
AcDbCircle
 10
-12301.0
 20
-34686.878915
 30
0.0
 40
0.5
100
AcDbArc
 50
180.0
 51
270.0
  0
LINE
  5
2AF
100
AcDbEntity
  8
LAY-1
  6
CONTINUOUS
 62
     3
100
AcDbLine
 10
-12300.0
 20
-34687.378915
 30
0.0
 11
-12302.5
 21
-34689.878915
 31
0.0
  0
LINE
  5
2B0
100
AcDbEntity
  8
LAY-1
  6
CONTINUOUS
 62
     3
100
AcDbLine
 10
-12302.5
 20
-34689.878915
 30
0.0
 11
-12315.5
 21
-34689.878915
 31
0.0
  0
LINE
  5
2B1
100
AcDbEntity
  8
LAY-1
  6
CONTINUOUS
 62
     3
100
AcDbLine
 10
-12318.0
 20
-34687.378915
 30
0.0
 11
-12300.0
 21
-34687.378915
 31
0.0
  0
LINE
  5
2B2
100
AcDbEntity
  8
LAY-1
  6
CONTINUOUS
 62
     3
100
AcDbLine
 10
-12316.5
 20
-34685.178915
 30
0.0
 11
-12316.5
 21
-34686.878915
 31
0.0
  0
LINE
  5
2B3
100
AcDbEntity
  8
LAY-1
  6
CONTINUOUS
 62
     3
100
AcDbLine
 10
-12301.5
 20
-34685.178915
 30
0.0
 11
-12301.5
 21
-34686.878915
 31
0.0
  0
ARC
  5
2B4
100
AcDbEntity
  8
LAY-1
  6
CONTINUOUS
 62
     3
100
AcDbCircle
 10
-12236.995665
 20
-34686.878915
 30
0.0
 40
0.5
100
AcDbArc
 50
270.0
 51
0.0
  0
LINE
  5
2B5
100
AcDbEntity
  8
LAY-1
  6
CONTINUOUS
 62
     3
100
AcDbLine
 10
-12237.995665
 20
-34687.378915
 30
0.0
 11
-12235.495665
 21
-34689.878915
 31
0.0
  0
ARC
  5
2B6
100
AcDbEntity
  8
LAY-1
  6
CONTINUOUS
 62
     3
100
AcDbCircle
 10
-12220.995665
 20
-34686.878915
 30
0.0
 40
0.5
100
AcDbArc
 50
180.0
 51
270.0
  0
LINE
  5
2B7
100
AcDbEntity
  8
LAY-1
  6
CONTINUOUS
 62
     3
100
AcDbLine
 10
-12219.995665
 20
-34687.378915
 30
0.0
 11
-12222.495665
 21
-34689.878915
 31
0.0
  0
LINE
  5
2B8
100
AcDbEntity
  8
LAY-1
  6
CONTINUOUS
 62
     3
100
AcDbLine
 10
-12222.495665
 20
-34689.878915
 30
0.0
 11
-12235.495665
 21
-34689.878915
 31
0.0
  0
LINE
  5
2B9
100
AcDbEntity
  8
LAY-1
  6
CONTINUOUS
 62
     3
100
AcDbLine
 10
-12237.995665
 20
-34687.378915
 30
0.0
 11
-12219.995665
 21
-34687.378915
 31
0.0
  0
LINE
  5
2BA
100
AcDbEntity
  8
LAY-1
  6
CONTINUOUS
 62
     3
100
AcDbLine
 10
-12236.495665
 20
-34685.178915
 30
0.0
 11
-12236.495665
 21
-34686.878915
 31
0.0
  0
LINE
  5
2BB
100
AcDbEntity
  8
LAY-1
  6
CONTINUOUS
 62
     3
100
AcDbLine
 10
-12221.495665
 20
-34685.178915
 30
0.0
 11
-12221.495665
 21
-34686.878915
 31
0.0
  0
LINE
  5
2BC
100
AcDbEntity
  8
LAY-1
  6
EXLTYPE1
 62
     1
100
AcDbLine
 10
-12228.995665
 20
-34696.878915
 30
0.0
 11
-12228.995665
 21
-34677.878915
 31
0.0
  0
LINE
  5
2BD
100
AcDbEntity
  8
LAY-1
  6
CONTINUOUS
 62
     3
100
AcDbLine
 10
-12219.995665
 20
-34575.178915
 30
0.0
 11
-12222.495665
 21
-34572.678915
 31
0.0
  0
LINE
  5
2BE
100
AcDbEntity
  8
LAY-1
  6
CONTINUOUS
 62
     3
100
AcDbLine
 10
-12237.995665
 20
-34575.178915
 30
0.0
 11
-12235.495665
 21
-34572.678915
 31
0.0
  0
LINE
  5
2BF
100
AcDbEntity
  8
LAY-1
  6
CONTINUOUS
 62
     3
100
AcDbLine
 10
-12235.495665
 20
-34572.678915
 30
0.0
 11
-12222.495665
 21
-34572.678915
 31
0.0
  0
LINE
  5
2C0
100
AcDbEntity
  8
LAY-1
  6
CONTINUOUS
 62
     3
100
AcDbLine
 10
-12219.995665
 20
-34575.178915
 30
0.0
 11
-12237.995665
 21
-34575.178915
 31
0.0
  0
LINE
  5
2C1
100
AcDbEntity
  8
LAY-1
  6
EXLTYPE1
 62
     1
100
AcDbLine
 10
-12309.0
 20
-34609.778915
 30
0.0
 11
-12309.0
 21
-34565.678915
 31
0.0
  0
LINE
  5
2C2
100
AcDbEntity
  8
LAY-1
  6
CONTINUOUS
 62
     3
100
AcDbLine
 10
-12300.25
 20
-34579.678915
 30
0.0
 11
-12300.25
 21
-34599.428915
 31
0.0
  0
LINE
  5
2C3
100
AcDbEntity
  8
LAY-1
  6
CONTINUOUS
 62
     3
100
AcDbLine
 10
-12300.0
 20
-34575.178915
 30
0.0
 11
-12302.5
 21
-34572.678915
 31
0.0
  0
ARC
  5
2C4
100
AcDbEntity
  8
LAY-1
  6
CONTINUOUS
 62
     3
100
AcDbCircle
 10
-12298.0
 20
-34599.428915
 30
0.0
 40
2.25
100
AcDbArc
 50
180.0
 51
270.0
  0
LINE
  5
2C5
100
AcDbEntity
  8
LAY-1
  6
CONTINUOUS
 62
     3
100
AcDbLine
 10
-12298.0
 20
-34602.678915
 30
0.0
 11
-12298.0
 21
-34601.678915
 31
0.0
  0
LINE
  5
2C6
100
AcDbEntity
  8
LAY-1
  6
CONTINUOUS
 62
     3
100
AcDbLine
 10
-12317.75
 20
-34579.678915
 30
0.0
 11
-12317.75
 21
-34599.428915
 31
0.0
  0
LINE
  5
2C7
100
AcDbEntity
  8
LAY-1
  6
CONTINUOUS
 62
     3
100
AcDbLine
 10
-12318.0
 20
-34575.178915
 30
0.0
 11
-12315.5
 21
-34572.678915
 31
0.0
  0
ARC
  5
2C8
100
AcDbEntity
  8
LAY-1
  6
CONTINUOUS
 62
     3
100
AcDbCircle
 10
-12320.0
 20
-34599.428915
 30
0.0
 40
2.25
100
AcDbArc
 50
270.0
 51
0.0
  0
LINE
  5
2C9
100
AcDbEntity
  8
LAY-1
  6
CONTINUOUS
 62
     3
100
AcDbLine
 10
-12320.0
 20
-34602.678915
 30
0.0
 11
-12320.0
 21
-34601.678915
 31
0.0
  0
LINE
  5
2CA
100
AcDbEntity
  8
LAY-1
  6
CONTINUOUS
 62
     3
100
AcDbLine
 10
-12315.5
 20
-34572.678915
 30
0.0
 11
-12302.5
 21
-34572.678915
 31
0.0
  0
LINE
  5
2CB
100
AcDbEntity
  8
LAY-1
  6
CONTINUOUS
 62
     3
100
AcDbLine
 10
-12320.0
 20
-34602.678915
 30
0.0
 11
-12298.0
 21
-34602.678915
 31
0.0
  0
LINE
  5
2CC
100
AcDbEntity
  8
LAY-1
  6
CONTINUOUS
 62
     3
100
AcDbLine
 10
-12298.0
 20
-34601.678915
 30
0.0
 11
-12320.0
 21
-34601.678915
 31
0.0
  0
LINE
  5
2CD
100
AcDbEntity
  8
LAY-1
  6
CONTINUOUS
 62
     3
100
AcDbLine
 10
-12300.25
 20
-34579.678915
 30
0.0
 11
-12317.75
 21
-34579.678915
 31
0.0
  0
LINE
  5
2CE
100
AcDbEntity
  8
LAY-1
  6
CONTINUOUS
 62
     3
100
AcDbLine
 10
-12300.0
 20
-34575.178915
 30
0.0
 11
-12318.0
 21
-34575.178915
 31
0.0
  0
LINE
  5
2CF
100
AcDbEntity
  8
LAY-1
  6
CONTINUOUS
 62
     3
100
AcDbLine
 10
-12301.5
 20
-34579.678915
 30
0.0
 11
-12301.5
 21
-34577.478915
 31
0.0
  0
LINE
  5
2D0
100
AcDbEntity
  8
LAY-1
  6
CONTINUOUS
 62
     3
100
AcDbLine
 10
-12316.5
 20
-34579.678915
 30
0.0
 11
-12316.5
 21
-34577.478915
 31
0.0
  0
LINE
  5
2D1
100
AcDbEntity
  8
LAY-1
  6
EXLTYPE1
 62
     1
100
AcDbLine
 10
-12228.995665
 20
-34565.678915
 30
0.0
 11
-12228.995665
 21
-34582.478915
 31
0.0
  0
CIRCLE
  5
2D2
100
AcDbEntity
  8
LAY-1
  6
CONTINUOUS
 62
     3
100
AcDbCircle
 10
-12309.0
 20
-34474.178915
 30
0.0
 40
9.0
  0
CIRCLE
  5
2D3
100
AcDbEntity
  8
LAY-1
  6
CONTINUOUS
 62
     3
100
AcDbCircle
 10
-12309.0
 20
-34474.178915
 30
0.0
 40
5.5
  0
LINE
  5
2D4
100
AcDbEntity
  8
LAY-1
  6
EXLTYPE1
 62
     1
100
AcDbLine
 10
-11259.0
 20
-34494.178915
 30
0.0
 11
-11259.0
 21
-34454.178915
 31
0.0
  0
LINE
  5
2D5
100
AcDbEntity
  8
LAY-1
  6
CONTINUOUS
 62
     3
100
AcDbLine
 10
-11163.995665
 20
-34575.178915
 30
0.0
 11
-11193.995665
 21
-34575.178915
 31
0.0
  0
LINE
  5
2D6
100
AcDbEntity
  8
LAY-1
  6
CONTINUOUS
 62
     3
100
AcDbLine
 10
-11163.995665
 20
-34685.178915
 30
0.0
 11
-11193.995665
 21
-34685.178915
 31
0.0
  0
LINE
  5
2D7
100
AcDbEntity
  8
LAY-1
  6
CONTINUOUS
 62
     3
100
AcDbLine
 10
-11940.0
 20
-34486.178915
 30
0.0
 11
-11940.0
 21
-34462.178915
 31
0.0
  0
LINE
  5
2D8
100
AcDbEntity
  8
LAY-1
  6
CONTINUOUS
 62
     3
100
AcDbLine
 10
-11976.980227
 20
-34486.178915
 30
0.0
 11
-11940.0
 21
-34486.178915
 31
0.0
  0
LINE
  5
2D9
100
AcDbEntity
  8
LAY-1
  6
CONTINUOUS
 62
     3
100
AcDbLine
 10
-11978.0
 20
-34485.178915
 30
0.0
 11
-11978.0
 21
-34463.178915
 31
0.0
  0
ARC
  5
2DA
100
AcDbEntity
  8
LAY-1
  6
CONTINUOUS
 62
     3
100
AcDbCircle
 10
-11977.0
 20
-34463.178915
 30
0.0
 40
1.0
100
AcDbArc
 50
90.0
 51
180.0
  0
ARC
  5
2DB
100
AcDbEntity
  8
LAY-1
  6
CONTINUOUS
 62
     3
100
AcDbCircle
 10
-11977.0
 20
-34485.178915
 30
0.0
 40
1.0
100
AcDbArc
 50
180.0
 51
270.0
  0
LINE
  5
2DC
100
AcDbEntity
  8
LAY-1
  6
CONTINUOUS
 62
     3
100
AcDbLine
 10
-11940.0
 20
-34462.178915
 30
0.0
 11
-11976.980227
 21
-34462.178915
 31
0.0
  0
LINE
  5
2DD
100
AcDbEntity
  8
LAY-1
  6
EXLTYPE1
 62
     1
100
AcDbLine
 10
-11959.0
 20
-34491.178915
 30
0.0
 11
-11959.0
 21
-34457.178915
 31
0.0
  0
LINE
  5
2DE
100
AcDbEntity
  8
LAY-1
  6
EXLTYPE1
 62
     1
100
AcDbLine
 10
-11983.0
 20
-34474.178915
 30
0.0
 11
-11935.0
 21
-34474.178915
 31
0.0
  0
LINE
  5
2DF
100
AcDbEntity
  8
LAY-1
  6
CONTINUOUS
 62
     3
100
AcDbLine
 10
-11866.995665
 20
-34575.178915
 30
0.0
 11
-11890.995665
 21
-34575.178915
 31
0.0
  0
LINE
  5
2E0
100
AcDbEntity
  8
LAY-1
  6
CONTINUOUS
 62
     3
100
AcDbLine
 10
-11866.995665
 20
-34685.178915
 30
0.0
 11
-11890.995665
 21
-34685.178915
 31
0.0
  0
LINE
  5
2E1
100
AcDbEntity
  8
LAY-1
  6
CONTINUOUS
 62
     3
100
AcDbLine
 10
-11869.995665
 20
-34575.178915
 30
0.0
 11
-11872.495665
 21
-34572.678915
 31
0.0
  0
LINE
  5
2E2
100
AcDbEntity
  8
LAY-1
  6
CONTINUOUS
 62
     3
100
AcDbLine
 10
-11887.995665
 20
-34575.178915
 30
0.0
 11
-11885.495665
 21
-34572.678915
 31
0.0
  0
LINE
  5
2E3
100
AcDbEntity
  8
LAY-1
  6
CONTINUOUS
 62
     3
100
AcDbLine
 10
-11885.495665
 20
-34572.678915
 30
0.0
 11
-11872.495665
 21
-34572.678915
 31
0.0
  0
LINE
  5
2E4
100
AcDbEntity
  8
LAY-1
  6
CONTINUOUS
 62
     3
100
AcDbLine
 10
-11869.995665
 20
-34575.178915
 30
0.0
 11
-11887.995665
 21
-34575.178915
 31
0.0
  0
LINE
  5
2E5
100
AcDbEntity
  8
LAY-1
  6
CONTINUOUS
 62
     3
100
AcDbLine
 10
-11950.0
 20
-34575.178915
 30
0.0
 11
-11952.5
 21
-34572.678915
 31
0.0
  0
LINE
  5
2E6
100
AcDbEntity
  8
LAY-1
  6
CONTINUOUS
 62
     3
100
AcDbLine
 10
-11968.0
 20
-34575.178915
 30
0.0
 11
-11965.5
 21
-34572.678915
 31
0.0
  0
LINE
  5
2E7
100
AcDbEntity
  8
LAY-1
  6
CONTINUOUS
 62
     3
100
AcDbLine
 10
-11965.5
 20
-34572.678915
 30
0.0
 11
-11952.5
 21
-34572.678915
 31
0.0
  0
CIRCLE
  5
2E8
100
AcDbEntity
  8
LAY-1
  6
CONTINUOUS
 62
     3
100
AcDbCircle
 10
-11959.0
 20
-34474.178915
 30
0.0
 40
9.0
  0
CIRCLE
  5
2E9
100
AcDbEntity
  8
LAY-1
  6
CONTINUOUS
 62
     3
100
AcDbCircle
 10
-11959.0
 20
-34474.178915
 30
0.0
 40
5.5
  0
ARC
  5
2EA
100
AcDbEntity
  8
LAY-1
  6
CONTINUOUS
 62
     3
100
AcDbCircle
 10
-11948.0
 20
-34581.678915
 30
0.0
 40
1.0
100
AcDbArc
 50
90.0
 51
180.0
  0
LINE
  5
2EB
100
AcDbEntity
  8
LAY-1
  6
CONTINUOUS
 62
     3
100
AcDbLine
 10
-11949.0
 20
-34602.678915
 30
0.0
 11
-11949.0
 21
-34581.678915
 31
0.0
  0
ARC
  5
2EC
100
AcDbEntity
  8
LAY-1
  6
CONTINUOUS
 62
     3
100
AcDbCircle
 10
-11948.0
 20
-34602.678915
 30
0.0
 40
1.0
100
AcDbArc
 50
180.0
 51
270.0
  0
LINE
  5
2ED
100
AcDbEntity
  8
LAY-1
  6
CONTINUOUS
 62
     3
100
AcDbLine
 10
-11948.0
 20
-34604.678915
 30
0.0
 11
-11948.0
 21
-34603.678915
 31
0.0
  0
LINE
  5
2EE
100
AcDbEntity
  8
LAY-1
  6
CONTINUOUS
 62
     3
100
AcDbLine
 10
-11948.0
 20
-34580.678915
 30
0.0
 11
-11948.0
 21
-34579.678915
 31
0.0
  0
ARC
  5
2EF
100
AcDbEntity
  8
LAY-1
  6
CONTINUOUS
 62
     3
100
AcDbCircle
 10
-11970.0
 20
-34581.678915
 30
0.0
 40
1.0
100
AcDbArc
 50
0.0
 51
90.0
  0
LINE
  5
2F0
100
AcDbEntity
  8
LAY-1
  6
CONTINUOUS
 62
     3
100
AcDbLine
 10
-11969.0
 20
-34602.678915
 30
0.0
 11
-11969.0
 21
-34581.678915
 31
0.0
  0
ARC
  5
2F1
100
AcDbEntity
  8
LAY-1
  6
CONTINUOUS
 62
     3
100
AcDbCircle
 10
-11970.0
 20
-34602.678915
 30
0.0
 40
1.0
100
AcDbArc
 50
270.0
 51
0.0
  0
LINE
  5
2F2
100
AcDbEntity
  8
LAY-1
  6
CONTINUOUS
 62
     3
100
AcDbLine
 10
-11970.0
 20
-34604.678915
 30
0.0
 11
-11970.0
 21
-34603.678915
 31
0.0
  0
LINE
  5
2F3
100
AcDbEntity
  8
LAY-1
  6
CONTINUOUS
 62
     3
100
AcDbLine
 10
-11970.0
 20
-34580.678915
 30
0.0
 11
-11970.0
 21
-34579.678915
 31
0.0
  0
LINE
  5
2F4
100
AcDbEntity
  8
LAY-1
  6
CONTINUOUS
 62
     3
100
AcDbLine
 10
-11970.0
 20
-34604.678915
 30
0.0
 11
-11948.0
 21
-34604.678915
 31
0.0
  0
LINE
  5
2F5
100
AcDbEntity
  8
LAY-1
  6
CONTINUOUS
 62
     3
100
AcDbLine
 10
-11948.0
 20
-34603.678915
 30
0.0
 11
-11970.0
 21
-34603.678915
 31
0.0
  0
LINE
  5
2F6
100
AcDbEntity
  8
LAY-1
  6
CONTINUOUS
 62
     3
100
AcDbLine
 10
-11948.0
 20
-34580.678915
 30
0.0
 11
-11970.0
 21
-34580.678915
 31
0.0
  0
LINE
  5
2F7
100
AcDbEntity
  8
LAY-1
  6
CONTINUOUS
 62
     3
100
AcDbLine
 10
-11948.0
 20
-34579.678915
 30
0.0
 11
-11970.0
 21
-34579.678915
 31
0.0
  0
LINE
  5
2F8
100
AcDbEntity
  8
LAY-1
  6
CONTINUOUS
 62
     3
100
AcDbLine
 10
-11950.0
 20
-34575.178915
 30
0.0
 11
-11978.0
 21
-34575.178915
 31
0.0
  0
LINE
  5
2F9
100
AcDbEntity
  8
LAY-1
  6
CONTINUOUS
 62
     3
100
AcDbLine
 10
-11590.0
 20
-34486.178915
 30
0.0
 11
-11590.0
 21
-34462.178915
 31
0.0
  0
LINE
  5
2FA
100
AcDbEntity
  8
LAY-1
  6
CONTINUOUS
 62
     3
100
AcDbLine
 10
-11626.980227
 20
-34486.178915
 30
0.0
 11
-11590.0
 21
-34486.178915
 31
0.0
  0
LINE
  5
2FB
100
AcDbEntity
  8
LAY-1
  6
CONTINUOUS
 62
     3
100
AcDbLine
 10
-11628.0
 20
-34485.178915
 30
0.0
 11
-11628.0
 21
-34463.178915
 31
0.0
  0
ARC
  5
2FC
100
AcDbEntity
  8
LAY-1
  6
CONTINUOUS
 62
     3
100
AcDbCircle
 10
-11627.0
 20
-34463.178915
 30
0.0
 40
1.0
100
AcDbArc
 50
90.0
 51
180.0
  0
ARC
  5
2FD
100
AcDbEntity
  8
LAY-1
  6
CONTINUOUS
 62
     3
100
AcDbCircle
 10
-11627.0
 20
-34485.178915
 30
0.0
 40
1.0
100
AcDbArc
 50
180.0
 51
270.0
  0
LINE
  5
2FE
100
AcDbEntity
  8
LAY-1
  6
CONTINUOUS
 62
     3
100
AcDbLine
 10
-11590.0
 20
-34462.178915
 30
0.0
 11
-11626.980227
 21
-34462.178915
 31
0.0
  0
LINE
  5
2FF
100
AcDbEntity
  8
LAY-1
  6
EXLTYPE1
 62
     1
100
AcDbLine
 10
-11609.0
 20
-34491.178915
 30
0.0
 11
-11609.0
 21
-34457.178915
 31
0.0
  0
LINE
  5
300
100
AcDbEntity
  8
LAY-1
  6
EXLTYPE1
 62
     1
100
AcDbLine
 10
-11633.0
 20
-34474.178915
 30
0.0
 11
-11585.0
 21
-34474.178915
 31
0.0
  0
LINE
  5
301
100
AcDbEntity
  8
LAY-1
  6
CONTINUOUS
 62
     3
100
AcDbLine
 10
-11516.995665
 20
-34575.178915
 30
0.0
 11
-11540.995665
 21
-34575.178915
 31
0.0
  0
LINE
  5
302
100
AcDbEntity
  8
LAY-1
  6
CONTINUOUS
 62
     3
100
AcDbLine
 10
-11516.995665
 20
-34685.178915
 30
0.0
 11
-11540.995665
 21
-34685.178915
 31
0.0
  0
LINE
  5
303
100
AcDbEntity
  8
LAY-1
  6
CONTINUOUS
 62
     3
100
AcDbLine
 10
-11519.995665
 20
-34575.178915
 30
0.0
 11
-11522.495665
 21
-34572.678915
 31
0.0
  0
LINE
  5
304
100
AcDbEntity
  8
LAY-1
  6
CONTINUOUS
 62
     3
100
AcDbLine
 10
-11537.995665
 20
-34575.178915
 30
0.0
 11
-11535.495665
 21
-34572.678915
 31
0.0
  0
LINE
  5
305
100
AcDbEntity
  8
LAY-1
  6
CONTINUOUS
 62
     3
100
AcDbLine
 10
-11535.495665
 20
-34572.678915
 30
0.0
 11
-11522.495665
 21
-34572.678915
 31
0.0
  0
LINE
  5
306
100
AcDbEntity
  8
LAY-1
  6
CONTINUOUS
 62
     3
100
AcDbLine
 10
-11519.995665
 20
-34575.178915
 30
0.0
 11
-11537.995665
 21
-34575.178915
 31
0.0
  0
LINE
  5
307
100
AcDbEntity
  8
LAY-1
  6
CONTINUOUS
 62
     3
100
AcDbLine
 10
-11600.0
 20
-34575.178915
 30
0.0
 11
-11602.5
 21
-34572.678915
 31
0.0
  0
LINE
  5
308
100
AcDbEntity
  8
LAY-1
  6
CONTINUOUS
 62
     3
100
AcDbLine
 10
-11618.0
 20
-34575.178915
 30
0.0
 11
-11615.5
 21
-34572.678915
 31
0.0
  0
LINE
  5
309
100
AcDbEntity
  8
LAY-1
  6
CONTINUOUS
 62
     3
100
AcDbLine
 10
-11615.5
 20
-34572.678915
 30
0.0
 11
-11602.5
 21
-34572.678915
 31
0.0
  0
CIRCLE
  5
30A
100
AcDbEntity
  8
LAY-1
  6
CONTINUOUS
 62
     3
100
AcDbCircle
 10
-11609.0
 20
-34474.178915
 30
0.0
 40
9.0
  0
CIRCLE
  5
30B
100
AcDbEntity
  8
LAY-1
  6
CONTINUOUS
 62
     3
100
AcDbCircle
 10
-11609.0
 20
-34474.178915
 30
0.0
 40
5.5
  0
ARC
  5
30C
100
AcDbEntity
  8
LAY-1
  6
CONTINUOUS
 62
     3
100
AcDbCircle
 10
-11598.0
 20
-34581.678915
 30
0.0
 40
1.0
100
AcDbArc
 50
90.0
 51
180.0
  0
LINE
  5
30D
100
AcDbEntity
  8
LAY-1
  6
CONTINUOUS
 62
     3
100
AcDbLine
 10
-11599.0
 20
-34602.678915
 30
0.0
 11
-11599.0
 21
-34581.678915
 31
0.0
  0
ARC
  5
30E
100
AcDbEntity
  8
LAY-1
  6
CONTINUOUS
 62
     3
100
AcDbCircle
 10
-11598.0
 20
-34602.678915
 30
0.0
 40
1.0
100
AcDbArc
 50
180.0
 51
270.0
  0
LINE
  5
30F
100
AcDbEntity
  8
LAY-1
  6
CONTINUOUS
 62
     3
100
AcDbLine
 10
-11598.0
 20
-34604.678915
 30
0.0
 11
-11598.0
 21
-34603.678915
 31
0.0
  0
LINE
  5
310
100
AcDbEntity
  8
LAY-1
  6
CONTINUOUS
 62
     3
100
AcDbLine
 10
-11598.0
 20
-34580.678915
 30
0.0
 11
-11598.0
 21
-34579.678915
 31
0.0
  0
ARC
  5
311
100
AcDbEntity
  8
LAY-1
  6
CONTINUOUS
 62
     3
100
AcDbCircle
 10
-11620.0
 20
-34581.678915
 30
0.0
 40
1.0
100
AcDbArc
 50
0.0
 51
90.0
  0
LINE
  5
312
100
AcDbEntity
  8
LAY-1
  6
CONTINUOUS
 62
     3
100
AcDbLine
 10
-11619.0
 20
-34602.678915
 30
0.0
 11
-11619.0
 21
-34581.678915
 31
0.0
  0
ARC
  5
313
100
AcDbEntity
  8
LAY-1
  6
CONTINUOUS
 62
     3
100
AcDbCircle
 10
-11620.0
 20
-34602.678915
 30
0.0
 40
1.0
100
AcDbArc
 50
270.0
 51
0.0
  0
LINE
  5
314
100
AcDbEntity
  8
LAY-1
  6
CONTINUOUS
 62
     3
100
AcDbLine
 10
-11620.0
 20
-34604.678915
 30
0.0
 11
-11620.0
 21
-34603.678915
 31
0.0
  0
LINE
  5
315
100
AcDbEntity
  8
LAY-1
  6
CONTINUOUS
 62
     3
100
AcDbLine
 10
-11620.0
 20
-34580.678915
 30
0.0
 11
-11620.0
 21
-34579.678915
 31
0.0
  0
LINE
  5
316
100
AcDbEntity
  8
LAY-1
  6
CONTINUOUS
 62
     3
100
AcDbLine
 10
-11620.0
 20
-34604.678915
 30
0.0
 11
-11598.0
 21
-34604.678915
 31
0.0
  0
LINE
  5
317
100
AcDbEntity
  8
LAY-1
  6
CONTINUOUS
 62
     3
100
AcDbLine
 10
-11598.0
 20
-34603.678915
 30
0.0
 11
-11620.0
 21
-34603.678915
 31
0.0
  0
LINE
  5
318
100
AcDbEntity
  8
LAY-1
  6
CONTINUOUS
 62
     3
100
AcDbLine
 10
-11598.0
 20
-34580.678915
 30
0.0
 11
-11620.0
 21
-34580.678915
 31
0.0
  0
LINE
  5
319
100
AcDbEntity
  8
LAY-1
  6
CONTINUOUS
 62
     3
100
AcDbLine
 10
-11598.0
 20
-34579.678915
 30
0.0
 11
-11620.0
 21
-34579.678915
 31
0.0
  0
LINE
  5
31A
100
AcDbEntity
  8
LAY-1
  6
CONTINUOUS
 62
     3
100
AcDbLine
 10
-11600.0
 20
-34575.178915
 30
0.0
 11
-11628.0
 21
-34575.178915
 31
0.0
  0
LINE
  5
31B
100
AcDbEntity
  8
LAY-1
  6
CONTINUOUS
 62
     3
100
AcDbLine
 10
-11244.0
 20
-34581.678915
 30
0.0
 11
-11244.0
 21
-34580.678915
 31
0.0
  0
LINE
  5
31C
100
AcDbEntity
  8
LAY-1
  6
CONTINUOUS
 62
     3
100
AcDbLine
 10
-11244.0
 20
-34601.678915
 30
0.0
 11
-11244.0
 21
-34599.678915
 31
0.0
  0
ARC
  5
31D
100
AcDbEntity
  8
LAY-1
  6
CONTINUOUS
 62
     3
100
AcDbCircle
 10
-11244.0
 20
-34598.678915
 30
0.0
 40
1.0
100
AcDbArc
 50
180.0
 51
270.0
  0
LINE
  5
31E
100
AcDbEntity
  8
LAY-1
  6
CONTINUOUS
 62
     3
100
AcDbLine
 10
-11245.0
 20
-34598.678915
 30
0.0
 11
-11245.0
 21
-34582.678915
 31
0.0
  0
ARC
  5
31F
100
AcDbEntity
  8
LAY-1
  6
CONTINUOUS
 62
     3
100
AcDbCircle
 10
-11244.0
 20
-34582.678915
 30
0.0
 40
1.0
100
AcDbArc
 50
90.0
 51
180.0
  0
LINE
  5
320
100
AcDbEntity
  8
LAY-1
  6
CONTINUOUS
 62
     3
100
AcDbLine
 10
-11259.0
 20
-34601.678915
 30
0.0
 11
-11244.0
 21
-34601.678915
 31
0.0
  0
LINE
  5
321
100
AcDbEntity
  8
LAY-1
  6
CONTINUOUS
 62
     3
100
AcDbLine
 10
-11244.0
 20
-34599.678915
 30
0.0
 11
-11259.0
 21
-34599.678915
 31
0.0
  0
LINE
  5
322
100
AcDbEntity
  8
LAY-1
  6
CONTINUOUS
 62
     3
100
AcDbLine
 10
-11244.0
 20
-34581.678915
 30
0.0
 11
-11259.0
 21
-34581.678915
 31
0.0
  0
LINE
  5
323
100
AcDbEntity
  8
LAY-1
  6
CONTINUOUS
 62
     3
100
AcDbLine
 10
-11244.0
 20
-34580.678915
 30
0.0
 11
-11259.0
 21
-34580.678915
 31
0.0
  0
LINE
  5
324
100
AcDbEntity
  8
LAY-1
  6
CONTINUOUS
 62
     3
100
AcDbLine
 10
-11248.0
 20
-34575.178915
 30
0.0
 11
-11250.5
 21
-34571.678915
 31
0.0
  0
LINE
  5
325
100
AcDbEntity
  8
LAY-1
  6
CONTINUOUS
 62
     3
100
AcDbLine
 10
-11259.0
 20
-34571.678915
 30
0.0
 11
-11250.5
 21
-34571.678915
 31
0.0
  0
LINE
  5
326
100
AcDbEntity
  8
LAY-1
  6
CONTINUOUS
 62
     3
100
AcDbLine
 10
-11248.0
 20
-34575.178915
 30
0.0
 11
-11259.0
 21
-34575.178915
 31
0.0
  0
LINE
  5
327
100
AcDbEntity
  8
LAY-1
  6
CONTINUOUS
 62
     3
100
AcDbLine
 10
-11274.0
 20
-34581.678915
 30
0.0
 11
-11274.0
 21
-34580.678915
 31
0.0
  0
LINE
  5
328
100
AcDbEntity
  8
LAY-1
  6
CONTINUOUS
 62
     3
100
AcDbLine
 10
-11274.0
 20
-34601.678915
 30
0.0
 11
-11274.0
 21
-34599.678915
 31
0.0
  0
ARC
  5
329
100
AcDbEntity
  8
LAY-1
  6
CONTINUOUS
 62
     3
100
AcDbCircle
 10
-11274.0
 20
-34598.678915
 30
0.0
 40
1.0
100
AcDbArc
 50
270.0
 51
0.0
  0
LINE
  5
32A
100
AcDbEntity
  8
LAY-1
  6
CONTINUOUS
 62
     3
100
AcDbLine
 10
-11273.0
 20
-34598.678915
 30
0.0
 11
-11273.0
 21
-34582.678915
 31
0.0
  0
ARC
  5
32B
100
AcDbEntity
  8
LAY-1
  6
CONTINUOUS
 62
     3
100
AcDbCircle
 10
-11274.0
 20
-34582.678915
 30
0.0
 40
1.0
100
AcDbArc
 50
0.0
 51
90.0
  0
LINE
  5
32C
100
AcDbEntity
  8
LAY-1
  6
CONTINUOUS
 62
     3
100
AcDbLine
 10
-11259.0
 20
-34601.678915
 30
0.0
 11
-11274.0
 21
-34601.678915
 31
0.0
  0
LINE
  5
32D
100
AcDbEntity
  8
LAY-1
  6
CONTINUOUS
 62
     3
100
AcDbLine
 10
-11274.0
 20
-34599.678915
 30
0.0
 11
-11259.0
 21
-34599.678915
 31
0.0
  0
LINE
  5
32E
100
AcDbEntity
  8
LAY-1
  6
CONTINUOUS
 62
     3
100
AcDbLine
 10
-11274.0
 20
-34581.678915
 30
0.0
 11
-11259.0
 21
-34581.678915
 31
0.0
  0
LINE
  5
32F
100
AcDbEntity
  8
LAY-1
  6
CONTINUOUS
 62
     3
100
AcDbLine
 10
-11274.0
 20
-34580.678915
 30
0.0
 11
-11259.0
 21
-34580.678915
 31
0.0
  0
LINE
  5
330
100
AcDbEntity
  8
LAY-1
  6
CONTINUOUS
 62
     3
100
AcDbLine
 10
-11270.0
 20
-34575.178915
 30
0.0
 11
-11267.5
 21
-34571.678915
 31
0.0
  0
LINE
  5
331
100
AcDbEntity
  8
LAY-1
  6
CONTINUOUS
 62
     3
100
AcDbLine
 10
-11259.0
 20
-34571.678915
 30
0.0
 11
-11267.5
 21
-34571.678915
 31
0.0
  0
LINE
  5
332
100
AcDbEntity
  8
LAY-1
  6
CONTINUOUS
 62
     3
100
AcDbLine
 10
-11270.0
 20
-34575.178915
 30
0.0
 11
-11259.0
 21
-34575.178915
 31
0.0
  0
CIRCLE
  5
333
100
AcDbEntity
  8
LAY-1
  6
CONTINUOUS
 62
     3
100
AcDbCircle
 10
-11259.0
 20
-34474.178915
 30
0.0
 40
11.0
  0
LINE
  5
334
100
AcDbEntity
  8
LAY-1
  6
CONTINUOUS
 62
     3
100
AcDbLine
 10
-11167.995665
 20
-34575.178915
 30
0.0
 11
-11170.495665
 21
-34571.678915
 31
0.0
  0
LINE
  5
335
100
AcDbEntity
  8
LAY-1
  6
CONTINUOUS
 62
     3
100
AcDbLine
 10
-11178.995665
 20
-34571.678915
 30
0.0
 11
-11170.495665
 21
-34571.678915
 31
0.0
  0
LINE
  5
336
100
AcDbEntity
  8
LAY-1
  6
CONTINUOUS
 62
     3
100
AcDbLine
 10
-11167.995665
 20
-34575.178915
 30
0.0
 11
-11178.995665
 21
-34575.178915
 31
0.0
  0
LINE
  5
337
100
AcDbEntity
  8
LAY-1
  6
CONTINUOUS
 62
     3
100
AcDbLine
 10
-11189.995665
 20
-34575.178915
 30
0.0
 11
-11187.495665
 21
-34571.678915
 31
0.0
  0
LINE
  5
338
100
AcDbEntity
  8
LAY-1
  6
CONTINUOUS
 62
     3
100
AcDbLine
 10
-11178.995665
 20
-34571.678915
 30
0.0
 11
-11187.495665
 21
-34571.678915
 31
0.0
  0
LINE
  5
339
100
AcDbEntity
  8
LAY-1
  6
CONTINUOUS
 62
     3
100
AcDbLine
 10
-11189.995665
 20
-34575.178915
 30
0.0
 11
-11178.995665
 21
-34575.178915
 31
0.0
  0
CIRCLE
  5
33A
100
AcDbEntity
  8
LAY-1
  6
CONTINUOUS
 62
     3
100
AcDbCircle
 10
-11259.0
 20
-34474.178915
 30
0.0
 40
6.25
  0
LINE
  5
33B
100
AcDbEntity
  8
LAY-1
  6
CONTINUOUS
 62
     3
100
AcDbLine
 10
-10935.77896
 20
-34494.178915
 30
0.0
 11
-10935.77896
 21
-34454.178915
 31
0.0
  0
LINE
  5
33C
100
AcDbEntity
  8
LAY-1
  6
CONTINUOUS
 62
     3
100
AcDbLine
 10
-10880.77896
 20
-34494.178915
 30
0.0
 11
-10880.77896
 21
-34454.178915
 31
0.0
  0
LINE
  5
33D
100
AcDbEntity
  8
LAY-1
  6
CONTINUOUS
 62
     3
100
AcDbLine
 10
-10935.77896
 20
-34454.178915
 30
0.0
 11
-10880.77896
 21
-34454.178915
 31
0.0
  0
LINE
  5
33E
100
AcDbEntity
  8
LAY-1
  6
CONTINUOUS
 62
     3
100
AcDbLine
 10
-10935.77896
 20
-34494.178915
 30
0.0
 11
-10880.77896
 21
-34494.178915
 31
0.0
  0
LINE
  5
33F
100
AcDbEntity
  8
LAY-1
  6
EXLTYPE1
 62
     1
100
AcDbLine
 10
-10908.27896
 20
-34501.478915
 30
0.0
 11
-10908.27896
 21
-34449.178915
 31
0.0
  0
LINE
  5
340
100
AcDbEntity
  8
LAY-1
  6
EXLTYPE1
 62
     1
100
AcDbLine
 10
-10940.77896
 20
-34474.178915
 30
0.0
 11
-10875.77896
 21
-34474.178915
 31
0.0
  0
LINE
  5
341
100
AcDbEntity
  8
LAY-1
  6
EXLTYPE2
 62
     1
100
AcDbLine
 10
-10933.47896
 20
-34494.178915
 30
0.0
 11
-10933.47896
 21
-34454.178915
 31
0.0
  0
LINE
  5
342
100
AcDbEntity
  8
LAY-1
  6
EXLTYPE2
 62
     1
100
AcDbLine
 10
-10883.07896
 20
-34494.178915
 30
0.0
 11
-10883.07896
 21
-34454.178915
 31
0.0
  0
LINE
  5
343
100
AcDbEntity
  8
LAY-1
  6
CONTINUOUS
 62
     3
100
AcDbLine
 10
-10935.77896
 20
-34700.578906
 30
0.0
 11
-10935.77896
 21
-34579.778906
 31
0.0
  0
LINE
  5
344
100
AcDbEntity
  8
LAY-1
  6
CONTINUOUS
 62
     3
100
AcDbLine
 10
-10928.47896
 20
-34702.878906
 30
0.0
 11
-10928.47896
 21
-34700.578906
 31
0.0
  0
LINE
  5
345
100
AcDbEntity
  8
LAY-1
  6
CONTINUOUS
 62
     3
100
AcDbLine
 10
-10933.47896
 20
-34700.578906
 30
0.0
 11
-10933.47896
 21
-34579.778906
 31
0.0
  0
LINE
  5
346
100
AcDbEntity
  8
LAY-1
  6
CONTINUOUS
 62
     3
100
AcDbLine
 10
-10931.17896
 20
-34575.178906
 30
0.0
 11
-10885.37896
 21
-34575.178906
 31
0.0
  0
LINE
  5
347
100
AcDbEntity
  8
LAY-1
  6
CONTINUOUS
 62
     3
100
AcDbLine
 10
-10931.17896
 20
-34705.178906
 30
0.0
 11
-10887.77896
 21
-34705.17889
 31
0.0
  0
LINE
  5
348
100
AcDbEntity
  8
LAY-1
  6
CONTINUOUS
 62
     3
100
AcDbLine
 10
-10931.17896
 20
-34702.878906
 30
0.0
 11
-10885.37896
 21
-34702.878906
 31
0.0
  0
LINE
  5
349
100
AcDbEntity
  8
LAY-1
  6
CONTINUOUS
 62
     3
100
AcDbLine
 10
-10928.47896
 20
-34700.578906
 30
0.0
 11
-10885.37896
 21
-34700.578906
 31
0.0
  0
LINE
  5
34A
100
AcDbEntity
  8
LAY-1
  6
CONTINUOUS
 62
     3
100
AcDbLine
 10
-10880.77896
 20
-34698.278906
 30
0.0
 11
-10880.77896
 21
-34579.778906
 31
0.0
  0
LINE
  5
34B
100
AcDbEntity
  8
LAY-1
  6
CONTINUOUS
 62
     3
100
AcDbLine
 10
-10880.77896
 20
-34698.278906
 30
0.0
 11
-10880.77896
 21
-34579.778906
 31
0.0
  0
LINE
  5
34C
100
AcDbEntity
  8
LAY-1
  6
CONTINUOUS
 62
     3
100
AcDbLine
 10
-10887.77896
 20
-34705.17889
 30
0.0
 11
-10887.77896
 21
-34702.87889
 31
0.0
  0
LINE
  5
34D
100
AcDbEntity
  8
LAY-1
  6
CONTINUOUS
 62
     3
100
AcDbLine
 10
-10931.17896
 20
-34577.478906
 30
0.0
 11
-10885.37896
 21
-34577.478906
 31
0.0
  0
LINE
  5
34E
100
AcDbEntity
  8
LAY-1
  6
CONTINUOUS
 62
     3
100
AcDbLine
 10
-10883.07896
 20
-34579.778906
 30
0.0
 11
-10883.07896
 21
-34698.278906
 31
0.0
  0
ARC
  5
34F
100
AcDbEntity
  8
LAY-1
  6
CONTINUOUS
 62
     3
100
AcDbCircle
 10
-10931.17896
 20
-34700.578906
 30
0.0
 40
2.3
100
AcDbArc
 50
180.0
 51
270.0
  0
ARC
  5
350
100
AcDbEntity
  8
LAY-1
  6
CONTINUOUS
 62
     3
100
AcDbCircle
 10
-10931.17896
 20
-34700.578906
 30
0.0
 40
4.6
100
AcDbArc
 50
180.0
 51
270.0
  0
ARC
  5
351
100
AcDbEntity
  8
LAY-1
  6
CONTINUOUS
 62
     3
100
AcDbCircle
 10
-10885.37896
 20
-34698.278906
 30
0.0
 40
2.3
100
AcDbArc
 50
270.0
 51
0.0
  0
ARC
  5
352
100
AcDbEntity
  8
LAY-1
  6
CONTINUOUS
 62
     3
100
AcDbCircle
 10
-10885.37896
 20
-34698.278906
 30
0.0
 40
4.6
100
AcDbArc
 50
270.0
 51
0.0
  0
ARC
  5
353
100
AcDbEntity
  8
LAY-1
  6
CONTINUOUS
 62
     3
100
AcDbCircle
 10
-10931.17896
 20
-34579.778906
 30
0.0
 40
2.3
100
AcDbArc
 50
90.0
 51
180.0
  0
ARC
  5
354
100
AcDbEntity
  8
LAY-1
  6
CONTINUOUS
 62
     3
100
AcDbCircle
 10
-10931.17896
 20
-34579.778906
 30
0.0
 40
4.6
100
AcDbArc
 50
90.0
 51
180.0
  0
ARC
  5
355
100
AcDbEntity
  8
LAY-1
  6
CONTINUOUS
 62
     3
100
AcDbCircle
 10
-10885.37896
 20
-34579.778906
 30
0.0
 40
2.3
100
AcDbArc
 50
0.0
 51
90.0
  0
ARC
  5
356
100
AcDbEntity
  8
LAY-1
  6
CONTINUOUS
 62
     3
100
AcDbCircle
 10
-10885.37896
 20
-34579.778906
 30
0.0
 40
4.6
100
AcDbArc
 50
0.0
 51
90.0
  0
LINE
  5
357
100
AcDbEntity
  8
LAY-1
  6
CONTINUOUS
 62
     3
100
AcDbLine
 10
-10890.582188
 20
-34708.179101
 30
0.0
 11
-10889.582188
 21
-34705.178559
 31
0.0
  0
LINE
  5
358
100
AcDbEntity
  8
LAY-1
  6
CONTINUOUS
 62
     3
100
AcDbLine
 10
-10925.956629
 20
-34708.179302
 30
0.0
 11
-10925.956629
 21
-34705.179212
 31
0.0
  0
LINE
  5
359
100
AcDbEntity
  8
LAY-1
  6
CONTINUOUS
 62
     3
100
AcDbLine
 10
-10922.421095
 20
-34708.179221
 30
0.0
 11
-10922.421095
 21
-34705.179151
 31
0.0
  0
LINE
  5
35A
100
AcDbEntity
  8
LAY-1
  6
EXLTYPE1
 62
     1
100
AcDbLine
 10
-10908.27896
 20
-34710.178906
 30
0.0
 11
-10908.27896
 21
-34695.578906
 31
0.0
  0
LINE
  5
35B
100
AcDbEntity
  8
LAY-1
  6
EXLTYPE1
 62
     1
100
AcDbLine
 10
-10908.27896
 20
-34570.178906
 30
0.0
 11
-10908.27896
 21
-34582.478906
 31
0.0
  0
LINE
  5
35C
100
AcDbEntity
  8
LAY-1
  6
EXLTYPE2
 62
     1
100
AcDbLine
 10
-10918.77896
 20
-34705.178906
 30
0.0
 11
-10918.77896
 21
-34700.578906
 31
0.0
  0
LINE
  5
35D
100
AcDbEntity
  8
LAY-1
  6
EXLTYPE2
 62
     1
100
AcDbLine
 10
-10897.77896
 20
-34705.178906
 30
0.0
 11
-10897.77896
 21
-34700.578906
 31
0.0
  0
LINE
  5
35E
100
AcDbEntity
  8
LAY-1
  6
EXLTYPE2
 62
     1
100
AcDbLine
 10
-10918.77896
 20
-34575.178906
 30
0.0
 11
-10918.77896
 21
-34577.478906
 31
0.0
  0
LINE
  5
35F
100
AcDbEntity
  8
LAY-1
  6
EXLTYPE2
 62
     1
100
AcDbLine
 10
-10897.77896
 20
-34575.178906
 30
0.0
 11
-10897.77896
 21
-34577.478906
 31
0.0
  0
LINE
  5
360
100
AcDbEntity
  8
LAY-1
  6
CONTINUOUS
 62
     3
100
AcDbLine
 10
-10813.274048
 20
-34705.178897
 30
0.0
 11
-10773.274048
 21
-34705.178897
 31
0.0
  0
LINE
  5
361
100
AcDbEntity
  8
LAY-1
  6
CONTINUOUS
 62
     3
100
AcDbLine
 10
-10813.274048
 20
-34702.878897
 30
0.0
 11
-10773.274048
 21
-34702.878897
 31
0.0
  0
LINE
  5
362
100
AcDbEntity
  8
LAY-1
  6
CONTINUOUS
 62
     3
100
AcDbLine
 10
-10773.274048
 20
-34705.178897
 30
0.0
 11
-10773.274048
 21
-34575.178897
 31
0.0
  0
LINE
  5
363
100
AcDbEntity
  8
LAY-1
  6
CONTINUOUS
 62
     3
100
AcDbLine
 10
-10813.274048
 20
-34705.178897
 30
0.0
 11
-10813.274048
 21
-34575.178897
 31
0.0
  0
LINE
  5
364
100
AcDbEntity
  8
LAY-1
  6
CONTINUOUS
 62
     3
100
AcDbLine
 10
-10813.274048
 20
-34575.178897
 30
0.0
 11
-10773.274048
 21
-34575.178897
 31
0.0
  0
LINE
  5
365
100
AcDbEntity
  8
LAY-1
  6
CONTINUOUS
 62
     3
100
AcDbLine
 10
-10810.956629
 20
-34708.178712
 30
0.0
 11
-10811.956629
 21
-34705.178897
 31
0.0
  0
LINE
  5
366
100
AcDbEntity
  8
LAY-1
  6
CONTINUOUS
 62
     3
100
AcDbLine
 10
-10779.136824
 20
-34708.178712
 30
0.0
 11
-10779.136824
 21
-34705.178897
 31
0.0
  0
LINE
  5
367
100
AcDbEntity
  8
LAY-1
  6
CONTINUOUS
 62
     3
100
AcDbLine
 10
-10775.60129
 20
-34708.178712
 30
0.0
 11
-10775.60129
 21
-34705.178897
 31
0.0
  0
LINE
  5
368
100
AcDbEntity
  8
LAY-1
  6
EXLTYPE2
 62
     1
100
AcDbLine
 10
-10813.274048
 20
-34700.578897
 30
0.0
 11
-10773.274048
 21
-34700.578897
 31
0.0
  0
LINE
  5
369
100
AcDbEntity
  8
LAY-1
  6
EXLTYPE2
 62
     1
100
AcDbLine
 10
-10813.274048
 20
-34577.478897
 30
0.0
 11
-10773.274048
 21
-34577.478897
 31
0.0
  0
LINE
  5
36A
100
AcDbEntity
  8
LAY-1
  6
EXLTYPE2
 62
     1
100
AcDbLine
 10
-10803.77896
 20
-34705.178897
 30
0.0
 11
-10803.77896
 21
-34700.578897
 31
0.0
  0
LINE
  5
36B
100
AcDbEntity
  8
LAY-1
  6
EXLTYPE2
 62
     1
100
AcDbLine
 10
-10782.77896
 20
-34705.178897
 30
0.0
 11
-10782.77896
 21
-34700.578897
 31
0.0
  0
LINE
  5
36C
100
AcDbEntity
  8
LAY-1
  6
EXLTYPE2
 62
     1
100
AcDbLine
 10
-10803.77896
 20
-34575.178897
 30
0.0
 11
-10803.77896
 21
-34577.478897
 31
0.0
  0
LINE
  5
36D
100
AcDbEntity
  8
LAY-1
  6
EXLTYPE2
 62
     1
100
AcDbLine
 10
-10782.77896
 20
-34575.178897
 30
0.0
 11
-10782.77896
 21
-34577.478897
 31
0.0
  0
LINE
  5
36E
100
AcDbEntity
  8
LAY-1
  6
CONTINUOUS
 62
     3
100
AcDbLine
 10
-10928.27896
 20
-34675.578906
 30
0.0
 11
-10908.27896
 21
-34675.578906
 31
0.0
  0
LINE
  5
36F
100
AcDbEntity
  8
LAY-1
  6
CONTINUOUS
 62
     3
100
AcDbLine
 10
-10917.77896
 20
-34710.578906
 30
0.0
 11
-10908.27896
 21
-34710.578906
 31
0.0
  0
LINE
  5
370
100
AcDbEntity
  8
LAY-1
  6
CONTINUOUS
 62
     3
100
AcDbLine
 10
-10917.77896
 20
-34710.578906
 30
0.0
 11
-10920.27896
 21
-34707.078906
 31
0.0
  0
LINE
  5
371
100
AcDbEntity
  8
LAY-1
  6
CONTINUOUS
 62
     3
100
AcDbLine
 10
-10928.27896
 20
-34675.578906
 30
0.0
 11
-10928.27896
 21
-34677.578906
 31
0.0
  0
ARC
  5
372
100
AcDbEntity
  8
LAY-1
  6
CONTINUOUS
 62
     3
100
AcDbCircle
 10
-10919.27896
 20
-34706.578906
 30
0.0
 40
0.5
100
AcDbArc
 50
270.0
 51
0.0
  0
LINE
  5
373
100
AcDbEntity
  8
LAY-1
  6
CONTINUOUS
 62
     3
100
AcDbLine
 10
-10928.27896
 20
-34699.578906
 30
0.0
 11
-10928.27896
 21
-34700.578906
 31
0.0
  0
ARC
  5
374
100
AcDbEntity
  8
LAY-1
  6
CONTINUOUS
 62
     3
100
AcDbCircle
 10
-10928.27896
 20
-34678.828906
 30
0.0
 40
1.25
100
AcDbArc
 50
0.0
 51
90.0
  0
LINE
  5
375
100
AcDbEntity
  8
LAY-1
  6
CONTINUOUS
 62
     3
100
AcDbLine
 10
-10927.02896
 20
-34678.828906
 30
0.0
 11
-10927.02896
 21
-34698.328906
 31
0.0
  0
ARC
  5
376
100
AcDbEntity
  8
LAY-1
  6
CONTINUOUS
 62
     3
100
AcDbCircle
 10
-10928.27896
 20
-34698.328906
 30
0.0
 40
1.25
100
AcDbArc
 50
270.0
 51
0.0
  0
LINE
  5
377
100
AcDbEntity
  8
LAY-1
  6
CONTINUOUS
 62
     3
100
AcDbLine
 10
-10908.27896
 20
-34677.578906
 30
0.0
 11
-10928.27896
 21
-34677.578906
 31
0.0
  0
LINE
  5
378
100
AcDbEntity
  8
LAY-1
  6
CONTINUOUS
 62
     3
100
AcDbLine
 10
-10908.27896
 20
-34700.578906
 30
0.0
 11
-10928.27896
 21
-34700.578906
 31
0.0
  0
LINE
  5
379
100
AcDbEntity
  8
LAY-1
  6
CONTINUOUS
 62
     3
100
AcDbLine
 10
-10908.27896
 20
-34707.078906
 30
0.0
 11
-10920.27896
 21
-34707.078906
 31
0.0
  0
LINE
  5
37A
100
AcDbEntity
  8
LAY-1
  6
CONTINUOUS
 62
     3
100
AcDbLine
 10
-10908.27896
 20
-34699.578906
 30
0.0
 11
-10928.27896
 21
-34699.578906
 31
0.0
  0
LINE
  5
37B
100
AcDbEntity
  8
LAY-1
  6
CONTINUOUS
 62
     3
100
AcDbLine
 10
-10888.27896
 20
-34675.578906
 30
0.0
 11
-10908.27896
 21
-34675.578906
 31
0.0
  0
LINE
  5
37C
100
AcDbEntity
  8
LAY-1
  6
CONTINUOUS
 62
     3
100
AcDbLine
 10
-10898.77896
 20
-34710.578906
 30
0.0
 11
-10908.27896
 21
-34710.578906
 31
0.0
  0
LINE
  5
37D
100
AcDbEntity
  8
LAY-1
  6
CONTINUOUS
 62
     3
100
AcDbLine
 10
-10898.77896
 20
-34710.578906
 30
0.0
 11
-10896.27896
 21
-34707.078906
 31
0.0
  0
LINE
  5
37E
100
AcDbEntity
  8
LAY-1
  6
CONTINUOUS
 62
     3
100
AcDbLine
 10
-10888.27896
 20
-34675.578906
 30
0.0
 11
-10888.27896
 21
-34677.578906
 31
0.0
  0
ARC
  5
37F
100
AcDbEntity
  8
LAY-1
  6
CONTINUOUS
 62
     3
100
AcDbCircle
 10
-10897.27896
 20
-34706.578906
 30
0.0
 40
0.5
100
AcDbArc
 50
180.0
 51
270.0
  0
LINE
  5
380
100
AcDbEntity
  8
LAY-1
  6
CONTINUOUS
 62
     3
100
AcDbLine
 10
-10888.27896
 20
-34699.578906
 30
0.0
 11
-10888.27896
 21
-34700.578906
 31
0.0
  0
ARC
  5
381
100
AcDbEntity
  8
LAY-1
  6
CONTINUOUS
 62
     3
100
AcDbCircle
 10
-10888.27896
 20
-34678.828906
 30
0.0
 40
1.25
100
AcDbArc
 50
90.0
 51
180.0
  0
LINE
  5
382
100
AcDbEntity
  8
LAY-1
  6
CONTINUOUS
 62
     3
100
AcDbLine
 10
-10889.52896
 20
-34678.828906
 30
0.0
 11
-10889.52896
 21
-34698.328906
 31
0.0
  0
ARC
  5
383
100
AcDbEntity
  8
LAY-1
  6
CONTINUOUS
 62
     3
100
AcDbCircle
 10
-10888.27896
 20
-34698.328906
 30
0.0
 40
1.25
100
AcDbArc
 50
180.0
 51
270.0
  0
LINE
  5
384
100
AcDbEntity
  8
LAY-1
  6
CONTINUOUS
 62
     3
100
AcDbLine
 10
-10908.27896
 20
-34677.578906
 30
0.0
 11
-10888.27896
 21
-34677.578906
 31
0.0
  0
LINE
  5
385
100
AcDbEntity
  8
LAY-1
  6
CONTINUOUS
 62
     3
100
AcDbLine
 10
-10908.27896
 20
-34700.578906
 30
0.0
 11
-10888.27896
 21
-34700.578906
 31
0.0
  0
LINE
  5
386
100
AcDbEntity
  8
LAY-1
  6
CONTINUOUS
 62
     3
100
AcDbLine
 10
-10908.27896
 20
-34707.078906
 30
0.0
 11
-10896.27896
 21
-34707.078906
 31
0.0
  0
LINE
  5
387
100
AcDbEntity
  8
LAY-1
  6
CONTINUOUS
 62
     3
100
AcDbLine
 10
-10908.27896
 20
-34699.578906
 30
0.0
 11
-10888.27896
 21
-34699.578906
 31
0.0
  0
LINE
  5
388
100
AcDbEntity
  8
LAY-1
  6
EXLTYPE1
 62
     1
100
AcDbLine
 10
-10908.27896
 20
-34668.478906
 30
0.0
 11
-10908.27896
 21
-34718.578906
 31
0.0
  0
LINE
  5
389
100
AcDbEntity
  8
LAY-1
  6
CONTINUOUS
 62
     3
100
AcDbLine
 10
-10888.27896
 20
-34606.678906
 30
0.0
 11
-10908.27896
 21
-34606.678906
 31
0.0
  0
LINE
  5
38A
100
AcDbEntity
  8
LAY-1
  6
CONTINUOUS
 62
     3
100
AcDbLine
 10
-10898.77896
 20
-34571.678906
 30
0.0
 11
-10908.27896
 21
-34571.678906
 31
0.0
  0
LINE
  5
38B
100
AcDbEntity
  8
LAY-1
  6
CONTINUOUS
 62
     3
100
AcDbLine
 10
-10898.77896
 20
-34571.678906
 30
0.0
 11
-10896.27896
 21
-34575.178906
 31
0.0
  0
LINE
  5
38C
100
AcDbEntity
  8
LAY-1
  6
CONTINUOUS
 62
     3
100
AcDbLine
 10
-10888.27896
 20
-34606.678906
 30
0.0
 11
-10888.27896
 21
-34604.678906
 31
0.0
  0
LINE
  5
38D
100
AcDbEntity
  8
LAY-1
  6
CONTINUOUS
 62
     3
100
AcDbLine
 10
-10888.27896
 20
-34582.678906
 30
0.0
 11
-10888.27896
 21
-34581.678906
 31
0.0
  0
ARC
  5
38E
100
AcDbEntity
  8
LAY-1
  6
CONTINUOUS
 62
     3
100
AcDbCircle
 10
-10888.27896
 20
-34603.428906
 30
0.0
 40
1.25
100
AcDbArc
 50
180.0
 51
270.0
  0
LINE
  5
38F
100
AcDbEntity
  8
LAY-1
  6
CONTINUOUS
 62
     3
100
AcDbLine
 10
-10889.52896
 20
-34603.428906
 30
0.0
 11
-10889.52896
 21
-34583.928906
 31
0.0
  0
ARC
  5
390
100
AcDbEntity
  8
LAY-1
  6
CONTINUOUS
 62
     3
100
AcDbCircle
 10
-10888.27896
 20
-34583.928906
 30
0.0
 40
1.25
100
AcDbArc
 50
90.0
 51
180.0
  0
LINE
  5
391
100
AcDbEntity
  8
LAY-1
  6
CONTINUOUS
 62
     3
100
AcDbLine
 10
-10908.27896
 20
-34604.678906
 30
0.0
 11
-10888.27896
 21
-34604.678906
 31
0.0
  0
LINE
  5
392
100
AcDbEntity
  8
LAY-1
  6
CONTINUOUS
 62
     3
100
AcDbLine
 10
-10908.27896
 20
-34581.678906
 30
0.0
 11
-10888.27896
 21
-34581.678906
 31
0.0
  0
LINE
  5
393
100
AcDbEntity
  8
LAY-1
  6
CONTINUOUS
 62
     3
100
AcDbLine
 10
-10908.27896
 20
-34575.178906
 30
0.0
 11
-10896.27896
 21
-34575.178906
 31
0.0
  0
LINE
  5
394
100
AcDbEntity
  8
LAY-1
  6
CONTINUOUS
 62
     3
100
AcDbLine
 10
-10908.27896
 20
-34582.678906
 30
0.0
 11
-10888.27896
 21
-34582.678906
 31
0.0
  0
LINE
  5
395
100
AcDbEntity
  8
LAY-1
  6
CONTINUOUS
 62
     3
100
AcDbLine
 10
-10928.27896
 20
-34606.678906
 30
0.0
 11
-10908.27896
 21
-34606.678906
 31
0.0
  0
LINE
  5
396
100
AcDbEntity
  8
LAY-1
  6
CONTINUOUS
 62
     3
100
AcDbLine
 10
-10917.77896
 20
-34571.678906
 30
0.0
 11
-10908.27896
 21
-34571.678906
 31
0.0
  0
LINE
  5
397
100
AcDbEntity
  8
LAY-1
  6
CONTINUOUS
 62
     3
100
AcDbLine
 10
-10917.77896
 20
-34571.678906
 30
0.0
 11
-10920.27896
 21
-34575.178906
 31
0.0
  0
LINE
  5
398
100
AcDbEntity
  8
LAY-1
  6
CONTINUOUS
 62
     3
100
AcDbLine
 10
-10928.27896
 20
-34606.678906
 30
0.0
 11
-10928.27896
 21
-34604.678906
 31
0.0
  0
LINE
  5
399
100
AcDbEntity
  8
LAY-1
  6
CONTINUOUS
 62
     3
100
AcDbLine
 10
-10928.27896
 20
-34582.678906
 30
0.0
 11
-10928.27896
 21
-34581.678906
 31
0.0
  0
ARC
  5
39A
100
AcDbEntity
  8
LAY-1
  6
CONTINUOUS
 62
     3
100
AcDbCircle
 10
-10928.27896
 20
-34603.428906
 30
0.0
 40
1.25
100
AcDbArc
 50
270.0
 51
0.0
  0
LINE
  5
39B
100
AcDbEntity
  8
LAY-1
  6
CONTINUOUS
 62
     3
100
AcDbLine
 10
-10927.02896
 20
-34603.428906
 30
0.0
 11
-10927.02896
 21
-34583.928906
 31
0.0
  0
ARC
  5
39C
100
AcDbEntity
  8
LAY-1
  6
CONTINUOUS
 62
     3
100
AcDbCircle
 10
-10928.27896
 20
-34583.928906
 30
0.0
 40
1.25
100
AcDbArc
 50
0.0
 51
90.0
  0
LINE
  5
39D
100
AcDbEntity
  8
LAY-1
  6
CONTINUOUS
 62
     3
100
AcDbLine
 10
-10908.27896
 20
-34604.678906
 30
0.0
 11
-10928.27896
 21
-34604.678906
 31
0.0
  0
LINE
  5
39E
100
AcDbEntity
  8
LAY-1
  6
CONTINUOUS
 62
     3
100
AcDbLine
 10
-10908.27896
 20
-34581.678906
 30
0.0
 11
-10928.27896
 21
-34581.678906
 31
0.0
  0
LINE
  5
39F
100
AcDbEntity
  8
LAY-1
  6
CONTINUOUS
 62
     3
100
AcDbLine
 10
-10908.27896
 20
-34575.178906
 30
0.0
 11
-10920.27896
 21
-34575.178906
 31
0.0
  0
LINE
  5
3A0
100
AcDbEntity
  8
LAY-1
  6
CONTINUOUS
 62
     3
100
AcDbLine
 10
-10908.27896
 20
-34582.678906
 30
0.0
 11
-10928.27896
 21
-34582.678906
 31
0.0
  0
LINE
  5
3A1
100
AcDbEntity
  8
LAY-1
  6
EXLTYPE1
 62
     1
100
AcDbLine
 10
-10908.27896
 20
-34613.778906
 30
0.0
 11
-10908.27896
 21
-34563.678906
 31
0.0
  0
LINE
  5
3A2
100
AcDbEntity
  8
LAY-1
  6
CONTINUOUS
 62
     3
100
AcDbLine
 10
-10918.77896
 20
-34577.478906
 30
0.0
 11
-10918.77896
 21
-34581.678906
 31
0.0
  0
LINE
  5
3A3
100
AcDbEntity
  8
LAY-1
  6
CONTINUOUS
 62
     3
100
AcDbLine
 10
-10897.77896
 20
-34577.478906
 30
0.0
 11
-10897.77896
 21
-34581.678906
 31
0.0
  0
LINE
  5
3A4
100
AcDbEntity
  8
LAY-1
  6
CONTINUOUS
 62
     3
100
AcDbLine
 10
-10925.956629
 20
-34708.179302
 30
0.0
 11
-10920.949988
 21
-34708.179188
 31
0.0
  0
LINE
  5
3A5
100
AcDbEntity
  8
LAY-1
  6
CONTINUOUS
 62
     3
100
AcDbLine
 10
-10895.23
 20
-34708.179101
 30
0.0
 11
-10890.582188
 21
-34708.179101
 31
0.0
  0
LINE
  5
3A6
100
AcDbEntity
  8
LAY-1
  6
CONTINUOUS
 62
     3
100
AcDbLine
 10
-10918.77896
 20
-34706.578906
 30
0.0
 11
-10918.77896
 21
-34705.178901
 31
0.0
  0
LINE
  5
3A7
100
AcDbEntity
  8
LAY-1
  6
CONTINUOUS
 62
     3
100
AcDbLine
 10
-10897.77896
 20
-34706.578906
 30
0.0
 11
-10897.77896
 21
-34705.178894
 31
0.0
  0
LINE
  5
3A8
100
AcDbEntity
  8
LAY-1
  6
CONTINUOUS
 62
     3
100
AcDbLine
 10
-10783.77896
 20
-34571.678906
 30
0.0
 11
-10793.27896
 21
-34571.678906
 31
0.0
  0
LINE
  5
3A9
100
AcDbEntity
  8
LAY-1
  6
CONTINUOUS
 62
     3
100
AcDbLine
 10
-10783.77896
 20
-34571.678906
 30
0.0
 11
-10781.27896
 21
-34575.178906
 31
0.0
  0
LINE
  5
3AA
100
AcDbEntity
  8
LAY-1
  6
CONTINUOUS
 62
     3
100
AcDbLine
 10
-10793.27896
 20
-34575.178906
 30
0.0
 11
-10781.27896
 21
-34575.178906
 31
0.0
  0
LINE
  5
3AB
100
AcDbEntity
  8
LAY-1
  6
CONTINUOUS
 62
     3
100
AcDbLine
 10
-10802.77896
 20
-34571.678906
 30
0.0
 11
-10793.27896
 21
-34571.678906
 31
0.0
  0
LINE
  5
3AC
100
AcDbEntity
  8
LAY-1
  6
CONTINUOUS
 62
     3
100
AcDbLine
 10
-10802.77896
 20
-34571.678906
 30
0.0
 11
-10805.27896
 21
-34575.178906
 31
0.0
  0
LINE
  5
3AD
100
AcDbEntity
  8
LAY-1
  6
CONTINUOUS
 62
     3
100
AcDbLine
 10
-10793.27896
 20
-34575.178906
 30
0.0
 11
-10805.27896
 21
-34575.178906
 31
0.0
  0
LINE
  5
3AE
100
AcDbEntity
  8
LAY-1
  6
CONTINUOUS
 62
     3
100
AcDbLine
 10
-10802.77896
 20
-34710.578906
 30
0.0
 11
-10793.27896
 21
-34710.578906
 31
0.0
  0
LINE
  5
3AF
100
AcDbEntity
  8
LAY-1
  6
CONTINUOUS
 62
     3
100
AcDbLine
 10
-10802.77896
 20
-34710.578906
 30
0.0
 11
-10805.27896
 21
-34707.078906
 31
0.0
  0
ARC
  5
3B0
100
AcDbEntity
  8
LAY-1
  6
CONTINUOUS
 62
     3
100
AcDbCircle
 10
-10804.27896
 20
-34706.578906
 30
0.0
 40
0.5
100
AcDbArc
 50
270.0
 51
0.0
  0
LINE
  5
3B1
100
AcDbEntity
  8
LAY-1
  6
CONTINUOUS
 62
     3
100
AcDbLine
 10
-10793.27896
 20
-34707.078906
 30
0.0
 11
-10805.27896
 21
-34707.078906
 31
0.0
  0
LINE
  5
3B2
100
AcDbEntity
  8
LAY-1
  6
CONTINUOUS
 62
     3
100
AcDbLine
 10
-10783.77896
 20
-34710.578906
 30
0.0
 11
-10793.27896
 21
-34710.578906
 31
0.0
  0
LINE
  5
3B3
100
AcDbEntity
  8
LAY-1
  6
CONTINUOUS
 62
     3
100
AcDbLine
 10
-10783.77896
 20
-34710.578906
 30
0.0
 11
-10781.27896
 21
-34707.078906
 31
0.0
  0
ARC
  5
3B4
100
AcDbEntity
  8
LAY-1
  6
CONTINUOUS
 62
     3
100
AcDbCircle
 10
-10782.27896
 20
-34706.578906
 30
0.0
 40
0.5
100
AcDbArc
 50
180.0
 51
270.0
  0
LINE
  5
3B5
100
AcDbEntity
  8
LAY-1
  6
CONTINUOUS
 62
     3
100
AcDbLine
 10
-10793.27896
 20
-34707.078906
 30
0.0
 11
-10781.27896
 21
-34707.078906
 31
0.0
  0
LINE
  5
3B6
100
AcDbEntity
  8
LAY-1
  6
CONTINUOUS
 62
     3
100
AcDbLine
 10
-10803.77896
 20
-34706.578906
 30
0.0
 11
-10803.77896
 21
-34705.178901
 31
0.0
  0
LINE
  5
3B7
100
AcDbEntity
  8
LAY-1
  6
CONTINUOUS
 62
     3
100
AcDbLine
 10
-10782.77896
 20
-34706.578906
 30
0.0
 11
-10782.77896
 21
-34705.178894
 31
0.0
  0
LINE
  5
3B8
100
AcDbEntity
  8
LAY-1
  6
CONTINUOUS
 62
     3
100
AcDbLine
 10
-10810.956629
 20
-34708.178712
 30
0.0
 11
-10806.67
 21
-34708.178712
 31
0.0
  0
LINE
  5
3B9
100
AcDbEntity
  8
LAY-1
  6
CONTINUOUS
 62
     3
100
AcDbLine
 10
-10780.21
 20
-34708.178712
 30
0.0
 11
-10775.60129
 21
-34708.178712
 31
0.0
  0
LINE
  5
3BA
100
AcDbEntity
  8
LAY-1
  6
EXLTYPE1
 62
     1
100
AcDbLine
 10
-10793.27896
 20
-34718.578906
 30
0.0
 11
-10793.27896
 21
-34695.578897
 31
0.0
  0
LINE
  5
3BB
100
AcDbEntity
  8
LAY-1
  6
EXLTYPE1
 62
     1
100
AcDbLine
 10
-10793.27896
 20
-34563.678906
 30
0.0
 11
-10793.27896
 21
-34582.478897
 31
0.0
  0
CIRCLE
  5
3BC
100
AcDbEntity
  8
LAY-1
  6
CONTINUOUS
 62
     3
100
AcDbCircle
 10
-10908.27896
 20
-34474.178915
 30
0.0
 40
12.0
  0
CIRCLE
  5
3BD
100
AcDbEntity
  8
LAY-1
  6
CONTINUOUS
 62
     3
100
AcDbCircle
 10
-10908.27896
 20
-34474.178915
 30
0.0
 40
7.6
  0
LINE
  5
3BE
100
AcDbEntity
  8
LAY-1
  6
CONTINUOUS
 62
     3
100
AcDbLine
 10
-10610.5
 20
-34499.178915
 30
0.0
 11
-10610.5
 21
-34449.178915
 31
0.0
  0
LINE
  5
3BF
100
AcDbEntity
  8
LAY-1
  6
CONTINUOUS
 62
     3
100
AcDbLine
 10
-10545.5
 20
-34499.178915
 30
0.0
 11
-10545.5
 21
-34449.178915
 31
0.0
  0
LINE
  5
3C0
100
AcDbEntity
  8
LAY-1
  6
CONTINUOUS
 62
     3
100
AcDbLine
 10
-10610.5
 20
-34449.178915
 30
0.0
 11
-10545.5
 21
-34449.178915
 31
0.0
  0
LINE
  5
3C1
100
AcDbEntity
  8
LAY-1
  6
CONTINUOUS
 62
     3
100
AcDbLine
 10
-10610.5
 20
-34499.178915
 30
0.0
 11
-10545.5
 21
-34499.178915
 31
0.0
  0
LINE
  5
3C2
100
AcDbEntity
  8
LAY-1
  6
CONTINUOUS
 62
     3
100
AcDbLine
 10
-10610.5
 20
-34698.778915
 30
0.0
 11
-10610.5
 21
-34581.578915
 31
0.0
  0
LINE
  5
3C3
100
AcDbEntity
  8
LAY-1
  6
CONTINUOUS
 62
     3
100
AcDbLine
 10
-10607.3
 20
-34698.778915
 30
0.0
 11
-10607.3
 21
-34581.578915
 31
0.0
  0
LINE
  5
3C4
100
AcDbEntity
  8
LAY-1
  6
CONTINUOUS
 62
     3
100
AcDbLine
 10
-10602.3
 20
-34701.978915
 30
0.0
 11
-10602.3
 21
-34698.778915
 31
0.0
  0
LINE
  5
3C5
100
AcDbEntity
  8
LAY-1
  6
CONTINUOUS
 62
     3
100
AcDbLine
 10
-10604.1
 20
-34575.178915
 30
0.0
 11
-10551.9
 21
-34575.178915
 31
0.0
  0
LINE
  5
3C6
100
AcDbEntity
  8
LAY-1
  6
CONTINUOUS
 62
     3
100
AcDbLine
 10
-10604.1
 20
-34578.378915
 30
0.0
 11
-10551.9
 21
-34578.378915
 31
0.0
  0
LINE
  5
3C7
100
AcDbEntity
  8
LAY-1
  6
CONTINUOUS
 62
     3
100
AcDbLine
 10
-10604.1
 20
-34705.178915
 30
0.0
 11
-10553.5
 21
-34705.178915
 31
0.0
  0
LINE
  5
3C8
100
AcDbEntity
  8
LAY-1
  6
CONTINUOUS
 62
     3
100
AcDbLine
 10
-10604.1
 20
-34701.978915
 30
0.0
 11
-10551.9
 21
-34701.978915
 31
0.0
  0
LINE
  5
3C9
100
AcDbEntity
  8
LAY-1
  6
CONTINUOUS
 62
     3
100
AcDbLine
 10
-10602.3
 20
-34698.778915
 30
0.0
 11
-10551.9
 21
-34698.778915
 31
0.0
  0
LINE
  5
3CA
100
AcDbEntity
  8
LAY-1
  6
CONTINUOUS
 62
     3
100
AcDbLine
 10
-10545.5
 20
-34695.578915
 30
0.0
 11
-10545.5
 21
-34581.578915
 31
0.0
  0
LINE
  5
3CB
100
AcDbEntity
  8
LAY-1
  6
CONTINUOUS
 62
     3
100
AcDbLine
 10
-10553.5
 20
-34705.178915
 30
0.0
 11
-10553.5
 21
-34701.978915
 31
0.0
  0
LINE
  5
3CC
100
AcDbEntity
  8
LAY-1
  6
CONTINUOUS
 62
     3
100
AcDbLine
 10
-10548.7
 20
-34695.578915
 30
0.0
 11
-10548.7
 21
-34581.578915
 31
0.0
  0
ARC
  5
3CD
100
AcDbEntity
  8
LAY-1
  6
CONTINUOUS
 62
     3
100
AcDbCircle
 10
-10604.1
 20
-34698.778915
 30
0.0
 40
3.2
100
AcDbArc
 50
180.0
 51
270.0
  0
ARC
  5
3CE
100
AcDbEntity
  8
LAY-1
  6
CONTINUOUS
 62
     3
100
AcDbCircle
 10
-10604.1
 20
-34698.778915
 30
0.0
 40
6.4
100
AcDbArc
 50
180.0
 51
270.0
  0
ARC
  5
3CF
100
AcDbEntity
  8
LAY-1
  6
CONTINUOUS
 62
     3
100
AcDbCircle
 10
-10551.9
 20
-34695.578915
 30
0.0
 40
3.2
100
AcDbArc
 50
270.0
 51
0.0
  0
ARC
  5
3D0
100
AcDbEntity
  8
LAY-1
  6
CONTINUOUS
 62
     3
100
AcDbCircle
 10
-10551.9
 20
-34695.578915
 30
0.0
 40
6.4
100
AcDbArc
 50
270.0
 51
0.0
  0
ARC
  5
3D1
100
AcDbEntity
  8
LAY-1
  6
CONTINUOUS
 62
     3
100
AcDbCircle
 10
-10551.9
 20
-34581.578915
 30
0.0
 40
3.2
100
AcDbArc
 50
0.0
 51
90.0
  0
ARC
  5
3D2
100
AcDbEntity
  8
LAY-1
  6
CONTINUOUS
 62
     3
100
AcDbCircle
 10
-10551.9
 20
-34581.578915
 30
0.0
 40
6.4
100
AcDbArc
 50
0.0
 51
90.0
  0
ARC
  5
3D3
100
AcDbEntity
  8
LAY-1
  6
CONTINUOUS
 62
     3
100
AcDbCircle
 10
-10604.1
 20
-34581.578915
 30
0.0
 40
3.2
100
AcDbArc
 50
90.0
 51
180.0
  0
ARC
  5
3D4
100
AcDbEntity
  8
LAY-1
  6
CONTINUOUS
 62
     3
100
AcDbCircle
 10
-10604.1
 20
-34581.578915
 30
0.0
 40
6.4
100
AcDbArc
 50
90.0
 51
180.0
  0
LINE
  5
3D5
100
AcDbEntity
  8
LAY-1
  6
CONTINUOUS
 62
     3
100
AcDbLine
 10
-10595.67767
 20
-34708.179249
 30
0.0
 11
-10595.67767
 21
-34705.179249
 31
0.0
  0
LINE
  5
3D6
100
AcDbEntity
  8
LAY-1
  6
CONTINUOUS
 62
     3
100
AcDbLine
 10
-10592.142136
 20
-34708.178915
 30
0.0
 11
-10592.142136
 21
-34705.178915
 31
0.0
  0
LINE
  5
3D7
100
AcDbEntity
  8
LAY-1
  6
CONTINUOUS
 62
     3
100
AcDbLine
 10
-10560.32233
 20
-34708.179101
 30
0.0
 11
-10559.32233
 21
-34705.178558
 31
0.0
  0
LINE
  5
3D8
100
AcDbEntity
  8
LAY-1
  6
CONTINUOUS
 62
     3
100
AcDbLine
 10
-10472.995088
 20
-34705.178915
 30
0.0
 11
-10422.995088
 21
-34705.178915
 31
0.0
  0
LINE
  5
3D9
100
AcDbEntity
  8
LAY-1
  6
CONTINUOUS
 62
     3
100
AcDbLine
 10
-10472.995088
 20
-34701.978915
 30
0.0
 11
-10422.995088
 21
-34701.978915
 31
0.0
  0
LINE
  5
3DA
100
AcDbEntity
  8
LAY-1
  6
CONTINUOUS
 62
     3
100
AcDbLine
 10
-10422.995088
 20
-34705.178915
 30
0.0
 11
-10422.995088
 21
-34575.178915
 31
0.0
  0
LINE
  5
3DB
100
AcDbEntity
  8
LAY-1
  6
CONTINUOUS
 62
     3
100
AcDbLine
 10
-10472.995088
 20
-34705.178915
 30
0.0
 11
-10472.995088
 21
-34575.178915
 31
0.0
  0
LINE
  5
3DC
100
AcDbEntity
  8
LAY-1
  6
CONTINUOUS
 62
     3
100
AcDbLine
 10
-10472.995088
 20
-34575.178915
 30
0.0
 11
-10422.995088
 21
-34575.178915
 31
0.0
  0
LINE
  5
3DD
100
AcDbEntity
  8
LAY-1
  6
CONTINUOUS
 62
     3
100
AcDbLine
 10
-10465.67767
 20
-34708.178729
 30
0.0
 11
-10466.67767
 21
-34705.178915
 31
0.0
  0
LINE
  5
3DE
100
AcDbEntity
  8
LAY-1
  6
CONTINUOUS
 62
     3
100
AcDbLine
 10
-10433.857864
 20
-34708.178729
 30
0.0
 11
-10433.857864
 21
-34705.178915
 31
0.0
  0
LINE
  5
3DF
100
AcDbEntity
  8
LAY-1
  6
CONTINUOUS
 62
     3
100
AcDbLine
 10
-10430.32233
 20
-34708.178729
 30
0.0
 11
-10430.32233
 21
-34705.178915
 31
0.0
  0
LINE
  5
3E0
100
AcDbEntity
  8
LAY-1
  6
EXLTYPE1
 62
     1
100
AcDbLine
 10
-10578.0
 20
-34504.178915
 30
0.0
 11
-10578.0
 21
-34444.178915
 31
0.0
  0
LINE
  5
3E1
100
AcDbEntity
  8
LAY-1
  6
EXLTYPE1
 62
     1
100
AcDbLine
 10
-10615.5
 20
-34474.178915
 30
0.0
 11
-10540.5
 21
-34474.178915
 31
0.0
  0
LINE
  5
3E2
100
AcDbEntity
  8
LAY-1
  6
EXLTYPE2
 62
     1
100
AcDbLine
 10
-10607.3
 20
-34499.178915
 30
0.0
 11
-10607.3
 21
-34449.178915
 31
0.0
  0
LINE
  5
3E3
100
AcDbEntity
  8
LAY-1
  6
EXLTYPE2
 62
     1
100
AcDbLine
 10
-10548.7
 20
-34499.178915
 30
0.0
 11
-10548.7
 21
-34449.178915
 31
0.0
  0
LINE
  5
3E4
100
AcDbEntity
  8
LAY-1
  6
EXLTYPE1
 62
     1
100
AcDbLine
 10
-10578.0
 20
-34710.178915
 30
0.0
 11
-10578.0
 21
-34693.778915
 31
0.0
  0
LINE
  5
3E5
100
AcDbEntity
  8
LAY-1
  6
EXLTYPE1
 62
     1
100
AcDbLine
 10
-10578.0
 20
-34570.178915
 30
0.0
 11
-10578.0
 21
-34583.378915
 31
0.0
  0
LINE
  5
3E6
100
AcDbEntity
  8
LAY-1
  6
EXLTYPE2
 62
     1
100
AcDbLine
 10
-10588.5
 20
-34705.178915
 30
0.0
 11
-10588.5
 21
-34698.778915
 31
0.0
  0
LINE
  5
3E7
100
AcDbEntity
  8
LAY-1
  6
EXLTYPE2
 62
     1
100
AcDbLine
 10
-10567.5
 20
-34705.178915
 30
0.0
 11
-10567.5
 21
-34698.778915
 31
0.0
  0
LINE
  5
3E8
100
AcDbEntity
  8
LAY-1
  6
EXLTYPE2
 62
     1
100
AcDbLine
 10
-10588.5
 20
-34575.178915
 30
0.0
 11
-10588.5
 21
-34578.378915
 31
0.0
  0
LINE
  5
3E9
100
AcDbEntity
  8
LAY-1
  6
EXLTYPE2
 62
     1
100
AcDbLine
 10
-10567.5
 20
-34575.178915
 30
0.0
 11
-10567.5
 21
-34578.378915
 31
0.0
  0
LINE
  5
3EA
100
AcDbEntity
  8
LAY-1
  6
EXLTYPE2
 62
     1
100
AcDbLine
 10
-10472.995088
 20
-34698.778915
 30
0.0
 11
-10422.995088
 21
-34698.778915
 31
0.0
  0
LINE
  5
3EB
100
AcDbEntity
  8
LAY-1
  6
EXLTYPE2
 62
     1
100
AcDbLine
 10
-10472.995088
 20
-34578.378915
 30
0.0
 11
-10422.995088
 21
-34578.378915
 31
0.0
  0
LINE
  5
3EC
100
AcDbEntity
  8
LAY-1
  6
EXLTYPE2
 62
     1
100
AcDbLine
 10
-10458.5
 20
-34575.178915
 30
0.0
 11
-10458.5
 21
-34578.378915
 31
0.0
  0
LINE
  5
3ED
100
AcDbEntity
  8
LAY-1
  6
EXLTYPE2
 62
     1
100
AcDbLine
 10
-10437.5
 20
-34575.178915
 30
0.0
 11
-10437.5
 21
-34578.378915
 31
0.0
  0
LINE
  5
3EE
100
AcDbEntity
  8
LAY-1
  6
EXLTYPE2
 62
     1
100
AcDbLine
 10
-10458.5
 20
-34698.778915
 30
0.0
 11
-10458.5
 21
-34705.178915
 31
0.0
  0
LINE
  5
3EF
100
AcDbEntity
  8
LAY-1
  6
EXLTYPE2
 62
     1
100
AcDbLine
 10
-10437.5
 20
-34698.778915
 30
0.0
 11
-10437.5
 21
-34705.178915
 31
0.0
  0
LINE
  5
3F0
100
AcDbEntity
  8
LAY-1
  6
CONTINUOUS
 62
     3
100
AcDbLine
 10
-10603.0
 20
-34675.778915
 30
0.0
 11
-10578.0
 21
-34675.778915
 31
0.0
  0
LINE
  5
3F1
100
AcDbEntity
  8
LAY-1
  6
CONTINUOUS
 62
     3
100
AcDbLine
 10
-10587.5
 20
-34712.778915
 30
0.0
 11
-10578.0
 21
-34712.778915
 31
0.0
  0
LINE
  5
3F2
100
AcDbEntity
  8
LAY-1
  6
CONTINUOUS
 62
     3
100
AcDbLine
 10
-10587.5
 20
-34712.778915
 30
0.0
 11
-10590.0
 21
-34707.278915
 31
0.0
  0
ARC
  5
3F3
100
AcDbEntity
  8
LAY-1
  6
CONTINUOUS
 62
     3
100
AcDbCircle
 10
-10589.0
 20
-34706.778915
 30
0.0
 40
0.5
100
AcDbArc
 50
270.0
 51
0.0
  0
LINE
  5
3F4
100
AcDbEntity
  8
LAY-1
  6
CONTINUOUS
 62
     3
100
AcDbLine
 10
-10603.0
 20
-34675.778915
 30
0.0
 11
-10603.0
 21
-34678.778915
 31
0.0
  0
LINE
  5
3F5
100
AcDbEntity
  8
LAY-1
  6
CONTINUOUS
 62
     3
100
AcDbLine
 10
-10603.0
 20
-34697.778915
 30
0.0
 11
-10603.0
 21
-34698.778915
 31
0.0
  0
ARC
  5
3F6
100
AcDbEntity
  8
LAY-1
  6
CONTINUOUS
 62
     3
100
AcDbCircle
 10
-10603.0
 20
-34680.028915
 30
0.0
 40
1.25
100
AcDbArc
 50
0.0
 51
90.0
  0
LINE
  5
3F7
100
AcDbEntity
  8
LAY-1
  6
CONTINUOUS
 62
     3
100
AcDbLine
 10
-10601.75
 20
-34680.028915
 30
0.0
 11
-10601.75
 21
-34696.528915
 31
0.0
  0
ARC
  5
3F8
100
AcDbEntity
  8
LAY-1
  6
CONTINUOUS
 62
     3
100
AcDbCircle
 10
-10603.0
 20
-34696.528915
 30
0.0
 40
1.25
100
AcDbArc
 50
270.0
 51
0.0
  0
LINE
  5
3F9
100
AcDbEntity
  8
LAY-1
  6
CONTINUOUS
 62
     3
100
AcDbLine
 10
-10578.0
 20
-34697.778915
 30
0.0
 11
-10603.0
 21
-34697.778915
 31
0.0
  0
LINE
  5
3FA
100
AcDbEntity
  8
LAY-1
  6
CONTINUOUS
 62
     3
100
AcDbLine
 10
-10578.0
 20
-34698.778915
 30
0.0
 11
-10603.0
 21
-34698.778915
 31
0.0
  0
LINE
  5
3FB
100
AcDbEntity
  8
LAY-1
  6
CONTINUOUS
 62
     3
100
AcDbLine
 10
-10578.0
 20
-34678.778915
 30
0.0
 11
-10603.0
 21
-34678.778915
 31
0.0
  0
LINE
  5
3FC
100
AcDbEntity
  8
LAY-1
  6
CONTINUOUS
 62
     3
100
AcDbLine
 10
-10578.0
 20
-34707.278915
 30
0.0
 11
-10590.0
 21
-34707.278915
 31
0.0
  0
LINE
  5
3FD
100
AcDbEntity
  8
LAY-1
  6
CONTINUOUS
 62
     3
100
AcDbLine
 10
-10553.0
 20
-34675.778915
 30
0.0
 11
-10578.0
 21
-34675.778915
 31
0.0
  0
LINE
  5
3FE
100
AcDbEntity
  8
LAY-1
  6
CONTINUOUS
 62
     3
100
AcDbLine
 10
-10568.5
 20
-34712.778915
 30
0.0
 11
-10578.0
 21
-34712.778915
 31
0.0
  0
LINE
  5
3FF
100
AcDbEntity
  8
LAY-1
  6
CONTINUOUS
 62
     3
100
AcDbLine
 10
-10568.5
 20
-34712.778915
 30
0.0
 11
-10566.0
 21
-34707.278915
 31
0.0
  0
ARC
  5
400
100
AcDbEntity
  8
LAY-1
  6
CONTINUOUS
 62
     3
100
AcDbCircle
 10
-10567.0
 20
-34706.778915
 30
0.0
 40
0.5
100
AcDbArc
 50
180.0
 51
270.0
  0
LINE
  5
401
100
AcDbEntity
  8
LAY-1
  6
CONTINUOUS
 62
     3
100
AcDbLine
 10
-10553.0
 20
-34675.778915
 30
0.0
 11
-10553.0
 21
-34678.778915
 31
0.0
  0
LINE
  5
402
100
AcDbEntity
  8
LAY-1
  6
CONTINUOUS
 62
     3
100
AcDbLine
 10
-10553.0
 20
-34697.778915
 30
0.0
 11
-10553.0
 21
-34698.778915
 31
0.0
  0
ARC
  5
403
100
AcDbEntity
  8
LAY-1
  6
CONTINUOUS
 62
     3
100
AcDbCircle
 10
-10553.0
 20
-34680.028915
 30
0.0
 40
1.25
100
AcDbArc
 50
90.0
 51
180.0
  0
LINE
  5
404
100
AcDbEntity
  8
LAY-1
  6
CONTINUOUS
 62
     3
100
AcDbLine
 10
-10554.25
 20
-34680.028915
 30
0.0
 11
-10554.25
 21
-34696.528915
 31
0.0
  0
ARC
  5
405
100
AcDbEntity
  8
LAY-1
  6
CONTINUOUS
 62
     3
100
AcDbCircle
 10
-10553.0
 20
-34696.528915
 30
0.0
 40
1.25
100
AcDbArc
 50
180.0
 51
270.0
  0
LINE
  5
406
100
AcDbEntity
  8
LAY-1
  6
CONTINUOUS
 62
     3
100
AcDbLine
 10
-10578.0
 20
-34697.778915
 30
0.0
 11
-10553.0
 21
-34697.778915
 31
0.0
  0
LINE
  5
407
100
AcDbEntity
  8
LAY-1
  6
CONTINUOUS
 62
     3
100
AcDbLine
 10
-10578.0
 20
-34698.778915
 30
0.0
 11
-10553.0
 21
-34698.778915
 31
0.0
  0
LINE
  5
408
100
AcDbEntity
  8
LAY-1
  6
CONTINUOUS
 62
     3
100
AcDbLine
 10
-10578.0
 20
-34678.778915
 30
0.0
 11
-10553.0
 21
-34678.778915
 31
0.0
  0
LINE
  5
409
100
AcDbEntity
  8
LAY-1
  6
CONTINUOUS
 62
     3
100
AcDbLine
 10
-10578.0
 20
-34707.278915
 30
0.0
 11
-10566.0
 21
-34707.278915
 31
0.0
  0
LINE
  5
40A
100
AcDbEntity
  8
LAY-1
  6
EXLTYPE1
 62
     1
100
AcDbLine
 10
-10578.0
 20
-34668.678915
 30
0.0
 11
-10578.0
 21
-34718.778915
 31
0.0
  0
LINE
  5
40B
100
AcDbEntity
  8
LAY-1
  6
CONTINUOUS
 62
     3
100
AcDbLine
 10
-10553.0
 20
-34606.678915
 30
0.0
 11
-10578.0
 21
-34606.678915
 31
0.0
  0
LINE
  5
40C
100
AcDbEntity
  8
LAY-1
  6
CONTINUOUS
 62
     3
100
AcDbLine
 10
-10568.5
 20
-34569.678915
 30
0.0
 11
-10578.0
 21
-34569.678915
 31
0.0
  0
LINE
  5
40D
100
AcDbEntity
  8
LAY-1
  6
CONTINUOUS
 62
     3
100
AcDbLine
 10
-10568.5
 20
-34569.678915
 30
0.0
 11
-10566.0
 21
-34575.178915
 31
0.0
  0
LINE
  5
40E
100
AcDbEntity
  8
LAY-1
  6
CONTINUOUS
 62
     3
100
AcDbLine
 10
-10553.0
 20
-34606.678915
 30
0.0
 11
-10553.0
 21
-34603.678915
 31
0.0
  0
LINE
  5
40F
100
AcDbEntity
  8
LAY-1
  6
CONTINUOUS
 62
     3
100
AcDbLine
 10
-10553.0
 20
-34584.678915
 30
0.0
 11
-10553.0
 21
-34583.678915
 31
0.0
  0
ARC
  5
410
100
AcDbEntity
  8
LAY-1
  6
CONTINUOUS
 62
     3
100
AcDbCircle
 10
-10553.0
 20
-34602.428915
 30
0.0
 40
1.25
100
AcDbArc
 50
180.0
 51
270.0
  0
LINE
  5
411
100
AcDbEntity
  8
LAY-1
  6
CONTINUOUS
 62
     3
100
AcDbLine
 10
-10554.25
 20
-34602.428915
 30
0.0
 11
-10554.25
 21
-34585.928915
 31
0.0
  0
ARC
  5
412
100
AcDbEntity
  8
LAY-1
  6
CONTINUOUS
 62
     3
100
AcDbCircle
 10
-10553.0
 20
-34585.928915
 30
0.0
 40
1.25
100
AcDbArc
 50
90.0
 51
180.0
  0
LINE
  5
413
100
AcDbEntity
  8
LAY-1
  6
CONTINUOUS
 62
     3
100
AcDbLine
 10
-10578.0
 20
-34584.678915
 30
0.0
 11
-10553.0
 21
-34584.678915
 31
0.0
  0
LINE
  5
414
100
AcDbEntity
  8
LAY-1
  6
CONTINUOUS
 62
     3
100
AcDbLine
 10
-10578.0
 20
-34583.678915
 30
0.0
 11
-10553.0
 21
-34583.678915
 31
0.0
  0
LINE
  5
415
100
AcDbEntity
  8
LAY-1
  6
CONTINUOUS
 62
     3
100
AcDbLine
 10
-10578.0
 20
-34603.678915
 30
0.0
 11
-10553.0
 21
-34603.678915
 31
0.0
  0
LINE
  5
416
100
AcDbEntity
  8
LAY-1
  6
CONTINUOUS
 62
     3
100
AcDbLine
 10
-10578.0
 20
-34575.178915
 30
0.0
 11
-10566.0
 21
-34575.178915
 31
0.0
  0
LINE
  5
417
100
AcDbEntity
  8
LAY-1
  6
CONTINUOUS
 62
     3
100
AcDbLine
 10
-10603.0
 20
-34606.678915
 30
0.0
 11
-10578.0
 21
-34606.678915
 31
0.0
  0
LINE
  5
418
100
AcDbEntity
  8
LAY-1
  6
CONTINUOUS
 62
     3
100
AcDbLine
 10
-10587.5
 20
-34569.678915
 30
0.0
 11
-10578.0
 21
-34569.678915
 31
0.0
  0
LINE
  5
419
100
AcDbEntity
  8
LAY-1
  6
CONTINUOUS
 62
     3
100
AcDbLine
 10
-10587.5
 20
-34569.678915
 30
0.0
 11
-10590.0
 21
-34575.178915
 31
0.0
  0
LINE
  5
41A
100
AcDbEntity
  8
LAY-1
  6
CONTINUOUS
 62
     3
100
AcDbLine
 10
-10603.0
 20
-34606.678915
 30
0.0
 11
-10603.0
 21
-34603.678915
 31
0.0
  0
LINE
  5
41B
100
AcDbEntity
  8
LAY-1
  6
CONTINUOUS
 62
     3
100
AcDbLine
 10
-10603.0
 20
-34584.678915
 30
0.0
 11
-10603.0
 21
-34583.678915
 31
0.0
  0
ARC
  5
41C
100
AcDbEntity
  8
LAY-1
  6
CONTINUOUS
 62
     3
100
AcDbCircle
 10
-10603.0
 20
-34602.428915
 30
0.0
 40
1.25
100
AcDbArc
 50
270.0
 51
0.0
  0
LINE
  5
41D
100
AcDbEntity
  8
LAY-1
  6
CONTINUOUS
 62
     3
100
AcDbLine
 10
-10601.75
 20
-34602.428915
 30
0.0
 11
-10601.75
 21
-34585.928915
 31
0.0
  0
ARC
  5
41E
100
AcDbEntity
  8
LAY-1
  6
CONTINUOUS
 62
     3
100
AcDbCircle
 10
-10603.0
 20
-34585.928915
 30
0.0
 40
1.25
100
AcDbArc
 50
0.0
 51
90.0
  0
LINE
  5
41F
100
AcDbEntity
  8
LAY-1
  6
CONTINUOUS
 62
     3
100
AcDbLine
 10
-10578.0
 20
-34584.678915
 30
0.0
 11
-10603.0
 21
-34584.678915
 31
0.0
  0
LINE
  5
420
100
AcDbEntity
  8
LAY-1
  6
CONTINUOUS
 62
     3
100
AcDbLine
 10
-10578.0
 20
-34583.678915
 30
0.0
 11
-10603.0
 21
-34583.678915
 31
0.0
  0
LINE
  5
421
100
AcDbEntity
  8
LAY-1
  6
CONTINUOUS
 62
     3
100
AcDbLine
 10
-10578.0
 20
-34603.678915
 30
0.0
 11
-10603.0
 21
-34603.678915
 31
0.0
  0
LINE
  5
422
100
AcDbEntity
  8
LAY-1
  6
CONTINUOUS
 62
     3
100
AcDbLine
 10
-10578.0
 20
-34575.178915
 30
0.0
 11
-10590.0
 21
-34575.178915
 31
0.0
  0
LINE
  5
423
100
AcDbEntity
  8
LAY-1
  6
EXLTYPE1
 62
     1
100
AcDbLine
 10
-10578.0
 20
-34613.778915
 30
0.0
 11
-10578.0
 21
-34563.678915
 31
0.0
  0
CIRCLE
  5
424
100
AcDbEntity
  8
LAY-1
  6
CONTINUOUS
 62
     3
100
AcDbCircle
 10
-10578.0
 20
-34474.178915
 30
0.0
 40
7.0
  0
CIRCLE
  5
425
100
AcDbEntity
  8
LAY-1
  6
CONTINUOUS
 62
     3
100
AcDbCircle
 10
-10578.0
 20
-34474.178915
 30
0.0
 40
12.0
  0
LINE
  5
426
100
AcDbEntity
  8
LAY-1
  6
CONTINUOUS
 62
     3
100
AcDbLine
 10
-10588.5
 20
-34578.378915
 30
0.0
 11
-10588.5
 21
-34583.678915
 31
0.0
  0
LINE
  5
427
100
AcDbEntity
  8
LAY-1
  6
CONTINUOUS
 62
     3
100
AcDbLine
 10
-10567.5
 20
-34578.378915
 30
0.0
 11
-10567.5
 21
-34583.678915
 31
0.0
  0
LINE
  5
428
100
AcDbEntity
  8
LAY-1
  6
CONTINUOUS
 62
     3
100
AcDbLine
 10
-10438.5
 20
-34569.678915
 30
0.0
 11
-10448.0
 21
-34569.678915
 31
0.0
  0
LINE
  5
429
100
AcDbEntity
  8
LAY-1
  6
CONTINUOUS
 62
     3
100
AcDbLine
 10
-10438.5
 20
-34569.678915
 30
0.0
 11
-10436.0
 21
-34575.178915
 31
0.0
  0
LINE
  5
42A
100
AcDbEntity
  8
LAY-1
  6
CONTINUOUS
 62
     3
100
AcDbLine
 10
-10448.0
 20
-34575.178915
 30
0.0
 11
-10436.0
 21
-34575.178915
 31
0.0
  0
LINE
  5
42B
100
AcDbEntity
  8
LAY-1
  6
CONTINUOUS
 62
     3
100
AcDbLine
 10
-10457.5
 20
-34569.678915
 30
0.0
 11
-10448.0
 21
-34569.678915
 31
0.0
  0
LINE
  5
42C
100
AcDbEntity
  8
LAY-1
  6
CONTINUOUS
 62
     3
100
AcDbLine
 10
-10457.5
 20
-34569.678915
 30
0.0
 11
-10460.0
 21
-34575.178915
 31
0.0
  0
LINE
  5
42D
100
AcDbEntity
  8
LAY-1
  6
CONTINUOUS
 62
     3
100
AcDbLine
 10
-10448.0
 20
-34575.178915
 30
0.0
 11
-10460.0
 21
-34575.178915
 31
0.0
  0
LINE
  5
42E
100
AcDbEntity
  8
LAY-1
  6
EXLTYPE1
 62
     1
100
AcDbLine
 10
-10448.0
 20
-34563.678915
 30
0.0
 11
-10448.0
 21
-34583.378915
 31
0.0
  0
LINE
  5
42F
100
AcDbEntity
  8
LAY-1
  6
CONTINUOUS
 62
     3
100
AcDbLine
 10
-10595.67767
 20
-34708.179302
 30
0.0
 11
-10591.020001
 21
-34708.179205
 31
0.0
  0
LINE
  5
430
100
AcDbEntity
  8
LAY-1
  6
CONTINUOUS
 62
     3
100
AcDbLine
 10
-10565.5
 20
-34708.179101
 30
0.0
 11
-10560.32233
 21
-34708.179101
 31
0.0
  0
LINE
  5
431
100
AcDbEntity
  8
LAY-1
  6
CONTINUOUS
 62
     3
100
AcDbLine
 10
-10588.5
 20
-34706.778915
 30
0.0
 11
-10588.5
 21
-34705.178915
 31
0.0
  0
LINE
  5
432
100
AcDbEntity
  8
LAY-1
  6
CONTINUOUS
 62
     3
100
AcDbLine
 10
-10567.5
 20
-34706.778915
 30
0.0
 11
-10567.5
 21
-34705.178915
 31
0.0
  0
LINE
  5
433
100
AcDbEntity
  8
LAY-1
  6
CONTINUOUS
 62
     3
100
AcDbLine
 10
-10457.5
 20
-34712.778915
 30
0.0
 11
-10448.0
 21
-34712.778915
 31
0.0
  0
LINE
  5
434
100
AcDbEntity
  8
LAY-1
  6
CONTINUOUS
 62
     3
100
AcDbLine
 10
-10457.5
 20
-34712.778915
 30
0.0
 11
-10460.0
 21
-34707.278915
 31
0.0
  0
ARC
  5
435
100
AcDbEntity
  8
LAY-1
  6
CONTINUOUS
 62
     3
100
AcDbCircle
 10
-10459.0
 20
-34706.778915
 30
0.0
 40
0.5
100
AcDbArc
 50
270.0
 51
0.0
  0
LINE
  5
436
100
AcDbEntity
  8
LAY-1
  6
CONTINUOUS
 62
     3
100
AcDbLine
 10
-10448.0
 20
-34707.278915
 30
0.0
 11
-10460.0
 21
-34707.278915
 31
0.0
  0
LINE
  5
437
100
AcDbEntity
  8
LAY-1
  6
CONTINUOUS
 62
     3
100
AcDbLine
 10
-10438.5
 20
-34712.778915
 30
0.0
 11
-10448.0
 21
-34712.778915
 31
0.0
  0
LINE
  5
438
100
AcDbEntity
  8
LAY-1
  6
CONTINUOUS
 62
     3
100
AcDbLine
 10
-10438.5
 20
-34712.778915
 30
0.0
 11
-10436.0
 21
-34707.278915
 31
0.0
  0
ARC
  5
439
100
AcDbEntity
  8
LAY-1
  6
CONTINUOUS
 62
     3
100
AcDbCircle
 10
-10437.0
 20
-34706.778915
 30
0.0
 40
0.5
100
AcDbArc
 50
180.0
 51
270.0
  0
LINE
  5
43A
100
AcDbEntity
  8
LAY-1
  6
CONTINUOUS
 62
     3
100
AcDbLine
 10
-10448.0
 20
-34707.278915
 30
0.0
 11
-10436.0
 21
-34707.278915
 31
0.0
  0
LINE
  5
43B
100
AcDbEntity
  8
LAY-1
  6
CONTINUOUS
 62
     3
100
AcDbLine
 10
-10458.5
 20
-34706.778915
 30
0.0
 11
-10458.5
 21
-34705.178915
 31
0.0
  0
LINE
  5
43C
100
AcDbEntity
  8
LAY-1
  6
CONTINUOUS
 62
     3
100
AcDbLine
 10
-10437.5
 20
-34706.778915
 30
0.0
 11
-10437.5
 21
-34705.178915
 31
0.0
  0
LINE
  5
43D
100
AcDbEntity
  8
LAY-1
  6
CONTINUOUS
 62
     3
100
AcDbLine
 10
-10465.67767
 20
-34708.178729
 30
0.0
 11
-10461.38
 21
-34708.178729
 31
0.0
  0
LINE
  5
43E
100
AcDbEntity
  8
LAY-1
  6
CONTINUOUS
 62
     3
100
AcDbLine
 10
-10435.13
 20
-34708.178729
 30
0.0
 11
-10430.32233
 21
-34708.178729
 31
0.0
  0
LINE
  5
43F
100
AcDbEntity
  8
LAY-1
  6
EXLTYPE1
 62
     1
100
AcDbLine
 10
-10448.0
 20
-34718.778915
 30
0.0
 11
-10448.0
 21
-34693.778915
 31
0.0
  0
LINE
  5
440
100
AcDbEntity
  8
LAY-1
  6
CONTINUOUS
 62
     3
100
AcDbLine
 10
-11285.0
 20
-34040.239701
 30
0.0
 11
-11285.0
 21
-34012.239701
 31
0.0
  0
ARC
  5
441
100
AcDbEntity
  8
LAY-1
  6
CONTINUOUS
 62
     3
100
AcDbCircle
 10
-11284.0
 20
-34012.239701
 30
0.0
 40
1.0
100
AcDbArc
 50
90.0
 51
180.0
  0
ARC
  5
442
100
AcDbEntity
  8
LAY-1
  6
CONTINUOUS
 62
     3
100
AcDbCircle
 10
-11284.0
 20
-34040.239701
 30
0.0
 40
1.0
100
AcDbArc
 50
180.0
 51
270.0
  0
LINE
  5
443
100
AcDbEntity
  8
LAY-1
  6
CONTINUOUS
 62
     3
100
AcDbLine
 10
-11235.0
 20
-34041.239701
 30
0.0
 11
-11235.0
 21
-34011.239701
 31
0.0
  0
LINE
  5
444
100
AcDbEntity
  8
LAY-1
  6
CONTINUOUS
 62
     3
100
AcDbLine
 10
-11284.0
 20
-34011.239701
 30
0.0
 11
-11235.0
 21
-34011.239701
 31
0.0
  0
LINE
  5
445
100
AcDbEntity
  8
LAY-1
  6
CONTINUOUS
 62
     3
100
AcDbLine
 10
-11284.0
 20
-34041.239701
 30
0.0
 11
-11235.0
 21
-34041.239701
 31
0.0
  0
LINE
  5
446
100
AcDbEntity
  8
LAY-1
  6
EXLTYPE1
 62
     1
100
AcDbLine
 10
-11290.0
 20
-34026.239701
 30
0.0
 11
-11230.0
 21
-34026.239701
 31
0.0
  0
LINE
  5
447
100
AcDbEntity
  8
LAY-1
  6
CONTINUOUS
 62
     3
100
AcDbLine
 10
-11234.0
 20
-34489.178915
 30
0.0
 11
-11234.0
 21
-34459.178915
 31
0.0
  0
LINE
  5
448
100
AcDbEntity
  8
LAY-1
  6
CONTINUOUS
 62
     3
100
AcDbLine
 10
-11284.0
 20
-34488.178915
 30
0.0
 11
-11284.0
 21
-34460.178915
 31
0.0
  0
ARC
  5
449
100
AcDbEntity
  8
LAY-1
  6
CONTINUOUS
 62
     3
100
AcDbCircle
 10
-11283.0
 20
-34460.178915
 30
0.0
 40
1.0
100
AcDbArc
 50
90.0
 51
180.0
  0
ARC
  5
44A
100
AcDbEntity
  8
LAY-1
  6
CONTINUOUS
 62
     3
100
AcDbCircle
 10
-11283.0
 20
-34488.178915
 30
0.0
 40
1.0
100
AcDbArc
 50
180.0
 51
270.0
  0
LINE
  5
44B
100
AcDbEntity
  8
LAY-1
  6
CONTINUOUS
 62
     3
100
AcDbLine
 10
-11282.982756
 20
-34459.178915
 30
0.0
 11
-11234.0
 21
-34459.178915
 31
0.0
  0
LINE
  5
44C
100
AcDbEntity
  8
LAY-1
  6
CONTINUOUS
 62
     3
100
AcDbLine
 10
-11282.982756
 20
-34489.178915
 30
0.0
 11
-11234.0
 21
-34489.178915
 31
0.0
  0
LINE
  5
44D
100
AcDbEntity
  8
LAY-1
  6
EXLTYPE1
 62
     1
100
AcDbLine
 10
-11289.0
 20
-34474.178915
 30
0.0
 11
-11229.0
 21
-34474.178915
 31
0.0
  0
LINE
  5
44E
100
AcDbEntity
  8
LAY-1
  6
EXLTYPE2
 62
     1
100
AcDbLine
 10
-11943.2
 20
-34038.239701
 30
0.0
 11
-11943.2
 21
-34014.239701
 31
0.0
  0
LINE
  5
44F
100
AcDbEntity
  8
LAY-1
  6
CONTINUOUS
 62
     3
100
AcDbLine
 10
-11978.0
 20
-34575.178915
 30
0.0
 11
-11978.0
 21
-34578.378915
 31
0.0
  0
LINE
  5
450
100
AcDbEntity
  8
LAY-1
  6
EXLTYPE2
 62
     1
100
AcDbLine
 10
-11966.75
 20
-34575.178915
 30
0.0
 11
-11966.75
 21
-34578.378915
 31
0.0
  0
LINE
  5
451
100
AcDbEntity
  8
LAY-1
  6
EXLTYPE2
 62
     1
100
AcDbLine
 10
-11951.25
 20
-34575.178915
 30
0.0
 11
-11951.25
 21
-34578.378915
 31
0.0
  0
LINE
  5
452
100
AcDbEntity
  8
LAY-1
  6
EXLTYPE1
 62
     1
100
AcDbLine
 10
-11959.0
 20
-34609.778915
 30
0.0
 11
-11959.0
 21
-34565.678915
 31
0.0
  0
LINE
  5
453
100
AcDbEntity
  8
LAY-1
  6
CONTINUOUS
 62
     3
100
AcDbLine
 10
-11966.5
 20
-34579.678915
 30
0.0
 11
-11966.5
 21
-34578.378915
 31
0.0
  0
LINE
  5
454
100
AcDbEntity
  8
LAY-1
  6
CONTINUOUS
 62
     3
100
AcDbLine
 10
-11951.5
 20
-34579.678915
 30
0.0
 11
-11951.5
 21
-34578.378915
 31
0.0
  0
LINE
  5
455
100
AcDbEntity
  8
LAY-1
  6
CONTINUOUS
 62
     3
100
AcDbLine
 10
-11978.0
 20
-34681.978915
 30
0.0
 11
-11978.0
 21
-34685.178915
 31
0.0
  0
LINE
  5
456
100
AcDbEntity
  8
LAY-1
  6
EXLTYPE2
 62
     1
100
AcDbLine
 10
-11966.75
 20
-34685.178915
 30
0.0
 11
-11966.75
 21
-34681.978915
 31
0.0
  0
LINE
  5
457
100
AcDbEntity
  8
LAY-1
  6
EXLTYPE2
 62
     1
100
AcDbLine
 10
-11951.25
 20
-34685.178915
 30
0.0
 11
-11951.25
 21
-34681.978915
 31
0.0
  0
ARC
  5
458
100
AcDbEntity
  8
LAY-1
  6
CONTINUOUS
 62
     3
100
AcDbCircle
 10
-11970.0
 20
-34679.978915
 30
0.0
 40
1.0
100
AcDbArc
 50
270.0
 51
0.0
  0
LINE
  5
459
100
AcDbEntity
  8
LAY-1
  6
CONTINUOUS
 62
     3
100
AcDbLine
 10
-11969.0
 20
-34658.978915
 30
0.0
 11
-11969.0
 21
-34679.978915
 31
0.0
  0
ARC
  5
45A
100
AcDbEntity
  8
LAY-1
  6
CONTINUOUS
 62
     3
100
AcDbCircle
 10
-11970.0
 20
-34658.978915
 30
0.0
 40
1.0
100
AcDbArc
 50
0.0
 51
90.0
  0
LINE
  5
45B
100
AcDbEntity
  8
LAY-1
  6
CONTINUOUS
 62
     3
100
AcDbLine
 10
-11970.0
 20
-34656.978915
 30
0.0
 11
-11970.0
 21
-34657.978915
 31
0.0
  0
LINE
  5
45C
100
AcDbEntity
  8
LAY-1
  6
CONTINUOUS
 62
     3
100
AcDbLine
 10
-11970.0
 20
-34680.978915
 30
0.0
 11
-11970.0
 21
-34681.978915
 31
0.0
  0
ARC
  5
45D
100
AcDbEntity
  8
LAY-1
  6
CONTINUOUS
 62
     3
100
AcDbCircle
 10
-11948.0
 20
-34679.978915
 30
0.0
 40
1.0
100
AcDbArc
 50
180.0
 51
270.0
  0
LINE
  5
45E
100
AcDbEntity
  8
LAY-1
  6
CONTINUOUS
 62
     3
100
AcDbLine
 10
-11949.0
 20
-34658.978915
 30
0.0
 11
-11949.0
 21
-34679.978915
 31
0.0
  0
ARC
  5
45F
100
AcDbEntity
  8
LAY-1
  6
CONTINUOUS
 62
     3
100
AcDbCircle
 10
-11948.0
 20
-34658.978915
 30
0.0
 40
1.0
100
AcDbArc
 50
90.0
 51
180.0
  0
LINE
  5
460
100
AcDbEntity
  8
LAY-1
  6
CONTINUOUS
 62
     3
100
AcDbLine
 10
-11948.0
 20
-34656.978915
 30
0.0
 11
-11948.0
 21
-34657.978915
 31
0.0
  0
LINE
  5
461
100
AcDbEntity
  8
LAY-1
  6
CONTINUOUS
 62
     3
100
AcDbLine
 10
-11948.0
 20
-34680.978915
 30
0.0
 11
-11948.0
 21
-34681.978915
 31
0.0
  0
LINE
  5
462
100
AcDbEntity
  8
LAY-1
  6
CONTINUOUS
 62
     3
100
AcDbLine
 10
-11948.0
 20
-34656.978915
 30
0.0
 11
-11970.0
 21
-34656.978915
 31
0.0
  0
LINE
  5
463
100
AcDbEntity
  8
LAY-1
  6
CONTINUOUS
 62
     3
100
AcDbLine
 10
-11970.0
 20
-34657.978915
 30
0.0
 11
-11948.0
 21
-34657.978915
 31
0.0
  0
LINE
  5
464
100
AcDbEntity
  8
LAY-1
  6
CONTINUOUS
 62
     3
100
AcDbLine
 10
-11970.0
 20
-34680.978915
 30
0.0
 11
-11948.0
 21
-34680.978915
 31
0.0
  0
LINE
  5
465
100
AcDbEntity
  8
LAY-1
  6
CONTINUOUS
 62
     3
100
AcDbLine
 10
-11970.0
 20
-34681.978915
 30
0.0
 11
-11948.0
 21
-34681.978915
 31
0.0
  0
ARC
  5
466
100
AcDbEntity
  8
LAY-1
  6
CONTINUOUS
 62
     3
100
AcDbCircle
 10
-11967.0
 20
-34685.978915
 30
0.0
 40
0.5
100
AcDbArc
 50
270.0
 51
0.0
  0
LINE
  5
467
100
AcDbEntity
  8
LAY-1
  6
CONTINUOUS
 62
     3
100
AcDbLine
 10
-11968.0
 20
-34686.478915
 30
0.0
 11
-11965.5
 21
-34688.978915
 31
0.0
  0
ARC
  5
468
100
AcDbEntity
  8
LAY-1
  6
CONTINUOUS
 62
     3
100
AcDbCircle
 10
-11951.0
 20
-34685.978915
 30
0.0
 40
0.5
100
AcDbArc
 50
180.0
 51
270.0
  0
LINE
  5
469
100
AcDbEntity
  8
LAY-1
  6
CONTINUOUS
 62
     3
100
AcDbLine
 10
-11950.0
 20
-34686.478915
 30
0.0
 11
-11952.5
 21
-34688.978915
 31
0.0
  0
LINE
  5
46A
100
AcDbEntity
  8
LAY-1
  6
CONTINUOUS
 62
     3
100
AcDbLine
 10
-11952.5
 20
-34688.978915
 30
0.0
 11
-11965.5
 21
-34688.978915
 31
0.0
  0
LINE
  5
46B
100
AcDbEntity
  8
LAY-1
  6
CONTINUOUS
 62
     3
100
AcDbLine
 10
-11968.0
 20
-34686.478915
 30
0.0
 11
-11950.0
 21
-34686.478915
 31
0.0
  0
LINE
  5
46C
100
AcDbEntity
  8
LAY-1
  6
CONTINUOUS
 62
     3
100
AcDbLine
 10
-11966.5
 20
-34685.178915
 30
0.0
 11
-11966.5
 21
-34685.978915
 31
0.0
  0
LINE
  5
46D
100
AcDbEntity
  8
LAY-1
  6
CONTINUOUS
 62
     3
100
AcDbLine
 10
-11951.5
 20
-34685.178915
 30
0.0
 11
-11951.5
 21
-34685.978915
 31
0.0
  0
LINE
  5
46E
100
AcDbEntity
  8
LAY-1
  6
EXLTYPE1
 62
     1
100
AcDbLine
 10
-11959.0
 20
-34651.878915
 30
0.0
 11
-11959.0
 21
-34695.978915
 31
0.0
  0
ARC
  5
46F
100
AcDbEntity
  8
LAY-1
  6
CONTINUOUS
 62
     3
100
AcDbCircle
 10
-11886.995665
 20
-34685.978915
 30
0.0
 40
0.5
100
AcDbArc
 50
270.0
 51
0.0
  0
LINE
  5
470
100
AcDbEntity
  8
LAY-1
  6
CONTINUOUS
 62
     3
100
AcDbLine
 10
-11887.995665
 20
-34686.478915
 30
0.0
 11
-11885.495665
 21
-34688.978915
 31
0.0
  0
ARC
  5
471
100
AcDbEntity
  8
LAY-1
  6
CONTINUOUS
 62
     3
100
AcDbCircle
 10
-11870.995665
 20
-34685.978915
 30
0.0
 40
0.5
100
AcDbArc
 50
180.0
 51
270.0
  0
LINE
  5
472
100
AcDbEntity
  8
LAY-1
  6
CONTINUOUS
 62
     3
100
AcDbLine
 10
-11869.995665
 20
-34686.478915
 30
0.0
 11
-11872.495665
 21
-34688.978915
 31
0.0
  0
LINE
  5
473
100
AcDbEntity
  8
LAY-1
  6
CONTINUOUS
 62
     3
100
AcDbLine
 10
-11872.495665
 20
-34688.978915
 30
0.0
 11
-11885.495665
 21
-34688.978915
 31
0.0
  0
LINE
  5
474
100
AcDbEntity
  8
LAY-1
  6
CONTINUOUS
 62
     3
100
AcDbLine
 10
-11887.995665
 20
-34686.478915
 30
0.0
 11
-11869.995665
 21
-34686.478915
 31
0.0
  0
LINE
  5
475
100
AcDbEntity
  8
LAY-1
  6
CONTINUOUS
 62
     3
100
AcDbLine
 10
-11886.495665
 20
-34685.178915
 30
0.0
 11
-11886.495665
 21
-34685.978915
 31
0.0
  0
LINE
  5
476
100
AcDbEntity
  8
LAY-1
  6
CONTINUOUS
 62
     3
100
AcDbLine
 10
-11871.495665
 20
-34685.178915
 30
0.0
 11
-11871.495665
 21
-34685.978915
 31
0.0
  0
LINE
  5
477
100
AcDbEntity
  8
LAY-1
  6
EXLTYPE2
 62
     1
100
AcDbLine
 10
-11866.995665
 20
-34681.978915
 30
0.0
 11
-11890.995665
 21
-34681.978915
 31
0.0
  0
LINE
  5
478
100
AcDbEntity
  8
LAY-1
  6
EXLTYPE2
 62
     1
100
AcDbLine
 10
-11886.745665
 20
-34685.178915
 30
0.0
 11
-11886.745665
 21
-34681.978915
 31
0.0
  0
LINE
  5
479
100
AcDbEntity
  8
LAY-1
  6
EXLTYPE2
 62
     1
100
AcDbLine
 10
-11871.245665
 20
-34685.178915
 30
0.0
 11
-11871.245665
 21
-34681.978915
 31
0.0
  0
LINE
  5
47A
100
AcDbEntity
  8
LAY-1
  6
EXLTYPE1
 62
     1
100
AcDbLine
 10
-11878.995665
 20
-34695.978915
 30
0.0
 11
-11878.995665
 21
-34676.978915
 31
0.0
  0
LINE
  5
47B
100
AcDbEntity
  8
LAY-1
  6
EXLTYPE2
 62
     1
100
AcDbLine
 10
-11866.995665
 20
-34578.378915
 30
0.0
 11
-11890.995665
 21
-34578.378915
 31
0.0
  0
LINE
  5
47C
100
AcDbEntity
  8
LAY-1
  6
EXLTYPE2
 62
     1
100
AcDbLine
 10
-11886.745665
 20
-34575.178915
 30
0.0
 11
-11886.745665
 21
-34578.378915
 31
0.0
  0
LINE
  5
47D
100
AcDbEntity
  8
LAY-1
  6
EXLTYPE2
 62
     1
100
AcDbLine
 10
-11871.245665
 20
-34575.178915
 30
0.0
 11
-11871.245665
 21
-34578.378915
 31
0.0
  0
LINE
  5
47E
100
AcDbEntity
  8
LAY-1
  6
EXLTYPE1
 62
     1
100
AcDbLine
 10
-11878.995665
 20
-34565.678915
 30
0.0
 11
-11878.995665
 21
-34582.478915
 31
0.0
  0
LINE
  5
47F
100
AcDbEntity
  8
LAY-1
  6
CONTINUOUS
 62
     3
100
AcDbLine
 10
-11866.995665
 20
-34575.178915
 30
0.0
 11
-11866.995665
 21
-34685.178915
 31
0.0
  0
LINE
  5
480
100
AcDbEntity
  8
LAY-1
  6
CONTINUOUS
 62
     3
100
AcDbLine
 10
-11890.995665
 20
-34575.178915
 30
0.0
 11
-11890.995665
 21
-34685.178915
 31
0.0
  0
LINE
  5
481
100
AcDbEntity
  8
LAY-1
  6
CONTINUOUS
 62
     3
100
AcDbLine
 10
-11978.0
 20
-34187.239701
 30
0.0
 11
-11978.0
 21
-34184.039701
 31
0.0
  0
LINE
  5
482
100
AcDbEntity
  8
LAY-1
  6
EXLTYPE2
 62
     1
100
AcDbLine
 10
-11966.75
 20
-34187.239701
 30
0.0
 11
-11966.75
 21
-34184.039701
 31
0.0
  0
LINE
  5
483
100
AcDbEntity
  8
LAY-1
  6
EXLTYPE2
 62
     1
100
AcDbLine
 10
-11951.25
 20
-34187.239701
 30
0.0
 11
-11951.25
 21
-34184.039701
 31
0.0
  0
LINE
  5
484
100
AcDbEntity
  8
LAY-1
  6
CONTINUOUS
 62
     3
100
AcDbLine
 10
-11967.75
 20
-34184.039701
 30
0.0
 11
-11950.25
 21
-34184.039701
 31
0.0
  0
ARC
  5
485
100
AcDbEntity
  8
LAY-1
  6
CONTINUOUS
 62
     3
100
AcDbCircle
 10
-11970.0
 20
-34182.039701
 30
0.0
 40
1.0
100
AcDbArc
 50
270.0
 51
0.0
  0
LINE
  5
486
100
AcDbEntity
  8
LAY-1
  6
CONTINUOUS
 62
     3
100
AcDbLine
 10
-11969.0
 20
-34161.039701
 30
0.0
 11
-11969.0
 21
-34182.039701
 31
0.0
  0
ARC
  5
487
100
AcDbEntity
  8
LAY-1
  6
CONTINUOUS
 62
     3
100
AcDbCircle
 10
-11970.0
 20
-34161.039701
 30
0.0
 40
1.0
100
AcDbArc
 50
0.0
 51
90.0
  0
LINE
  5
488
100
AcDbEntity
  8
LAY-1
  6
CONTINUOUS
 62
     3
100
AcDbLine
 10
-11970.0
 20
-34159.039701
 30
0.0
 11
-11970.0
 21
-34160.039701
 31
0.0
  0
LINE
  5
489
100
AcDbEntity
  8
LAY-1
  6
CONTINUOUS
 62
     3
100
AcDbLine
 10
-11970.0
 20
-34183.039701
 30
0.0
 11
-11970.0
 21
-34184.039701
 31
0.0
  0
ARC
  5
48A
100
AcDbEntity
  8
LAY-1
  6
CONTINUOUS
 62
     3
100
AcDbCircle
 10
-11948.0
 20
-34182.039701
 30
0.0
 40
1.0
100
AcDbArc
 50
180.0
 51
270.0
  0
LINE
  5
48B
100
AcDbEntity
  8
LAY-1
  6
CONTINUOUS
 62
     3
100
AcDbLine
 10
-11949.0
 20
-34161.039701
 30
0.0
 11
-11949.0
 21
-34182.039701
 31
0.0
  0
ARC
  5
48C
100
AcDbEntity
  8
LAY-1
  6
CONTINUOUS
 62
     3
100
AcDbCircle
 10
-11948.0
 20
-34161.039701
 30
0.0
 40
1.0
100
AcDbArc
 50
90.0
 51
180.0
  0
LINE
  5
48D
100
AcDbEntity
  8
LAY-1
  6
CONTINUOUS
 62
     3
100
AcDbLine
 10
-11948.0
 20
-34159.039701
 30
0.0
 11
-11948.0
 21
-34160.039701
 31
0.0
  0
LINE
  5
48E
100
AcDbEntity
  8
LAY-1
  6
CONTINUOUS
 62
     3
100
AcDbLine
 10
-11948.0
 20
-34183.039701
 30
0.0
 11
-11948.0
 21
-34184.039701
 31
0.0
  0
LINE
  5
48F
100
AcDbEntity
  8
LAY-1
  6
CONTINUOUS
 62
     3
100
AcDbLine
 10
-11948.0
 20
-34159.039701
 30
0.0
 11
-11970.0
 21
-34159.039701
 31
0.0
  0
LINE
  5
490
100
AcDbEntity
  8
LAY-1
  6
CONTINUOUS
 62
     3
100
AcDbLine
 10
-11970.0
 20
-34160.039701
 30
0.0
 11
-11948.0
 21
-34160.039701
 31
0.0
  0
LINE
  5
491
100
AcDbEntity
  8
LAY-1
  6
CONTINUOUS
 62
     3
100
AcDbLine
 10
-11970.0
 20
-34183.039701
 30
0.0
 11
-11948.0
 21
-34183.039701
 31
0.0
  0
LINE
  5
492
100
AcDbEntity
  8
LAY-1
  6
CONTINUOUS
 62
     3
100
AcDbLine
 10
-11970.0
 20
-34184.039701
 30
0.0
 11
-11948.0
 21
-34184.039701
 31
0.0
  0
ARC
  5
493
100
AcDbEntity
  8
LAY-1
  6
CONTINUOUS
 62
     3
100
AcDbCircle
 10
-11886.995665
 20
-34188.039701
 30
0.0
 40
0.5
100
AcDbArc
 50
270.0
 51
0.0
  0
LINE
  5
494
100
AcDbEntity
  8
LAY-1
  6
CONTINUOUS
 62
     3
100
AcDbLine
 10
-11887.995665
 20
-34188.539701
 30
0.0
 11
-11885.495665
 21
-34191.039701
 31
0.0
  0
ARC
  5
495
100
AcDbEntity
  8
LAY-1
  6
CONTINUOUS
 62
     3
100
AcDbCircle
 10
-11870.995665
 20
-34188.039701
 30
0.0
 40
0.5
100
AcDbArc
 50
180.0
 51
270.0
  0
LINE
  5
496
100
AcDbEntity
  8
LAY-1
  6
CONTINUOUS
 62
     3
100
AcDbLine
 10
-11869.995665
 20
-34188.539701
 30
0.0
 11
-11872.495665
 21
-34191.039701
 31
0.0
  0
LINE
  5
497
100
AcDbEntity
  8
LAY-1
  6
CONTINUOUS
 62
     3
100
AcDbLine
 10
-11872.495665
 20
-34191.039701
 30
0.0
 11
-11885.495665
 21
-34191.039701
 31
0.0
  0
LINE
  5
498
100
AcDbEntity
  8
LAY-1
  6
CONTINUOUS
 62
     3
100
AcDbLine
 10
-11887.995665
 20
-34188.539701
 30
0.0
 11
-11869.995665
 21
-34188.539701
 31
0.0
  0
LINE
  5
499
100
AcDbEntity
  8
LAY-1
  6
CONTINUOUS
 62
     3
100
AcDbLine
 10
-11886.495665
 20
-34187.239701
 30
0.0
 11
-11886.495665
 21
-34188.039701
 31
0.0
  0
LINE
  5
49A
100
AcDbEntity
  8
LAY-1
  6
CONTINUOUS
 62
     3
100
AcDbLine
 10
-11871.495665
 20
-34187.239701
 30
0.0
 11
-11871.495665
 21
-34188.039701
 31
0.0
  0
ARC
  5
49B
100
AcDbEntity
  8
LAY-1
  6
CONTINUOUS
 62
     3
100
AcDbCircle
 10
-11967.0
 20
-34188.039701
 30
0.0
 40
0.5
100
AcDbArc
 50
270.0
 51
0.0
  0
LINE
  5
49C
100
AcDbEntity
  8
LAY-1
  6
CONTINUOUS
 62
     3
100
AcDbLine
 10
-11968.0
 20
-34188.539701
 30
0.0
 11
-11965.5
 21
-34191.039701
 31
0.0
  0
ARC
  5
49D
100
AcDbEntity
  8
LAY-1
  6
CONTINUOUS
 62
     3
100
AcDbCircle
 10
-11951.0
 20
-34188.039701
 30
0.0
 40
0.5
100
AcDbArc
 50
180.0
 51
270.0
  0
LINE
  5
49E
100
AcDbEntity
  8
LAY-1
  6
CONTINUOUS
 62
     3
100
AcDbLine
 10
-11950.0
 20
-34188.539701
 30
0.0
 11
-11952.5
 21
-34191.039701
 31
0.0
  0
LINE
  5
49F
100
AcDbEntity
  8
LAY-1
  6
CONTINUOUS
 62
     3
100
AcDbLine
 10
-11968.0
 20
-34188.539701
 30
0.0
 11
-11950.0
 21
-34188.539701
 31
0.0
  0
LINE
  5
4A0
100
AcDbEntity
  8
LAY-1
  6
CONTINUOUS
 62
     3
100
AcDbLine
 10
-11965.5
 20
-34191.039701
 30
0.0
 11
-11952.5
 21
-34191.039701
 31
0.0
  0
LINE
  5
4A1
100
AcDbEntity
  8
LAY-1
  6
CONTINUOUS
 62
     3
100
AcDbLine
 10
-11966.5
 20
-34187.239701
 30
0.0
 11
-11966.5
 21
-34188.039701
 31
0.0
  0
LINE
  5
4A2
100
AcDbEntity
  8
LAY-1
  6
CONTINUOUS
 62
     3
100
AcDbLine
 10
-11951.5
 20
-34187.239701
 30
0.0
 11
-11951.5
 21
-34188.039701
 31
0.0
  0
LINE
  5
4A3
100
AcDbEntity
  8
LAY-1
  6
EXLTYPE1
 62
     1
100
AcDbLine
 10
-11959.0
 20
-34153.939701
 30
0.0
 11
-11959.0
 21
-34198.039701
 31
0.0
  0
LINE
  5
4A4
100
AcDbEntity
  8
LAY-1
  6
EXLTYPE2
 62
     1
100
AcDbLine
 10
-11866.995665
 20
-34184.039701
 30
0.0
 11
-11890.995665
 21
-34184.039701
 31
0.0
  0
LINE
  5
4A5
100
AcDbEntity
  8
LAY-1
  6
EXLTYPE2
 62
     1
100
AcDbLine
 10
-11886.745665
 20
-34187.239701
 30
0.0
 11
-11886.745665
 21
-34184.039701
 31
0.0
  0
LINE
  5
4A6
100
AcDbEntity
  8
LAY-1
  6
EXLTYPE2
 62
     1
100
AcDbLine
 10
-11871.245665
 20
-34187.239701
 30
0.0
 11
-11871.245665
 21
-34184.039701
 31
0.0
  0
LINE
  5
4A7
100
AcDbEntity
  8
LAY-1
  6
EXLTYPE1
 62
     1
100
AcDbLine
 10
-11878.995665
 20
-34198.039701
 30
0.0
 11
-11878.995665
 21
-34179.039701
 31
0.0
  0
LINE
  5
4A8
100
AcDbEntity
  8
LAY-1
  6
CONTINUOUS
 62
     3
100
AcDbLine
 10
-11978.0
 20
-34102.239701
 30
0.0
 11
-11978.0
 21
-34105.439701
 31
0.0
  0
LINE
  5
4A9
100
AcDbEntity
  8
LAY-1
  6
EXLTYPE1
 62
     1
100
AcDbLine
 10
-11959.0
 20
-34097.239701
 30
0.0
 11
-11959.0
 21
-34110.439701
 31
0.0
  0
LINE
  5
4AA
100
AcDbEntity
  8
LAY-1
  6
EXLTYPE2
 62
     1
100
AcDbLine
 10
-11964.5
 20
-34102.239701
 30
0.0
 11
-11964.5
 21
-34105.439701
 31
0.0
  0
LINE
  5
4AB
100
AcDbEntity
  8
LAY-1
  6
EXLTYPE2
 62
     1
100
AcDbLine
 10
-11953.5
 20
-34102.239701
 30
0.0
 11
-11953.5
 21
-34105.439701
 31
0.0
  0
LINE
  5
4AC
100
AcDbEntity
  8
LAY-1
  6
EXLTYPE1
 62
     1
100
AcDbLine
 10
-11878.995665
 20
-34097.239701
 30
0.0
 11
-11878.995665
 21
-34110.439701
 31
0.0
  0
LINE
  5
4AD
100
AcDbEntity
  8
LAY-1
  6
EXLTYPE2
 62
     1
100
AcDbLine
 10
-11884.995665
 20
-34102.239701
 30
0.0
 11
-11884.995665
 21
-34105.439701
 31
0.0
  0
LINE
  5
4AE
100
AcDbEntity
  8
LAY-1
  6
EXLTYPE2
 62
     1
100
AcDbLine
 10
-11866.995665
 20
-34105.439701
 30
0.0
 11
-11890.995665
 21
-34105.439701
 31
0.0
  0
LINE
  5
4AF
100
AcDbEntity
  8
LAY-1
  6
EXLTYPE2
 62
     1
100
AcDbLine
 10
-11872.995665
 20
-34102.239701
 30
0.0
 11
-11872.995665
 21
-34105.439701
 31
0.0
  0
LINE
  5
4B0
100
AcDbEntity
  8
LAY-1
  6
CONTINUOUS
 62
     3
100
AcDbLine
 10
-11866.995665
 20
-34102.239701
 30
0.0
 11
-11866.995665
 21
-34187.239701
 31
0.0
  0
LINE
  5
4B1
100
AcDbEntity
  8
LAY-1
  6
CONTINUOUS
 62
     3
100
AcDbLine
 10
-11890.995665
 20
-34102.239701
 30
0.0
 11
-11890.995665
 21
-34187.239701
 31
0.0
  0
LINE
  5
4B2
100
AcDbEntity
  8
LAY-1
  6
CONTINUOUS
 62
     3
100
AcDbLine
 10
-11628.0
 20
-34102.239701
 30
0.0
 11
-11628.0
 21
-34105.439701
 31
0.0
  0
LINE
  5
4B3
100
AcDbEntity
  8
LAY-1
  6
EXLTYPE1
 62
     1
100
AcDbLine
 10
-11609.0
 20
-34097.239701
 30
0.0
 11
-11609.0
 21
-34110.439701
 31
0.0
  0
LINE
  5
4B4
100
AcDbEntity
  8
LAY-1
  6
EXLTYPE2
 62
     1
100
AcDbLine
 10
-11614.5
 20
-34102.239701
 30
0.0
 11
-11614.5
 21
-34105.439701
 31
0.0
  0
LINE
  5
4B5
100
AcDbEntity
  8
LAY-1
  6
EXLTYPE2
 62
     1
100
AcDbLine
 10
-11603.5
 20
-34102.239701
 30
0.0
 11
-11603.5
 21
-34105.439701
 31
0.0
  0
LINE
  5
4B6
100
AcDbEntity
  8
LAY-1
  6
EXLTYPE1
 62
     1
100
AcDbLine
 10
-11528.995665
 20
-34097.239701
 30
0.0
 11
-11528.995665
 21
-34110.439701
 31
0.0
  0
LINE
  5
4B7
100
AcDbEntity
  8
LAY-1
  6
EXLTYPE2
 62
     1
100
AcDbLine
 10
-11534.995665
 20
-34102.239701
 30
0.0
 11
-11534.995665
 21
-34105.439701
 31
0.0
  0
LINE
  5
4B8
100
AcDbEntity
  8
LAY-1
  6
EXLTYPE2
 62
     1
100
AcDbLine
 10
-11516.995665
 20
-34105.439701
 30
0.0
 11
-11540.995665
 21
-34105.439701
 31
0.0
  0
LINE
  5
4B9
100
AcDbEntity
  8
LAY-1
  6
EXLTYPE2
 62
     1
100
AcDbLine
 10
-11522.995665
 20
-34102.239701
 30
0.0
 11
-11522.995665
 21
-34105.439701
 31
0.0
  0
LINE
  5
4BA
100
AcDbEntity
  8
LAY-1
  6
CONTINUOUS
 62
     3
100
AcDbLine
 10
-11628.0
 20
-34187.239701
 30
0.0
 11
-11628.0
 21
-34184.039701
 31
0.0
  0
LINE
  5
4BB
100
AcDbEntity
  8
LAY-1
  6
EXLTYPE2
 62
     1
100
AcDbLine
 10
-11616.75
 20
-34187.239701
 30
0.0
 11
-11616.75
 21
-34184.039701
 31
0.0
  0
LINE
  5
4BC
100
AcDbEntity
  8
LAY-1
  6
EXLTYPE2
 62
     1
100
AcDbLine
 10
-11601.25
 20
-34187.239701
 30
0.0
 11
-11601.25
 21
-34184.039701
 31
0.0
  0
LINE
  5
4BD
100
AcDbEntity
  8
LAY-1
  6
EXLTYPE2
 62
     1
100
AcDbLine
 10
-11516.995665
 20
-34184.039701
 30
0.0
 11
-11540.995665
 21
-34184.039701
 31
0.0
  0
LINE
  5
4BE
100
AcDbEntity
  8
LAY-1
  6
EXLTYPE2
 62
     1
100
AcDbLine
 10
-11536.745665
 20
-34187.239701
 30
0.0
 11
-11536.745665
 21
-34184.039701
 31
0.0
  0
LINE
  5
4BF
100
AcDbEntity
  8
LAY-1
  6
EXLTYPE2
 62
     1
100
AcDbLine
 10
-11521.245665
 20
-34187.239701
 30
0.0
 11
-11521.245665
 21
-34184.039701
 31
0.0
  0
LINE
  5
4C0
100
AcDbEntity
  8
LAY-1
  6
CONTINUOUS
 62
     3
100
AcDbLine
 10
-11617.75
 20
-34184.039701
 30
0.0
 11
-11600.25
 21
-34184.039701
 31
0.0
  0
ARC
  5
4C1
100
AcDbEntity
  8
LAY-1
  6
CONTINUOUS
 62
     3
100
AcDbCircle
 10
-11620.0
 20
-34182.039701
 30
0.0
 40
1.0
100
AcDbArc
 50
270.0
 51
0.0
  0
LINE
  5
4C2
100
AcDbEntity
  8
LAY-1
  6
CONTINUOUS
 62
     3
100
AcDbLine
 10
-11619.0
 20
-34161.039701
 30
0.0
 11
-11619.0
 21
-34182.039701
 31
0.0
  0
ARC
  5
4C3
100
AcDbEntity
  8
LAY-1
  6
CONTINUOUS
 62
     3
100
AcDbCircle
 10
-11620.0
 20
-34161.039701
 30
0.0
 40
1.0
100
AcDbArc
 50
0.0
 51
90.0
  0
LINE
  5
4C4
100
AcDbEntity
  8
LAY-1
  6
CONTINUOUS
 62
     3
100
AcDbLine
 10
-11620.0
 20
-34159.039701
 30
0.0
 11
-11620.0
 21
-34160.039701
 31
0.0
  0
LINE
  5
4C5
100
AcDbEntity
  8
LAY-1
  6
CONTINUOUS
 62
     3
100
AcDbLine
 10
-11620.0
 20
-34183.039701
 30
0.0
 11
-11620.0
 21
-34184.039701
 31
0.0
  0
ARC
  5
4C6
100
AcDbEntity
  8
LAY-1
  6
CONTINUOUS
 62
     3
100
AcDbCircle
 10
-11598.0
 20
-34182.039701
 30
0.0
 40
1.0
100
AcDbArc
 50
180.0
 51
270.0
  0
LINE
  5
4C7
100
AcDbEntity
  8
LAY-1
  6
CONTINUOUS
 62
     3
100
AcDbLine
 10
-11599.0
 20
-34161.039701
 30
0.0
 11
-11599.0
 21
-34182.039701
 31
0.0
  0
ARC
  5
4C8
100
AcDbEntity
  8
LAY-1
  6
CONTINUOUS
 62
     3
100
AcDbCircle
 10
-11598.0
 20
-34161.039701
 30
0.0
 40
1.0
100
AcDbArc
 50
90.0
 51
180.0
  0
LINE
  5
4C9
100
AcDbEntity
  8
LAY-1
  6
CONTINUOUS
 62
     3
100
AcDbLine
 10
-11598.0
 20
-34159.039701
 30
0.0
 11
-11598.0
 21
-34160.039701
 31
0.0
  0
LINE
  5
4CA
100
AcDbEntity
  8
LAY-1
  6
CONTINUOUS
 62
     3
100
AcDbLine
 10
-11598.0
 20
-34183.039701
 30
0.0
 11
-11598.0
 21
-34184.039701
 31
0.0
  0
LINE
  5
4CB
100
AcDbEntity
  8
LAY-1
  6
CONTINUOUS
 62
     3
100
AcDbLine
 10
-11598.0
 20
-34159.039701
 30
0.0
 11
-11620.0
 21
-34159.039701
 31
0.0
  0
LINE
  5
4CC
100
AcDbEntity
  8
LAY-1
  6
CONTINUOUS
 62
     3
100
AcDbLine
 10
-11620.0
 20
-34160.039701
 30
0.0
 11
-11598.0
 21
-34160.039701
 31
0.0
  0
LINE
  5
4CD
100
AcDbEntity
  8
LAY-1
  6
CONTINUOUS
 62
     3
100
AcDbLine
 10
-11620.0
 20
-34183.039701
 30
0.0
 11
-11598.0
 21
-34183.039701
 31
0.0
  0
LINE
  5
4CE
100
AcDbEntity
  8
LAY-1
  6
CONTINUOUS
 62
     3
100
AcDbLine
 10
-11620.0
 20
-34184.039701
 30
0.0
 11
-11598.0
 21
-34184.039701
 31
0.0
  0
LINE
  5
4CF
100
AcDbEntity
  8
LAY-1
  6
CONTINUOUS
 62
     3
100
AcDbLine
 10
-11516.995665
 20
-34102.239701
 30
0.0
 11
-11516.995665
 21
-34187.239701
 31
0.0
  0
LINE
  5
4D0
100
AcDbEntity
  8
LAY-1
  6
CONTINUOUS
 62
     3
100
AcDbLine
 10
-11540.995665
 20
-34102.239701
 30
0.0
 11
-11540.995665
 21
-34187.239701
 31
0.0
  0
ARC
  5
4D1
100
AcDbEntity
  8
LAY-1
  6
CONTINUOUS
 62
     3
100
AcDbCircle
 10
-11536.995665
 20
-34188.039701
 30
0.0
 40
0.5
100
AcDbArc
 50
270.0
 51
0.0
  0
LINE
  5
4D2
100
AcDbEntity
  8
LAY-1
  6
CONTINUOUS
 62
     3
100
AcDbLine
 10
-11537.995665
 20
-34188.539701
 30
0.0
 11
-11535.495665
 21
-34191.039701
 31
0.0
  0
ARC
  5
4D3
100
AcDbEntity
  8
LAY-1
  6
CONTINUOUS
 62
     3
100
AcDbCircle
 10
-11520.995665
 20
-34188.039701
 30
0.0
 40
0.5
100
AcDbArc
 50
180.0
 51
270.0
  0
LINE
  5
4D4
100
AcDbEntity
  8
LAY-1
  6
CONTINUOUS
 62
     3
100
AcDbLine
 10
-11519.995665
 20
-34188.539701
 30
0.0
 11
-11522.495665
 21
-34191.039701
 31
0.0
  0
LINE
  5
4D5
100
AcDbEntity
  8
LAY-1
  6
CONTINUOUS
 62
     3
100
AcDbLine
 10
-11522.495665
 20
-34191.039701
 30
0.0
 11
-11535.495665
 21
-34191.039701
 31
0.0
  0
LINE
  5
4D6
100
AcDbEntity
  8
LAY-1
  6
CONTINUOUS
 62
     3
100
AcDbLine
 10
-11537.995665
 20
-34188.539701
 30
0.0
 11
-11519.995665
 21
-34188.539701
 31
0.0
  0
LINE
  5
4D7
100
AcDbEntity
  8
LAY-1
  6
CONTINUOUS
 62
     3
100
AcDbLine
 10
-11536.495665
 20
-34187.239701
 30
0.0
 11
-11536.495665
 21
-34188.039701
 31
0.0
  0
LINE
  5
4D8
100
AcDbEntity
  8
LAY-1
  6
CONTINUOUS
 62
     3
100
AcDbLine
 10
-11521.495665
 20
-34187.239701
 30
0.0
 11
-11521.495665
 21
-34188.039701
 31
0.0
  0
ARC
  5
4D9
100
AcDbEntity
  8
LAY-1
  6
CONTINUOUS
 62
     3
100
AcDbCircle
 10
-11617.0
 20
-34188.039701
 30
0.0
 40
0.5
100
AcDbArc
 50
270.0
 51
0.0
  0
LINE
  5
4DA
100
AcDbEntity
  8
LAY-1
  6
CONTINUOUS
 62
     3
100
AcDbLine
 10
-11618.0
 20
-34188.539701
 30
0.0
 11
-11615.5
 21
-34191.039701
 31
0.0
  0
ARC
  5
4DB
100
AcDbEntity
  8
LAY-1
  6
CONTINUOUS
 62
     3
100
AcDbCircle
 10
-11601.0
 20
-34188.039701
 30
0.0
 40
0.5
100
AcDbArc
 50
180.0
 51
270.0
  0
LINE
  5
4DC
100
AcDbEntity
  8
LAY-1
  6
CONTINUOUS
 62
     3
100
AcDbLine
 10
-11600.0
 20
-34188.539701
 30
0.0
 11
-11602.5
 21
-34191.039701
 31
0.0
  0
LINE
  5
4DD
100
AcDbEntity
  8
LAY-1
  6
CONTINUOUS
 62
     3
100
AcDbLine
 10
-11618.0
 20
-34188.539701
 30
0.0
 11
-11600.0
 21
-34188.539701
 31
0.0
  0
LINE
  5
4DE
100
AcDbEntity
  8
LAY-1
  6
CONTINUOUS
 62
     3
100
AcDbLine
 10
-11615.5
 20
-34191.039701
 30
0.0
 11
-11602.5
 21
-34191.039701
 31
0.0
  0
LINE
  5
4DF
100
AcDbEntity
  8
LAY-1
  6
CONTINUOUS
 62
     3
100
AcDbLine
 10
-11616.5
 20
-34187.239701
 30
0.0
 11
-11616.5
 21
-34188.039701
 31
0.0
  0
LINE
  5
4E0
100
AcDbEntity
  8
LAY-1
  6
CONTINUOUS
 62
     3
100
AcDbLine
 10
-11601.5
 20
-34187.239701
 30
0.0
 11
-11601.5
 21
-34188.039701
 31
0.0
  0
LINE
  5
4E1
100
AcDbEntity
  8
LAY-1
  6
EXLTYPE1
 62
     1
100
AcDbLine
 10
-11609.0
 20
-34153.939701
 30
0.0
 11
-11609.0
 21
-34198.039701
 31
0.0
  0
LINE
  5
4E2
100
AcDbEntity
  8
LAY-1
  6
EXLTYPE1
 62
     1
100
AcDbLine
 10
-11528.995665
 20
-34198.039701
 30
0.0
 11
-11528.995665
 21
-34179.039701
 31
0.0
  0
LINE
  5
4E3
100
AcDbEntity
  8
LAY-1
  6
EXLTYPE2
 62
     1
100
AcDbLine
 10
-11593.2
 20
-34038.239701
 30
0.0
 11
-11593.2
 21
-34014.239701
 31
0.0
  0
LINE
  5
4E4
100
AcDbEntity
  8
LAY-1
  6
EXLTYPE2
 62
     1
100
AcDbLine
 10
-11593.2
 20
-34486.178915
 30
0.0
 11
-11593.2
 21
-34462.178915
 31
0.0
  0
LINE
  5
4E5
100
AcDbEntity
  8
LAY-1
  6
CONTINUOUS
 62
     3
100
AcDbLine
 10
-11628.0
 20
-34575.178915
 30
0.0
 11
-11628.0
 21
-34578.378915
 31
0.0
  0
LINE
  5
4E6
100
AcDbEntity
  8
LAY-1
  6
EXLTYPE2
 62
     1
100
AcDbLine
 10
-11616.75
 20
-34575.178915
 30
0.0
 11
-11616.75
 21
-34578.378915
 31
0.0
  0
LINE
  5
4E7
100
AcDbEntity
  8
LAY-1
  6
EXLTYPE2
 62
     1
100
AcDbLine
 10
-11601.25
 20
-34575.178915
 30
0.0
 11
-11601.25
 21
-34578.378915
 31
0.0
  0
LINE
  5
4E8
100
AcDbEntity
  8
LAY-1
  6
EXLTYPE1
 62
     1
100
AcDbLine
 10
-11609.0
 20
-34609.778915
 30
0.0
 11
-11609.0
 21
-34565.678915
 31
0.0
  0
LINE
  5
4E9
100
AcDbEntity
  8
LAY-1
  6
CONTINUOUS
 62
     3
100
AcDbLine
 10
-11616.5
 20
-34579.678915
 30
0.0
 11
-11616.5
 21
-34578.378915
 31
0.0
  0
LINE
  5
4EA
100
AcDbEntity
  8
LAY-1
  6
CONTINUOUS
 62
     3
100
AcDbLine
 10
-11601.5
 20
-34579.678915
 30
0.0
 11
-11601.5
 21
-34578.378915
 31
0.0
  0
LINE
  5
4EB
100
AcDbEntity
  8
LAY-1
  6
EXLTYPE2
 62
     1
100
AcDbLine
 10
-11516.995665
 20
-34578.378915
 30
0.0
 11
-11540.995665
 21
-34578.378915
 31
0.0
  0
LINE
  5
4EC
100
AcDbEntity
  8
LAY-1
  6
EXLTYPE2
 62
     1
100
AcDbLine
 10
-11536.745665
 20
-34575.178915
 30
0.0
 11
-11536.745665
 21
-34578.378915
 31
0.0
  0
LINE
  5
4ED
100
AcDbEntity
  8
LAY-1
  6
EXLTYPE2
 62
     1
100
AcDbLine
 10
-11521.245665
 20
-34575.178915
 30
0.0
 11
-11521.245665
 21
-34578.378915
 31
0.0
  0
LINE
  5
4EE
100
AcDbEntity
  8
LAY-1
  6
EXLTYPE1
 62
     1
100
AcDbLine
 10
-11528.995665
 20
-34565.678915
 30
0.0
 11
-11528.995665
 21
-34583.378915
 31
0.0
  0
LINE
  5
4EF
100
AcDbEntity
  8
LAY-1
  6
CONTINUOUS
 62
     3
100
AcDbLine
 10
-11628.0
 20
-34681.978915
 30
0.0
 11
-11628.0
 21
-34685.178915
 31
0.0
  0
LINE
  5
4F0
100
AcDbEntity
  8
LAY-1
  6
EXLTYPE2
 62
     1
100
AcDbLine
 10
-11616.75
 20
-34685.178915
 30
0.0
 11
-11616.75
 21
-34681.978915
 31
0.0
  0
LINE
  5
4F1
100
AcDbEntity
  8
LAY-1
  6
EXLTYPE2
 62
     1
100
AcDbLine
 10
-11601.25
 20
-34685.178915
 30
0.0
 11
-11601.25
 21
-34681.978915
 31
0.0
  0
ARC
  5
4F2
100
AcDbEntity
  8
LAY-1
  6
CONTINUOUS
 62
     3
100
AcDbCircle
 10
-11620.0
 20
-34679.978915
 30
0.0
 40
1.0
100
AcDbArc
 50
270.0
 51
0.0
  0
LINE
  5
4F3
100
AcDbEntity
  8
LAY-1
  6
CONTINUOUS
 62
     3
100
AcDbLine
 10
-11619.0
 20
-34658.978915
 30
0.0
 11
-11619.0
 21
-34679.978915
 31
0.0
  0
ARC
  5
4F4
100
AcDbEntity
  8
LAY-1
  6
CONTINUOUS
 62
     3
100
AcDbCircle
 10
-11620.0
 20
-34658.978915
 30
0.0
 40
1.0
100
AcDbArc
 50
0.0
 51
90.0
  0
LINE
  5
4F5
100
AcDbEntity
  8
LAY-1
  6
CONTINUOUS
 62
     3
100
AcDbLine
 10
-11620.0
 20
-34656.978915
 30
0.0
 11
-11620.0
 21
-34657.978915
 31
0.0
  0
LINE
  5
4F6
100
AcDbEntity
  8
LAY-1
  6
CONTINUOUS
 62
     3
100
AcDbLine
 10
-11620.0
 20
-34680.978915
 30
0.0
 11
-11620.0
 21
-34681.978915
 31
0.0
  0
ARC
  5
4F7
100
AcDbEntity
  8
LAY-1
  6
CONTINUOUS
 62
     3
100
AcDbCircle
 10
-11598.0
 20
-34679.978915
 30
0.0
 40
1.0
100
AcDbArc
 50
180.0
 51
270.0
  0
LINE
  5
4F8
100
AcDbEntity
  8
LAY-1
  6
CONTINUOUS
 62
     3
100
AcDbLine
 10
-11599.0
 20
-34658.978915
 30
0.0
 11
-11599.0
 21
-34679.978915
 31
0.0
  0
ARC
  5
4F9
100
AcDbEntity
  8
LAY-1
  6
CONTINUOUS
 62
     3
100
AcDbCircle
 10
-11598.0
 20
-34658.978915
 30
0.0
 40
1.0
100
AcDbArc
 50
90.0
 51
180.0
  0
LINE
  5
4FA
100
AcDbEntity
  8
LAY-1
  6
CONTINUOUS
 62
     3
100
AcDbLine
 10
-11598.0
 20
-34656.978915
 30
0.0
 11
-11598.0
 21
-34657.978915
 31
0.0
  0
LINE
  5
4FB
100
AcDbEntity
  8
LAY-1
  6
CONTINUOUS
 62
     3
100
AcDbLine
 10
-11598.0
 20
-34680.978915
 30
0.0
 11
-11598.0
 21
-34681.978915
 31
0.0
  0
LINE
  5
4FC
100
AcDbEntity
  8
LAY-1
  6
CONTINUOUS
 62
     3
100
AcDbLine
 10
-11598.0
 20
-34656.978915
 30
0.0
 11
-11620.0
 21
-34656.978915
 31
0.0
  0
LINE
  5
4FD
100
AcDbEntity
  8
LAY-1
  6
CONTINUOUS
 62
     3
100
AcDbLine
 10
-11620.0
 20
-34657.978915
 30
0.0
 11
-11598.0
 21
-34657.978915
 31
0.0
  0
LINE
  5
4FE
100
AcDbEntity
  8
LAY-1
  6
CONTINUOUS
 62
     3
100
AcDbLine
 10
-11620.0
 20
-34680.978915
 30
0.0
 11
-11598.0
 21
-34680.978915
 31
0.0
  0
LINE
  5
4FF
100
AcDbEntity
  8
LAY-1
  6
CONTINUOUS
 62
     3
100
AcDbLine
 10
-11620.0
 20
-34681.978915
 30
0.0
 11
-11598.0
 21
-34681.978915
 31
0.0
  0
LINE
  5
500
100
AcDbEntity
  8
LAY-1
  6
EXLTYPE2
 62
     1
100
AcDbLine
 10
-11516.995665
 20
-34681.978915
 30
0.0
 11
-11540.995665
 21
-34681.978915
 31
0.0
  0
LINE
  5
501
100
AcDbEntity
  8
LAY-1
  6
EXLTYPE2
 62
     1
100
AcDbLine
 10
-11536.745665
 20
-34685.178915
 30
0.0
 11
-11536.745665
 21
-34681.978915
 31
0.0
  0
LINE
  5
502
100
AcDbEntity
  8
LAY-1
  6
EXLTYPE2
 62
     1
100
AcDbLine
 10
-11521.245665
 20
-34685.178915
 30
0.0
 11
-11521.245665
 21
-34681.978915
 31
0.0
  0
LINE
  5
503
100
AcDbEntity
  8
LAY-1
  6
CONTINUOUS
 62
     3
100
AcDbLine
 10
-11516.995665
 20
-34575.178915
 30
0.0
 11
-11516.995665
 21
-34685.178915
 31
0.0
  0
LINE
  5
504
100
AcDbEntity
  8
LAY-1
  6
CONTINUOUS
 62
     3
100
AcDbLine
 10
-11540.995665
 20
-34575.178915
 30
0.0
 11
-11540.995665
 21
-34685.178915
 31
0.0
  0
ARC
  5
505
100
AcDbEntity
  8
LAY-1
  6
CONTINUOUS
 62
     3
100
AcDbCircle
 10
-11617.0
 20
-34685.978915
 30
0.0
 40
0.5
100
AcDbArc
 50
270.0
 51
0.0
  0
LINE
  5
506
100
AcDbEntity
  8
LAY-1
  6
CONTINUOUS
 62
     3
100
AcDbLine
 10
-11618.0
 20
-34686.478915
 30
0.0
 11
-11615.5
 21
-34688.978915
 31
0.0
  0
ARC
  5
507
100
AcDbEntity
  8
LAY-1
  6
CONTINUOUS
 62
     3
100
AcDbCircle
 10
-11601.0
 20
-34685.978915
 30
0.0
 40
0.5
100
AcDbArc
 50
180.0
 51
270.0
  0
LINE
  5
508
100
AcDbEntity
  8
LAY-1
  6
CONTINUOUS
 62
     3
100
AcDbLine
 10
-11600.0
 20
-34686.478915
 30
0.0
 11
-11602.5
 21
-34688.978915
 31
0.0
  0
LINE
  5
509
100
AcDbEntity
  8
LAY-1
  6
CONTINUOUS
 62
     3
100
AcDbLine
 10
-11602.5
 20
-34688.978915
 30
0.0
 11
-11615.5
 21
-34688.978915
 31
0.0
  0
LINE
  5
50A
100
AcDbEntity
  8
LAY-1
  6
CONTINUOUS
 62
     3
100
AcDbLine
 10
-11618.0
 20
-34686.478915
 30
0.0
 11
-11600.0
 21
-34686.478915
 31
0.0
  0
LINE
  5
50B
100
AcDbEntity
  8
LAY-1
  6
CONTINUOUS
 62
     3
100
AcDbLine
 10
-11616.5
 20
-34685.178915
 30
0.0
 11
-11616.5
 21
-34685.978915
 31
0.0
  0
LINE
  5
50C
100
AcDbEntity
  8
LAY-1
  6
CONTINUOUS
 62
     3
100
AcDbLine
 10
-11601.5
 20
-34685.178915
 30
0.0
 11
-11601.5
 21
-34685.978915
 31
0.0
  0
ARC
  5
50D
100
AcDbEntity
  8
LAY-1
  6
CONTINUOUS
 62
     3
100
AcDbCircle
 10
-11536.995665
 20
-34685.978915
 30
0.0
 40
0.5
100
AcDbArc
 50
270.0
 51
0.0
  0
LINE
  5
50E
100
AcDbEntity
  8
LAY-1
  6
CONTINUOUS
 62
     3
100
AcDbLine
 10
-11537.995665
 20
-34686.478915
 30
0.0
 11
-11535.495665
 21
-34688.978915
 31
0.0
  0
ARC
  5
50F
100
AcDbEntity
  8
LAY-1
  6
CONTINUOUS
 62
     3
100
AcDbCircle
 10
-11520.995665
 20
-34685.978915
 30
0.0
 40
0.5
100
AcDbArc
 50
180.0
 51
270.0
  0
LINE
  5
510
100
AcDbEntity
  8
LAY-1
  6
CONTINUOUS
 62
     3
100
AcDbLine
 10
-11519.995665
 20
-34686.478915
 30
0.0
 11
-11522.495665
 21
-34688.978915
 31
0.0
  0
LINE
  5
511
100
AcDbEntity
  8
LAY-1
  6
CONTINUOUS
 62
     3
100
AcDbLine
 10
-11522.495665
 20
-34688.978915
 30
0.0
 11
-11535.495665
 21
-34688.978915
 31
0.0
  0
LINE
  5
512
100
AcDbEntity
  8
LAY-1
  6
CONTINUOUS
 62
     3
100
AcDbLine
 10
-11537.995665
 20
-34686.478915
 30
0.0
 11
-11519.995665
 21
-34686.478915
 31
0.0
  0
LINE
  5
513
100
AcDbEntity
  8
LAY-1
  6
CONTINUOUS
 62
     3
100
AcDbLine
 10
-11536.495665
 20
-34685.178915
 30
0.0
 11
-11536.495665
 21
-34685.978915
 31
0.0
  0
LINE
  5
514
100
AcDbEntity
  8
LAY-1
  6
CONTINUOUS
 62
     3
100
AcDbLine
 10
-11521.495665
 20
-34685.178915
 30
0.0
 11
-11521.495665
 21
-34685.978915
 31
0.0
  0
LINE
  5
515
100
AcDbEntity
  8
LAY-1
  6
EXLTYPE1
 62
     1
100
AcDbLine
 10
-11609.0
 20
-34651.878915
 30
0.0
 11
-11609.0
 21
-34695.978915
 31
0.0
  0
LINE
  5
516
100
AcDbEntity
  8
LAY-1
  6
EXLTYPE1
 62
     1
100
AcDbLine
 10
-11528.995665
 20
-34695.978915
 30
0.0
 11
-11528.995665
 21
-34676.978915
 31
0.0
  0
LINE
  5
517
100
AcDbEntity
  8
LAY-1
  6
EXLTYPE2
 62
     1
100
AcDbLine
 10
-11943.2
 20
-34486.178915
 30
0.0
 11
-11943.2
 21
-34462.178915
 31
0.0
  0
LINE
  5
518
100
AcDbEntity
  8
LAY-1
  6
CONTINUOUS
 62
     3
100
AcDbLine
 10
-11978.0
 20
-34105.439701
 30
0.0
 11
-11946.4
 21
-34105.439701
 31
0.0
  0
ARC
  5
519
100
AcDbEntity
  8
LAY-1
  6
CONTINUOUS
 62
     3
100
AcDbCircle
 10
-11946.4
 20
-34108.639701
 30
0.0
 40
3.2
100
AcDbArc
 50
0.0
 51
90.0
  0
LINE
  5
51A
100
AcDbEntity
  8
LAY-1
  6
CONTINUOUS
 62
     3
100
AcDbLine
 10
-11978.0
 20
-34102.239701
 30
0.0
 11
-11946.4
 21
-34102.239701
 31
0.0
  0
ARC
  5
51B
100
AcDbEntity
  8
LAY-1
  6
CONTINUOUS
 62
     3
100
AcDbCircle
 10
-11946.4
 20
-34108.639701
 30
0.0
 40
6.4
100
AcDbArc
 50
0.0
 51
90.0
  0
LINE
  5
51C
100
AcDbEntity
  8
LAY-1
  6
CONTINUOUS
 62
     3
100
AcDbLine
 10
-11978.0
 20
-34184.039701
 30
0.0
 11
-11946.4
 21
-34184.039701
 31
0.0
  0
LINE
  5
51D
100
AcDbEntity
  8
LAY-1
  6
CONTINUOUS
 62
     3
100
AcDbLine
 10
-11943.2
 20
-34108.639701
 30
0.0
 11
-11943.2
 21
-34180.839701
 31
0.0
  0
ARC
  5
51E
100
AcDbEntity
  8
LAY-1
  6
CONTINUOUS
 62
     3
100
AcDbCircle
 10
-11946.4
 20
-34180.839701
 30
0.0
 40
3.2
100
AcDbArc
 50
270.0
 51
0.0
  0
LINE
  5
51F
100
AcDbEntity
  8
LAY-1
  6
CONTINUOUS
 62
     3
100
AcDbLine
 10
-11978.0
 20
-34187.239701
 30
0.0
 11
-11946.4
 21
-34187.239701
 31
0.0
  0
LINE
  5
520
100
AcDbEntity
  8
LAY-1
  6
CONTINUOUS
 62
     3
100
AcDbLine
 10
-11940.0
 20
-34108.639701
 30
0.0
 11
-11940.0
 21
-34180.839701
 31
0.0
  0
ARC
  5
521
100
AcDbEntity
  8
LAY-1
  6
CONTINUOUS
 62
     3
100
AcDbCircle
 10
-11946.4
 20
-34180.839701
 30
0.0
 40
6.4
100
AcDbArc
 50
270.0
 51
0.0
  0
LINE
  5
522
100
AcDbEntity
  8
LAY-1
  6
CONTINUOUS
 62
     3
100
AcDbLine
 10
-11978.0
 20
-34578.378915
 30
0.0
 11
-11946.4
 21
-34578.378915
 31
0.0
  0
ARC
  5
523
100
AcDbEntity
  8
LAY-1
  6
CONTINUOUS
 62
     3
100
AcDbCircle
 10
-11946.4
 20
-34581.578915
 30
0.0
 40
3.2
100
AcDbArc
 50
0.0
 51
90.0
  0
LINE
  5
524
100
AcDbEntity
  8
LAY-1
  6
CONTINUOUS
 62
     3
100
AcDbLine
 10
-11946.4
 20
-34575.178915
 30
0.0
 11
-11968.0
 21
-34575.178915
 31
0.0
  0
ARC
  5
525
100
AcDbEntity
  8
LAY-1
  6
CONTINUOUS
 62
     3
100
AcDbCircle
 10
-11946.4
 20
-34581.578915
 30
0.0
 40
6.4
100
AcDbArc
 50
0.0
 51
90.0
  0
LINE
  5
526
100
AcDbEntity
  8
LAY-1
  6
CONTINUOUS
 62
     3
100
AcDbLine
 10
-11946.4
 20
-34681.978915
 30
0.0
 11
-11978.0
 21
-34681.978915
 31
0.0
  0
LINE
  5
527
100
AcDbEntity
  8
LAY-1
  6
CONTINUOUS
 62
     3
100
AcDbLine
 10
-11943.2
 20
-34581.578915
 30
0.0
 11
-11943.2
 21
-34678.778915
 31
0.0
  0
ARC
  5
528
100
AcDbEntity
  8
LAY-1
  6
CONTINUOUS
 62
     3
100
AcDbCircle
 10
-11946.4
 20
-34678.778915
 30
0.0
 40
3.2
100
AcDbArc
 50
270.0
 51
0.0
  0
LINE
  5
529
100
AcDbEntity
  8
LAY-1
  6
CONTINUOUS
 62
     3
100
AcDbLine
 10
-11978.0
 20
-34685.178915
 30
0.0
 11
-11946.4
 21
-34685.178915
 31
0.0
  0
LINE
  5
52A
100
AcDbEntity
  8
LAY-1
  6
CONTINUOUS
 62
     3
100
AcDbLine
 10
-11940.0
 20
-34581.578915
 30
0.0
 11
-11940.0
 21
-34678.778915
 31
0.0
  0
ARC
  5
52B
100
AcDbEntity
  8
LAY-1
  6
CONTINUOUS
 62
     3
100
AcDbCircle
 10
-11946.4
 20
-34678.778915
 30
0.0
 40
6.4
100
AcDbArc
 50
270.0
 51
0.0
  0
LINE
  5
52C
100
AcDbEntity
  8
LAY-1
  6
CONTINUOUS
 62
     3
100
AcDbLine
 10
-11628.0
 20
-34578.378915
 30
0.0
 11
-11596.4
 21
-34578.378915
 31
0.0
  0
ARC
  5
52D
100
AcDbEntity
  8
LAY-1
  6
CONTINUOUS
 62
     3
100
AcDbCircle
 10
-11596.4
 20
-34581.578915
 30
0.0
 40
3.2
100
AcDbArc
 50
0.0
 51
90.0
  0
LINE
  5
52E
100
AcDbEntity
  8
LAY-1
  6
CONTINUOUS
 62
     3
100
AcDbLine
 10
-11596.4
 20
-34575.178915
 30
0.0
 11
-11618.0
 21
-34575.178915
 31
0.0
  0
ARC
  5
52F
100
AcDbEntity
  8
LAY-1
  6
CONTINUOUS
 62
     3
100
AcDbCircle
 10
-11596.4
 20
-34581.578915
 30
0.0
 40
6.4
100
AcDbArc
 50
0.0
 51
90.0
  0
LINE
  5
530
100
AcDbEntity
  8
LAY-1
  6
CONTINUOUS
 62
     3
100
AcDbLine
 10
-11596.4
 20
-34681.978915
 30
0.0
 11
-11628.0
 21
-34681.978915
 31
0.0
  0
LINE
  5
531
100
AcDbEntity
  8
LAY-1
  6
CONTINUOUS
 62
     3
100
AcDbLine
 10
-11593.2
 20
-34581.578915
 30
0.0
 11
-11593.2
 21
-34678.778915
 31
0.0
  0
ARC
  5
532
100
AcDbEntity
  8
LAY-1
  6
CONTINUOUS
 62
     3
100
AcDbCircle
 10
-11596.4
 20
-34678.778915
 30
0.0
 40
3.2
100
AcDbArc
 50
270.0
 51
0.0
  0
LINE
  5
533
100
AcDbEntity
  8
LAY-1
  6
CONTINUOUS
 62
     3
100
AcDbLine
 10
-11628.0
 20
-34685.178915
 30
0.0
 11
-11596.4
 21
-34685.178915
 31
0.0
  0
LINE
  5
534
100
AcDbEntity
  8
LAY-1
  6
CONTINUOUS
 62
     3
100
AcDbLine
 10
-11590.0
 20
-34581.578915
 30
0.0
 11
-11590.0
 21
-34678.778915
 31
0.0
  0
ARC
  5
535
100
AcDbEntity
  8
LAY-1
  6
CONTINUOUS
 62
     3
100
AcDbCircle
 10
-11596.4
 20
-34678.778915
 30
0.0
 40
6.4
100
AcDbArc
 50
270.0
 51
0.0
  0
LINE
  5
536
100
AcDbEntity
  8
LAY-1
  6
CONTINUOUS
 62
     3
100
AcDbLine
 10
-11628.0
 20
-34105.439701
 30
0.0
 11
-11596.4
 21
-34105.439701
 31
0.0
  0
ARC
  5
537
100
AcDbEntity
  8
LAY-1
  6
CONTINUOUS
 62
     3
100
AcDbCircle
 10
-11596.4
 20
-34108.639701
 30
0.0
 40
3.2
100
AcDbArc
 50
0.0
 51
90.0
  0
LINE
  5
538
100
AcDbEntity
  8
LAY-1
  6
CONTINUOUS
 62
     3
100
AcDbLine
 10
-11628.0
 20
-34102.239701
 30
0.0
 11
-11596.4
 21
-34102.239701
 31
0.0
  0
ARC
  5
539
100
AcDbEntity
  8
LAY-1
  6
CONTINUOUS
 62
     3
100
AcDbCircle
 10
-11596.4
 20
-34108.639701
 30
0.0
 40
6.4
100
AcDbArc
 50
0.0
 51
90.0
  0
LINE
  5
53A
100
AcDbEntity
  8
LAY-1
  6
CONTINUOUS
 62
     3
100
AcDbLine
 10
-11628.0
 20
-34184.039701
 30
0.0
 11
-11596.4
 21
-34184.039701
 31
0.0
  0
LINE
  5
53B
100
AcDbEntity
  8
LAY-1
  6
CONTINUOUS
 62
     3
100
AcDbLine
 10
-11593.2
 20
-34108.639701
 30
0.0
 11
-11593.2
 21
-34180.839701
 31
0.0
  0
ARC
  5
53C
100
AcDbEntity
  8
LAY-1
  6
CONTINUOUS
 62
     3
100
AcDbCircle
 10
-11596.4
 20
-34180.839701
 30
0.0
 40
3.2
100
AcDbArc
 50
270.0
 51
0.0
  0
LINE
  5
53D
100
AcDbEntity
  8
LAY-1
  6
CONTINUOUS
 62
     3
100
AcDbLine
 10
-11628.0
 20
-34187.239701
 30
0.0
 11
-11596.4
 21
-34187.239701
 31
0.0
  0
LINE
  5
53E
100
AcDbEntity
  8
LAY-1
  6
CONTINUOUS
 62
     3
100
AcDbLine
 10
-11590.0
 20
-34108.639701
 30
0.0
 11
-11590.0
 21
-34180.839701
 31
0.0
  0
ARC
  5
53F
100
AcDbEntity
  8
LAY-1
  6
CONTINUOUS
 62
     3
100
AcDbCircle
 10
-11596.4
 20
-34180.839701
 30
0.0
 40
6.4
100
AcDbArc
 50
270.0
 51
0.0
  0
LINE
  5
540
100
AcDbEntity
  8
LAY-1
  6
EXLTYPE2
 62
     1
100
AcDbLine
 10
-11239.5
 20
-34041.239701
 30
0.0
 11
-11239.5
 21
-34011.239701
 31
0.0
  0
LINE
  5
541
100
AcDbEntity
  8
LAY-1
  6
EXLTYPE2
 62
     1
100
AcDbLine
 10
-11238.5
 20
-34489.178915
 30
0.0
 11
-11238.5
 21
-34459.178915
 31
0.0
  0
LINE
  5
542
100
AcDbEntity
  8
LAY-1
  6
EXLTYPE1
 62
     1
100
AcDbLine
 10
-11260.0
 20
-34097.239701
 30
0.0
 11
-11260.0
 21
-34111.739701
 31
0.0
  0
LINE
  5
543
100
AcDbEntity
  8
LAY-1
  6
EXLTYPE2
 62
     1
100
AcDbLine
 10
-11265.5
 20
-34102.239701
 30
0.0
 11
-11265.5
 21
-34106.739701
 31
0.0
  0
LINE
  5
544
100
AcDbEntity
  8
LAY-1
  6
EXLTYPE2
 62
     1
100
AcDbLine
 10
-11254.5
 20
-34102.239701
 30
0.0
 11
-11254.5
 21
-34106.739701
 31
0.0
  0
LINE
  5
545
100
AcDbEntity
  8
LAY-1
  6
EXLTYPE1
 62
     1
100
AcDbLine
 10
-11173.995665
 20
-34097.239701
 30
0.0
 11
-11173.995665
 21
-34111.739701
 31
0.0
  0
LINE
  5
546
100
AcDbEntity
  8
LAY-1
  6
EXLTYPE2
 62
     1
100
AcDbLine
 10
-11158.995665
 20
-34106.739701
 30
0.0
 11
-11188.995665
 21
-34106.739701
 31
0.0
  0
LINE
  5
547
100
AcDbEntity
  8
LAY-1
  6
EXLTYPE2
 62
     1
100
AcDbLine
 10
-11179.995665
 20
-34102.239701
 30
0.0
 11
-11179.995665
 21
-34106.739701
 31
0.0
  0
LINE
  5
548
100
AcDbEntity
  8
LAY-1
  6
EXLTYPE2
 62
     1
100
AcDbLine
 10
-11167.995665
 20
-34102.239701
 30
0.0
 11
-11167.995665
 21
-34106.739701
 31
0.0
  0
LINE
  5
549
100
AcDbEntity
  8
LAY-1
  6
CONTINUOUS
 62
     3
100
AcDbLine
 10
-11285.0
 20
-34102.239701
 30
0.0
 11
-11285.0
 21
-34106.739701
 31
0.0
  0
LINE
  5
54A
100
AcDbEntity
  8
LAY-1
  6
EXLTYPE2
 62
     1
100
AcDbLine
 10
-11269.75
 20
-34187.239701
 30
0.0
 11
-11269.75
 21
-34182.739701
 31
0.0
  0
LINE
  5
54B
100
AcDbEntity
  8
LAY-1
  6
EXLTYPE2
 62
     1
100
AcDbLine
 10
-11250.25
 20
-34187.239701
 30
0.0
 11
-11250.25
 21
-34182.739701
 31
0.0
  0
LINE
  5
54C
100
AcDbEntity
  8
LAY-1
  6
EXLTYPE2
 62
     1
100
AcDbLine
 10
-11183.745665
 20
-34187.239701
 30
0.0
 11
-11183.745665
 21
-34182.739701
 31
0.0
  0
LINE
  5
54D
100
AcDbEntity
  8
LAY-1
  6
EXLTYPE2
 62
     1
100
AcDbLine
 10
-11164.245665
 20
-34187.239701
 30
0.0
 11
-11164.245665
 21
-34182.739701
 31
0.0
  0
LINE
  5
54E
100
AcDbEntity
  8
LAY-1
  6
EXLTYPE2
 62
     1
100
AcDbLine
 10
-11158.995665
 20
-34182.739701
 30
0.0
 11
-11188.995665
 21
-34182.739701
 31
0.0
  0
LINE
  5
54F
100
AcDbEntity
  8
LAY-1
  6
CONTINUOUS
 62
     3
100
AcDbLine
 10
-11275.0
 20
-34181.739701
 30
0.0
 11
-11275.0
 21
-34182.739701
 31
0.0
  0
LINE
  5
550
100
AcDbEntity
  8
LAY-1
  6
CONTINUOUS
 62
     3
100
AcDbLine
 10
-11275.0
 20
-34161.739701
 30
0.0
 11
-11275.0
 21
-34163.739701
 31
0.0
  0
ARC
  5
551
100
AcDbEntity
  8
LAY-1
  6
CONTINUOUS
 62
     3
100
AcDbCircle
 10
-11275.0
 20
-34164.739701
 30
0.0
 40
1.0
100
AcDbArc
 50
0.0
 51
90.0
  0
LINE
  5
552
100
AcDbEntity
  8
LAY-1
  6
CONTINUOUS
 62
     3
100
AcDbLine
 10
-11274.0
 20
-34164.739701
 30
0.0
 11
-11274.0
 21
-34180.739701
 31
0.0
  0
ARC
  5
553
100
AcDbEntity
  8
LAY-1
  6
CONTINUOUS
 62
     3
100
AcDbCircle
 10
-11275.0
 20
-34180.739701
 30
0.0
 40
1.0
100
AcDbArc
 50
270.0
 51
0.0
  0
LINE
  5
554
100
AcDbEntity
  8
LAY-1
  6
CONTINUOUS
 62
     3
100
AcDbLine
 10
-11260.0
 20
-34161.739701
 30
0.0
 11
-11275.0
 21
-34161.739701
 31
0.0
  0
LINE
  5
555
100
AcDbEntity
  8
LAY-1
  6
CONTINUOUS
 62
     3
100
AcDbLine
 10
-11275.0
 20
-34163.739701
 30
0.0
 11
-11260.0
 21
-34163.739701
 31
0.0
  0
LINE
  5
556
100
AcDbEntity
  8
LAY-1
  6
CONTINUOUS
 62
     3
100
AcDbLine
 10
-11275.0
 20
-34181.739701
 30
0.0
 11
-11260.0
 21
-34181.739701
 31
0.0
  0
LINE
  5
557
100
AcDbEntity
  8
LAY-1
  6
CONTINUOUS
 62
     3
100
AcDbLine
 10
-11275.0
 20
-34182.739701
 30
0.0
 11
-11260.0
 21
-34182.739701
 31
0.0
  0
LINE
  5
558
100
AcDbEntity
  8
LAY-1
  6
CONTINUOUS
 62
     3
100
AcDbLine
 10
-11245.0
 20
-34181.739701
 30
0.0
 11
-11245.0
 21
-34182.739701
 31
0.0
  0
LINE
  5
559
100
AcDbEntity
  8
LAY-1
  6
CONTINUOUS
 62
     3
100
AcDbLine
 10
-11245.0
 20
-34161.739701
 30
0.0
 11
-11245.0
 21
-34163.739701
 31
0.0
  0
ARC
  5
55A
100
AcDbEntity
  8
LAY-1
  6
CONTINUOUS
 62
     3
100
AcDbCircle
 10
-11245.0
 20
-34164.739701
 30
0.0
 40
1.0
100
AcDbArc
 50
90.0
 51
180.0
  0
LINE
  5
55B
100
AcDbEntity
  8
LAY-1
  6
CONTINUOUS
 62
     3
100
AcDbLine
 10
-11246.0
 20
-34164.739701
 30
0.0
 11
-11246.0
 21
-34180.739701
 31
0.0
  0
ARC
  5
55C
100
AcDbEntity
  8
LAY-1
  6
CONTINUOUS
 62
     3
100
AcDbCircle
 10
-11245.0
 20
-34180.739701
 30
0.0
 40
1.0
100
AcDbArc
 50
180.0
 51
270.0
  0
LINE
  5
55D
100
AcDbEntity
  8
LAY-1
  6
CONTINUOUS
 62
     3
100
AcDbLine
 10
-11260.0
 20
-34161.739701
 30
0.0
 11
-11245.0
 21
-34161.739701
 31
0.0
  0
LINE
  5
55E
100
AcDbEntity
  8
LAY-1
  6
CONTINUOUS
 62
     3
100
AcDbLine
 10
-11245.0
 20
-34163.739701
 30
0.0
 11
-11260.0
 21
-34163.739701
 31
0.0
  0
LINE
  5
55F
100
AcDbEntity
  8
LAY-1
  6
CONTINUOUS
 62
     3
100
AcDbLine
 10
-11245.0
 20
-34181.739701
 30
0.0
 11
-11260.0
 21
-34181.739701
 31
0.0
  0
LINE
  5
560
100
AcDbEntity
  8
LAY-1
  6
CONTINUOUS
 62
     3
100
AcDbLine
 10
-11245.0
 20
-34182.739701
 30
0.0
 11
-11260.0
 21
-34182.739701
 31
0.0
  0
LINE
  5
561
100
AcDbEntity
  8
LAY-1
  6
CONTINUOUS
 62
     3
100
AcDbLine
 10
-11285.0
 20
-34187.239701
 30
0.0
 11
-11285.0
 21
-34182.739701
 31
0.0
  0
LINE
  5
562
100
AcDbEntity
  8
LAY-1
  6
CONTINUOUS
 62
     3
100
AcDbLine
 10
-11158.995665
 20
-34102.239701
 30
0.0
 11
-11158.995665
 21
-34187.239701
 31
0.0
  0
LINE
  5
563
100
AcDbEntity
  8
LAY-1
  6
CONTINUOUS
 62
     3
100
AcDbLine
 10
-11188.995665
 20
-34102.239701
 30
0.0
 11
-11188.995665
 21
-34187.239701
 31
0.0
  0
LINE
  5
564
100
AcDbEntity
  8
LAY-1
  6
CONTINUOUS
 62
     3
100
AcDbLine
 10
-11271.0
 20
-34188.239701
 30
0.0
 11
-11268.5
 21
-34191.739701
 31
0.0
  0
ARC
  5
565
100
AcDbEntity
  8
LAY-1
  6
CONTINUOUS
 62
     3
100
AcDbCircle
 10
-11270.0
 20
-34187.739701
 30
0.0
 40
0.5
100
AcDbArc
 50
270.0
 51
0.0
  0
LINE
  5
566
100
AcDbEntity
  8
LAY-1
  6
CONTINUOUS
 62
     3
100
AcDbLine
 10
-11260.0
 20
-34191.739701
 30
0.0
 11
-11268.5
 21
-34191.739701
 31
0.0
  0
LINE
  5
567
100
AcDbEntity
  8
LAY-1
  6
CONTINUOUS
 62
     3
100
AcDbLine
 10
-11271.0
 20
-34188.239701
 30
0.0
 11
-11260.0
 21
-34188.239701
 31
0.0
  0
LINE
  5
568
100
AcDbEntity
  8
LAY-1
  6
CONTINUOUS
 62
     3
100
AcDbLine
 10
-11249.0
 20
-34188.239701
 30
0.0
 11
-11251.5
 21
-34191.739701
 31
0.0
  0
ARC
  5
569
100
AcDbEntity
  8
LAY-1
  6
CONTINUOUS
 62
     3
100
AcDbCircle
 10
-11250.0
 20
-34187.739701
 30
0.0
 40
0.5
100
AcDbArc
 50
180.0
 51
270.0
  0
LINE
  5
56A
100
AcDbEntity
  8
LAY-1
  6
CONTINUOUS
 62
     3
100
AcDbLine
 10
-11260.0
 20
-34191.739701
 30
0.0
 11
-11251.5
 21
-34191.739701
 31
0.0
  0
LINE
  5
56B
100
AcDbEntity
  8
LAY-1
  6
CONTINUOUS
 62
     3
100
AcDbLine
 10
-11249.0
 20
-34188.239701
 30
0.0
 11
-11260.0
 21
-34188.239701
 31
0.0
  0
LINE
  5
56C
100
AcDbEntity
  8
LAY-1
  6
CONTINUOUS
 62
     3
100
AcDbLine
 10
-11269.5
 20
-34187.239701
 30
0.0
 11
-11269.5
 21
-34187.739701
 31
0.0
  0
LINE
  5
56D
100
AcDbEntity
  8
LAY-1
  6
CONTINUOUS
 62
     3
100
AcDbLine
 10
-11250.5
 20
-34187.239701
 30
0.0
 11
-11250.5
 21
-34187.739701
 31
0.0
  0
LINE
  5
56E
100
AcDbEntity
  8
LAY-1
  6
CONTINUOUS
 62
     3
100
AcDbLine
 10
-11184.995665
 20
-34188.239701
 30
0.0
 11
-11182.495665
 21
-34191.739701
 31
0.0
  0
ARC
  5
56F
100
AcDbEntity
  8
LAY-1
  6
CONTINUOUS
 62
     3
100
AcDbCircle
 10
-11183.995665
 20
-34187.739701
 30
0.0
 40
0.5
100
AcDbArc
 50
270.0
 51
0.0
  0
LINE
  5
570
100
AcDbEntity
  8
LAY-1
  6
CONTINUOUS
 62
     3
100
AcDbLine
 10
-11173.995665
 20
-34191.739701
 30
0.0
 11
-11182.495665
 21
-34191.739701
 31
0.0
  0
LINE
  5
571
100
AcDbEntity
  8
LAY-1
  6
CONTINUOUS
 62
     3
100
AcDbLine
 10
-11184.995665
 20
-34188.239701
 30
0.0
 11
-11173.995665
 21
-34188.239701
 31
0.0
  0
LINE
  5
572
100
AcDbEntity
  8
LAY-1
  6
CONTINUOUS
 62
     3
100
AcDbLine
 10
-11162.995665
 20
-34188.239701
 30
0.0
 11
-11165.495665
 21
-34191.739701
 31
0.0
  0
ARC
  5
573
100
AcDbEntity
  8
LAY-1
  6
CONTINUOUS
 62
     3
100
AcDbCircle
 10
-11163.995665
 20
-34187.739701
 30
0.0
 40
0.5
100
AcDbArc
 50
180.0
 51
270.0
  0
LINE
  5
574
100
AcDbEntity
  8
LAY-1
  6
CONTINUOUS
 62
     3
100
AcDbLine
 10
-11173.995665
 20
-34191.739701
 30
0.0
 11
-11165.495665
 21
-34191.739701
 31
0.0
  0
LINE
  5
575
100
AcDbEntity
  8
LAY-1
  6
CONTINUOUS
 62
     3
100
AcDbLine
 10
-11162.995665
 20
-34188.239701
 30
0.0
 11
-11173.995665
 21
-34188.239701
 31
0.0
  0
LINE
  5
576
100
AcDbEntity
  8
LAY-1
  6
CONTINUOUS
 62
     3
100
AcDbLine
 10
-11183.495665
 20
-34187.239701
 30
0.0
 11
-11183.495665
 21
-34187.739701
 31
0.0
  0
LINE
  5
577
100
AcDbEntity
  8
LAY-1
  6
CONTINUOUS
 62
     3
100
AcDbLine
 10
-11164.495665
 20
-34187.239701
 30
0.0
 11
-11164.495665
 21
-34187.739701
 31
0.0
  0
LINE
  5
578
100
AcDbEntity
  8
LAY-1
  6
EXLTYPE1
 62
     1
100
AcDbLine
 10
-11173.995665
 20
-34200.739701
 30
0.0
 11
-11173.995665
 21
-34177.739701
 31
0.0
  0
LINE
  5
579
100
AcDbEntity
  8
LAY-1
  6
EXLTYPE1
 62
     1
100
AcDbLine
 10
-11260.0
 20
-34154.639701
 30
0.0
 11
-11260.0
 21
-34200.739701
 31
0.0
  0
LINE
  5
57A
100
AcDbEntity
  8
LAY-1
  6
EXLTYPE1
 62
     1
100
AcDbLine
 10
-11259.0
 20
-34570.178915
 30
0.0
 11
-11259.0
 21
-34583.378915
 31
0.0
  0
LINE
  5
57B
100
AcDbEntity
  8
LAY-1
  6
EXLTYPE2
 62
     1
100
AcDbLine
 10
-11268.75
 20
-34579.678915
 30
0.0
 11
-11268.75
 21
-34575.178915
 31
0.0
  0
LINE
  5
57C
100
AcDbEntity
  8
LAY-1
  6
EXLTYPE2
 62
     1
100
AcDbLine
 10
-11249.25
 20
-34579.678915
 30
0.0
 11
-11249.25
 21
-34575.178915
 31
0.0
  0
LINE
  5
57D
100
AcDbEntity
  8
LAY-1
  6
EXLTYPE1
 62
     1
100
AcDbLine
 10
-11259.0
 20
-34608.778915
 30
0.0
 11
-11259.0
 21
-34562.678915
 31
0.0
  0
LINE
  5
57E
100
AcDbEntity
  8
LAY-1
  6
CONTINUOUS
 62
     3
100
AcDbLine
 10
-11249.5
 20
-34580.678915
 30
0.0
 11
-11249.5
 21
-34579.678915
 31
0.0
  0
LINE
  5
57F
100
AcDbEntity
  8
LAY-1
  6
CONTINUOUS
 62
     3
100
AcDbLine
 10
-11268.5
 20
-34580.678915
 30
0.0
 11
-11268.5
 21
-34579.678915
 31
0.0
  0
LINE
  5
580
100
AcDbEntity
  8
LAY-1
  6
CONTINUOUS
 62
     3
100
AcDbLine
 10
-11284.0
 20
-34575.178915
 30
0.0
 11
-11284.0
 21
-34579.678915
 31
0.0
  0
LINE
  5
581
100
AcDbEntity
  8
LAY-1
  6
EXLTYPE1
 62
     1
100
AcDbLine
 10
-11178.995665
 20
-34570.178915
 30
0.0
 11
-11178.995665
 21
-34584.678915
 31
0.0
  0
LINE
  5
582
100
AcDbEntity
  8
LAY-1
  6
EXLTYPE2
 62
     1
100
AcDbLine
 10
-11163.995665
 20
-34579.678915
 30
0.0
 11
-11193.995665
 21
-34579.678915
 31
0.0
  0
LINE
  5
583
100
AcDbEntity
  8
LAY-1
  6
EXLTYPE2
 62
     1
100
AcDbLine
 10
-11188.745665
 20
-34579.678915
 30
0.0
 11
-11188.745665
 21
-34575.178915
 31
0.0
  0
LINE
  5
584
100
AcDbEntity
  8
LAY-1
  6
EXLTYPE2
 62
     1
100
AcDbLine
 10
-11169.245665
 20
-34579.678915
 30
0.0
 11
-11169.245665
 21
-34575.178915
 31
0.0
  0
LINE
  5
585
100
AcDbEntity
  8
LAY-1
  6
EXLTYPE2
 62
     1
100
AcDbLine
 10
-11268.75
 20
-34685.178915
 30
0.0
 11
-11268.75
 21
-34680.678915
 31
0.0
  0
LINE
  5
586
100
AcDbEntity
  8
LAY-1
  6
EXLTYPE2
 62
     1
100
AcDbLine
 10
-11249.25
 20
-34685.178915
 30
0.0
 11
-11249.25
 21
-34680.678915
 31
0.0
  0
LINE
  5
587
100
AcDbEntity
  8
LAY-1
  6
EXLTYPE2
 62
     1
100
AcDbLine
 10
-11163.995665
 20
-34680.678915
 30
0.0
 11
-11193.995665
 21
-34680.678915
 31
0.0
  0
LINE
  5
588
100
AcDbEntity
  8
LAY-1
  6
EXLTYPE2
 62
     1
100
AcDbLine
 10
-11188.745665
 20
-34685.178915
 30
0.0
 11
-11188.745665
 21
-34680.678915
 31
0.0
  0
LINE
  5
589
100
AcDbEntity
  8
LAY-1
  6
EXLTYPE2
 62
     1
100
AcDbLine
 10
-11169.245665
 20
-34685.178915
 30
0.0
 11
-11169.245665
 21
-34680.678915
 31
0.0
  0
LINE
  5
58A
100
AcDbEntity
  8
LAY-1
  6
CONTINUOUS
 62
     3
100
AcDbLine
 10
-11274.0
 20
-34679.678915
 30
0.0
 11
-11274.0
 21
-34680.678915
 31
0.0
  0
LINE
  5
58B
100
AcDbEntity
  8
LAY-1
  6
CONTINUOUS
 62
     3
100
AcDbLine
 10
-11274.0
 20
-34659.678915
 30
0.0
 11
-11274.0
 21
-34661.678915
 31
0.0
  0
ARC
  5
58C
100
AcDbEntity
  8
LAY-1
  6
CONTINUOUS
 62
     3
100
AcDbCircle
 10
-11274.0
 20
-34662.678915
 30
0.0
 40
1.0
100
AcDbArc
 50
0.0
 51
90.0
  0
LINE
  5
58D
100
AcDbEntity
  8
LAY-1
  6
CONTINUOUS
 62
     3
100
AcDbLine
 10
-11273.0
 20
-34662.678915
 30
0.0
 11
-11273.0
 21
-34678.678915
 31
0.0
  0
ARC
  5
58E
100
AcDbEntity
  8
LAY-1
  6
CONTINUOUS
 62
     3
100
AcDbCircle
 10
-11274.0
 20
-34678.678915
 30
0.0
 40
1.0
100
AcDbArc
 50
270.0
 51
0.0
  0
LINE
  5
58F
100
AcDbEntity
  8
LAY-1
  6
CONTINUOUS
 62
     3
100
AcDbLine
 10
-11259.0
 20
-34659.678915
 30
0.0
 11
-11274.0
 21
-34659.678915
 31
0.0
  0
LINE
  5
590
100
AcDbEntity
  8
LAY-1
  6
CONTINUOUS
 62
     3
100
AcDbLine
 10
-11274.0
 20
-34661.678915
 30
0.0
 11
-11259.0
 21
-34661.678915
 31
0.0
  0
LINE
  5
591
100
AcDbEntity
  8
LAY-1
  6
CONTINUOUS
 62
     3
100
AcDbLine
 10
-11274.0
 20
-34679.678915
 30
0.0
 11
-11259.0
 21
-34679.678915
 31
0.0
  0
LINE
  5
592
100
AcDbEntity
  8
LAY-1
  6
CONTINUOUS
 62
     3
100
AcDbLine
 10
-11274.0
 20
-34680.678915
 30
0.0
 11
-11259.0
 21
-34680.678915
 31
0.0
  0
LINE
  5
593
100
AcDbEntity
  8
LAY-1
  6
CONTINUOUS
 62
     3
100
AcDbLine
 10
-11244.0
 20
-34679.678915
 30
0.0
 11
-11244.0
 21
-34680.678915
 31
0.0
  0
LINE
  5
594
100
AcDbEntity
  8
LAY-1
  6
CONTINUOUS
 62
     3
100
AcDbLine
 10
-11244.0
 20
-34659.678915
 30
0.0
 11
-11244.0
 21
-34661.678915
 31
0.0
  0
ARC
  5
595
100
AcDbEntity
  8
LAY-1
  6
CONTINUOUS
 62
     3
100
AcDbCircle
 10
-11244.0
 20
-34662.678915
 30
0.0
 40
1.0
100
AcDbArc
 50
90.0
 51
180.0
  0
LINE
  5
596
100
AcDbEntity
  8
LAY-1
  6
CONTINUOUS
 62
     3
100
AcDbLine
 10
-11245.0
 20
-34662.678915
 30
0.0
 11
-11245.0
 21
-34678.678915
 31
0.0
  0
ARC
  5
597
100
AcDbEntity
  8
LAY-1
  6
CONTINUOUS
 62
     3
100
AcDbCircle
 10
-11244.0
 20
-34678.678915
 30
0.0
 40
1.0
100
AcDbArc
 50
180.0
 51
270.0
  0
LINE
  5
598
100
AcDbEntity
  8
LAY-1
  6
CONTINUOUS
 62
     3
100
AcDbLine
 10
-11259.0
 20
-34659.678915
 30
0.0
 11
-11244.0
 21
-34659.678915
 31
0.0
  0
LINE
  5
599
100
AcDbEntity
  8
LAY-1
  6
CONTINUOUS
 62
     3
100
AcDbLine
 10
-11244.0
 20
-34661.678915
 30
0.0
 11
-11259.0
 21
-34661.678915
 31
0.0
  0
LINE
  5
59A
100
AcDbEntity
  8
LAY-1
  6
CONTINUOUS
 62
     3
100
AcDbLine
 10
-11244.0
 20
-34679.678915
 30
0.0
 11
-11259.0
 21
-34679.678915
 31
0.0
  0
LINE
  5
59B
100
AcDbEntity
  8
LAY-1
  6
CONTINUOUS
 62
     3
100
AcDbLine
 10
-11244.0
 20
-34680.678915
 30
0.0
 11
-11259.0
 21
-34680.678915
 31
0.0
  0
LINE
  5
59C
100
AcDbEntity
  8
LAY-1
  6
CONTINUOUS
 62
     3
100
AcDbLine
 10
-11284.0
 20
-34685.178915
 30
0.0
 11
-11284.0
 21
-34680.678915
 31
0.0
  0
LINE
  5
59D
100
AcDbEntity
  8
LAY-1
  6
CONTINUOUS
 62
     3
100
AcDbLine
 10
-11163.995665
 20
-34575.178915
 30
0.0
 11
-11163.995665
 21
-34685.178915
 31
0.0
  0
LINE
  5
59E
100
AcDbEntity
  8
LAY-1
  6
CONTINUOUS
 62
     3
100
AcDbLine
 10
-11193.995665
 20
-34575.178915
 30
0.0
 11
-11193.995665
 21
-34685.178915
 31
0.0
  0
LINE
  5
59F
100
AcDbEntity
  8
LAY-1
  6
CONTINUOUS
 62
     3
100
AcDbLine
 10
-11270.0
 20
-34686.178915
 30
0.0
 11
-11267.5
 21
-34689.678915
 31
0.0
  0
ARC
  5
5A0
100
AcDbEntity
  8
LAY-1
  6
CONTINUOUS
 62
     3
100
AcDbCircle
 10
-11269.0
 20
-34685.678915
 30
0.0
 40
0.5
100
AcDbArc
 50
270.0
 51
0.0
  0
LINE
  5
5A1
100
AcDbEntity
  8
LAY-1
  6
CONTINUOUS
 62
     3
100
AcDbLine
 10
-11259.0
 20
-34689.678915
 30
0.0
 11
-11267.5
 21
-34689.678915
 31
0.0
  0
LINE
  5
5A2
100
AcDbEntity
  8
LAY-1
  6
CONTINUOUS
 62
     3
100
AcDbLine
 10
-11270.0
 20
-34686.178915
 30
0.0
 11
-11259.0
 21
-34686.178915
 31
0.0
  0
LINE
  5
5A3
100
AcDbEntity
  8
LAY-1
  6
CONTINUOUS
 62
     3
100
AcDbLine
 10
-11248.0
 20
-34686.178915
 30
0.0
 11
-11250.5
 21
-34689.678915
 31
0.0
  0
ARC
  5
5A4
100
AcDbEntity
  8
LAY-1
  6
CONTINUOUS
 62
     3
100
AcDbCircle
 10
-11249.0
 20
-34685.678915
 30
0.0
 40
0.5
100
AcDbArc
 50
180.0
 51
270.0
  0
LINE
  5
5A5
100
AcDbEntity
  8
LAY-1
  6
CONTINUOUS
 62
     3
100
AcDbLine
 10
-11259.0
 20
-34689.678915
 30
0.0
 11
-11250.5
 21
-34689.678915
 31
0.0
  0
LINE
  5
5A6
100
AcDbEntity
  8
LAY-1
  6
CONTINUOUS
 62
     3
100
AcDbLine
 10
-11248.0
 20
-34686.178915
 30
0.0
 11
-11259.0
 21
-34686.178915
 31
0.0
  0
LINE
  5
5A7
100
AcDbEntity
  8
LAY-1
  6
CONTINUOUS
 62
     3
100
AcDbLine
 10
-11268.5
 20
-34685.178915
 30
0.0
 11
-11268.5
 21
-34685.678915
 31
0.0
  0
LINE
  5
5A8
100
AcDbEntity
  8
LAY-1
  6
CONTINUOUS
 62
     3
100
AcDbLine
 10
-11249.5
 20
-34685.178915
 30
0.0
 11
-11249.5
 21
-34685.678915
 31
0.0
  0
LINE
  5
5A9
100
AcDbEntity
  8
LAY-1
  6
CONTINUOUS
 62
     3
100
AcDbLine
 10
-11189.995665
 20
-34686.178915
 30
0.0
 11
-11187.495665
 21
-34689.678915
 31
0.0
  0
ARC
  5
5AA
100
AcDbEntity
  8
LAY-1
  6
CONTINUOUS
 62
     3
100
AcDbCircle
 10
-11188.995665
 20
-34685.678915
 30
0.0
 40
0.5
100
AcDbArc
 50
270.0
 51
0.0
  0
LINE
  5
5AB
100
AcDbEntity
  8
LAY-1
  6
CONTINUOUS
 62
     3
100
AcDbLine
 10
-11178.995665
 20
-34689.678915
 30
0.0
 11
-11187.495665
 21
-34689.678915
 31
0.0
  0
LINE
  5
5AC
100
AcDbEntity
  8
LAY-1
  6
CONTINUOUS
 62
     3
100
AcDbLine
 10
-11189.995665
 20
-34686.178915
 30
0.0
 11
-11178.995665
 21
-34686.178915
 31
0.0
  0
LINE
  5
5AD
100
AcDbEntity
  8
LAY-1
  6
CONTINUOUS
 62
     3
100
AcDbLine
 10
-11167.995665
 20
-34686.178915
 30
0.0
 11
-11170.495665
 21
-34689.678915
 31
0.0
  0
ARC
  5
5AE
100
AcDbEntity
  8
LAY-1
  6
CONTINUOUS
 62
     3
100
AcDbCircle
 10
-11168.995665
 20
-34685.678915
 30
0.0
 40
0.5
100
AcDbArc
 50
180.0
 51
270.0
  0
LINE
  5
5AF
100
AcDbEntity
  8
LAY-1
  6
CONTINUOUS
 62
     3
100
AcDbLine
 10
-11178.995665
 20
-34689.678915
 30
0.0
 11
-11170.495665
 21
-34689.678915
 31
0.0
  0
LINE
  5
5B0
100
AcDbEntity
  8
LAY-1
  6
CONTINUOUS
 62
     3
100
AcDbLine
 10
-11167.995665
 20
-34686.178915
 30
0.0
 11
-11178.995665
 21
-34686.178915
 31
0.0
  0
LINE
  5
5B1
100
AcDbEntity
  8
LAY-1
  6
CONTINUOUS
 62
     3
100
AcDbLine
 10
-11188.495665
 20
-34685.178915
 30
0.0
 11
-11188.495665
 21
-34685.678915
 31
0.0
  0
LINE
  5
5B2
100
AcDbEntity
  8
LAY-1
  6
CONTINUOUS
 62
     3
100
AcDbLine
 10
-11169.495665
 20
-34685.178915
 30
0.0
 11
-11169.495665
 21
-34685.678915
 31
0.0
  0
LINE
  5
5B3
100
AcDbEntity
  8
LAY-1
  6
EXLTYPE1
 62
     1
100
AcDbLine
 10
-11259.0
 20
-34652.578915
 30
0.0
 11
-11259.0
 21
-34698.678915
 31
0.0
  0
LINE
  5
5B4
100
AcDbEntity
  8
LAY-1
  6
EXLTYPE1
 62
     1
100
AcDbLine
 10
-11178.995665
 20
-34698.678915
 30
0.0
 11
-11178.995665
 21
-34675.678915
 31
0.0
  0
LINE
  5
5B5
100
AcDbEntity
  8
LAY-1
  6
CONTINUOUS
 62
     3
100
AcDbLine
 10
-11284.0
 20
-34579.678915
 30
0.0
 11
-11243.0
 21
-34579.678915
 31
0.0
  0
ARC
  5
5B6
100
AcDbEntity
  8
LAY-1
  6
CONTINUOUS
 62
     3
100
AcDbCircle
 10
-11243.0
 20
-34584.178915
 30
0.0
 40
4.5
100
AcDbArc
 50
0.0
 51
90.0
  0
LINE
  5
5B7
100
AcDbEntity
  8
LAY-1
  6
CONTINUOUS
 62
     3
100
AcDbLine
 10
-11284.0
 20
-34575.178915
 30
0.0
 11
-11243.0
 21
-34575.178915
 31
0.0
  0
ARC
  5
5B8
100
AcDbEntity
  8
LAY-1
  6
CONTINUOUS
 62
     3
100
AcDbCircle
 10
-11243.0
 20
-34584.178915
 30
0.0
 40
9.0
100
AcDbArc
 50
0.0
 51
90.0
  0
LINE
  5
5B9
100
AcDbEntity
  8
LAY-1
  6
CONTINUOUS
 62
     3
100
AcDbLine
 10
-11284.0
 20
-34680.678915
 30
0.0
 11
-11243.35
 21
-34680.678915
 31
0.0
  0
LINE
  5
5BA
100
AcDbEntity
  8
LAY-1
  6
CONTINUOUS
 62
     3
100
AcDbLine
 10
-11238.5
 20
-34584.178915
 30
0.0
 11
-11238.5
 21
-34675.828915
 31
0.0
  0
ARC
  5
5BB
100
AcDbEntity
  8
LAY-1
  6
CONTINUOUS
 62
     3
100
AcDbCircle
 10
-11243.35
 20
-34675.828915
 30
0.0
 40
4.85
100
AcDbArc
 50
270.0
 51
0.0
  0
LINE
  5
5BC
100
AcDbEntity
  8
LAY-1
  6
CONTINUOUS
 62
     3
100
AcDbLine
 10
-11284.0
 20
-34685.178915
 30
0.0
 11
-11243.0
 21
-34685.178915
 31
0.0
  0
LINE
  5
5BD
100
AcDbEntity
  8
LAY-1
  6
CONTINUOUS
 62
     3
100
AcDbLine
 10
-11234.0
 20
-34584.178915
 30
0.0
 11
-11234.0
 21
-34676.178915
 31
0.0
  0
ARC
  5
5BE
100
AcDbEntity
  8
LAY-1
  6
CONTINUOUS
 62
     3
100
AcDbCircle
 10
-11243.0
 20
-34676.178915
 30
0.0
 40
9.0
100
AcDbArc
 50
270.0
 51
0.0
  0
LINE
  5
5BF
100
AcDbEntity
  8
LAY-1
  6
CONTINUOUS
 62
     3
100
AcDbLine
 10
-11285.0
 20
-34182.739701
 30
0.0
 11
-11244.0
 21
-34182.739701
 31
0.0
  0
ARC
  5
5C0
100
AcDbEntity
  8
LAY-1
  6
CONTINUOUS
 62
     3
100
AcDbCircle
 10
-11244.0
 20
-34178.239701
 30
0.0
 40
4.5
100
AcDbArc
 50
270.0
 51
0.0
  0
LINE
  5
5C1
100
AcDbEntity
  8
LAY-1
  6
CONTINUOUS
 62
     3
100
AcDbLine
 10
-11285.0
 20
-34187.239701
 30
0.0
 11
-11244.0
 21
-34187.239701
 31
0.0
  0
ARC
  5
5C2
100
AcDbEntity
  8
LAY-1
  6
CONTINUOUS
 62
     3
100
AcDbCircle
 10
-11244.0
 20
-34178.239701
 30
0.0
 40
9.0
100
AcDbArc
 50
270.0
 51
0.0
  0
LINE
  5
5C3
100
AcDbEntity
  8
LAY-1
  6
CONTINUOUS
 62
     3
100
AcDbLine
 10
-11239.5
 20
-34111.239701
 30
0.0
 11
-11239.5
 21
-34178.239701
 31
0.0
  0
LINE
  5
5C4
100
AcDbEntity
  8
LAY-1
  6
CONTINUOUS
 62
     3
100
AcDbLine
 10
-11285.0
 20
-34106.739701
 30
0.0
 11
-11244.0
 21
-34106.739701
 31
0.0
  0
ARC
  5
5C5
100
AcDbEntity
  8
LAY-1
  6
CONTINUOUS
 62
     3
100
AcDbCircle
 10
-11244.0
 20
-34111.239701
 30
0.0
 40
4.5
100
AcDbArc
 50
0.0
 51
90.0
  0
LINE
  5
5C6
100
AcDbEntity
  8
LAY-1
  6
CONTINUOUS
 62
     3
100
AcDbLine
 10
-11285.0
 20
-34102.239701
 30
0.0
 11
-11244.0
 21
-34102.239701
 31
0.0
  0
LINE
  5
5C7
100
AcDbEntity
  8
LAY-1
  6
CONTINUOUS
 62
     3
100
AcDbLine
 10
-11235.0
 20
-34111.239701
 30
0.0
 11
-11235.0
 21
-34178.239701
 31
0.0
  0
ARC
  5
5C8
100
AcDbEntity
  8
LAY-1
  6
CONTINUOUS
 62
     3
100
AcDbCircle
 10
-11244.0
 20
-34111.239701
 30
0.0
 40
9.0
100
AcDbArc
 50
0.0
 51
90.0
  0
ENDSEC
  0
SECTION
  2
OBJECTS
  0
DICTIONARY
  5
19
100
AcDbDictionary
  3
ACAD_GROUP
350
1A
  3
ACAD_MLINESTYLE
350
1B
  0
DICTIONARY
  5
1A
102
{ACAD_REACTORS
330
19
102
}
100
AcDbDictionary
  0
DICTIONARY
  5
1B
102
{ACAD_REACTORS
330
19
102
}
100
AcDbDictionary
  3
STANDARD
350
1C
  0
MLINESTYLE
  5
1C
102
{ACAD_REACTORS
330
1B
102
}
100
AcDbMlineStyle
  2
Standard
 70
     0
  3

 62
     0
 51
90.0
 52
90.0
 71
     2
 49
0.5
 62
   256
  6
ByLayer
 49
-0.5
 62
   256
  6
ByLayer
  0
ENDSEC
  0
EOF
