  0
SECTION
  2
HEADER
  9
$ACADVER
  1
AC1014
  9
$ACADMAINTVER
 70
     0
  9
$DWGCODEPAGE
  3
DOS932
  9
$INSBASE
 10
0.0
 20
0.0
 30
0.0
  9
$EXTMIN
 10
-96.749998
 20
-22.1
 30
0.0
  9
$EXTMAX
 10
425.750002
 20
192.9
 30
0.0
  9
$LIMMIN
 10
0.0
 20
0.0
  9
$LIMMAX
 10
297.0
 20
210.0
  9
$ORTHOMODE
 70
     0
  9
$REGENMODE
 70
     1
  9
$FILLMODE
 70
     1
  9
$QTEXTMODE
 70
     0
  9
$MIRRTEXT
 70
     1
  9
$DRAGMODE
 70
     2
  9
$LTSCALE
 40
1.0
  9
$OSMODE
 70
     0
  9
$ATTMODE
 70
     1
  9
$TEXTSIZE
 40
0.2
  9
$TRACEWID
 40
0.05
  9
$TEXTSTYLE
  7
STANDARD
  9
$CLAYER
  8
LAY-2
  9
$CELTYPE
  6
CONTINUOUS
  9
$CECOLOR
 62
   256
  9
$CELTSCALE
 40
1.0
  9
$DELOBJ
 70
     1
  9
$DISPSILH
 70
     0
  9
$DIMSCALE
 40
1.0
  9
$DIMASZ
 40
0.18
  9
$DIMEXO
 40
0.0625
  9
$DIMDLI
 40
0.38
  9
$DIMRND
 40
0.0
  9
$DIMDLE
 40
0.0
  9
$DIMEXE
 40
0.18
  9
$DIMTP
 40
0.0
  9
$DIMTM
 40
0.0
  9
$DIMTXT
 40
0.18
  9
$DIMCEN
 40
0.09
  9
$DIMTSZ
 40
0.0
  9
$DIMTOL
 70
     0
  9
$DIMLIM
 70
     0
  9
$DIMTIH
 70
     1
  9
$DIMTOH
 70
     1
  9
$DIMSE1
 70
     0
  9
$DIMSE2
 70
     0
  9
$DIMTAD
 70
     0
  9
$DIMZIN
 70
     0
  9
$DIMBLK
  1

  9
$DIMASO
 70
     1
  9
$DIMSHO
 70
     1
  9
$DIMPOST
  1

  9
$DIMAPOST
  1

  9
$DIMALT
 70
     0
  9
$DIMALTD
 70
     2
  9
$DIMALTF
 40
25.4
  9
$DIMLFAC
 40
1.0
  9
$DIMTOFL
 70
     0
  9
$DIMTVP
 40
0.0
  9
$DIMTIX
 70
     0
  9
$DIMSOXD
 70
     0
  9
$DIMSAH
 70
     0
  9
$DIMBLK1
  1

  9
$DIMBLK2
  1

  9
$DIMSTYLE
  2
STANDARD
  9
$DIMCLRD
 70
     0
  9
$DIMCLRE
 70
     0
  9
$DIMCLRT
 70
     0
  9
$DIMTFAC
 40
1.0
  9
$DIMGAP
 40
0.09
  9
$DIMJUST
 70
     0
  9
$DIMSD1
 70
     0
  9
$DIMSD2
 70
     0
  9
$DIMTOLJ
 70
     1
  9
$DIMTZIN
 70
     0
  9
$DIMALTZ
 70
     0
  9
$DIMALTTZ
 70
     0
  9
$DIMFIT
 70
     3
  9
$DIMUPT
 70
     0
  9
$DIMUNIT
 70
     2
  9
$DIMDEC
 70
     4
  9
$DIMTDEC
 70
     4
  9
$DIMALTU
 70
     2
  9
$DIMALTTD
 70
     2
  9
$DIMTXSTY
  7
STANDARD
  9
$DIMAUNIT
 70
     0
  9
$LUNITS
 70
     2
  9
$LUPREC
 70
     4
  9
$SKETCHINC
 40
0.1
  9
$FILLETRAD
 40
0.0
  9
$AUNITS
 70
     0
  9
$AUPREC
 70
     0
  9
$MENU
  1
acad
  9
$ELEVATION
 40
0.0
  9
$PELEVATION
 40
0.0
  9
$THICKNESS
 40
0.0
  9
$LIMCHECK
 70
     0
  9
$BLIPMODE
 70
     1
  9
$CHAMFERA
 40
0.0
  9
$CHAMFERB
 40
0.0
  9
$CHAMFERC
 40
0.0
  9
$CHAMFERD
 40
0.0
  9
$SKPOLY
 70
     0
  9
$TDCREATE
 40
2453464.056317396
  9
$TDUPDATE
 40
2453464.056317396
  9
$TDINDWG
 40
0.0000000000
  9
$TDUSRTIMER
 40
0.0000000000
  9
$USRTIMER
 70
     1
  9
$ANGBASE
 50
0.0
  9
$ANGDIR
 70
     0
  9
$PDMODE
 70
     0
  9
$PDSIZE
 40
0.0
  9
$PLINEWID
 40
0.0
  9
$COORDS
 70
     1
  9
$SPLFRAME
 70
     0
  9
$SPLINETYPE
 70
     6
  9
$SPLINESEGS
 70
     8
  9
$ATTDIA
 70
     0
  9
$ATTREQ
 70
     1
  9
$HANDLING
 70
     1
  9
$HANDSEED
  5
4C5
  9
$SURFTAB1
 70
     6
  9
$SURFTAB2
 70
     6
  9
$SURFTYPE
 70
     6
  9
$SURFU
 70
     6
  9
$SURFV
 70
     6
  9
$UCSNAME
  2

  9
$UCSORG
 10
0.0
 20
0.0
 30
0.0
  9
$UCSXDIR
 10
1.0
 20
0.0
 30
0.0
  9
$UCSYDIR
 10
0.0
 20
1.0
 30
0.0
  9
$PUCSNAME
  2

  9
$PUCSORG
 10
0.0
 20
0.0
 30
0.0
  9
$PUCSXDIR
 10
1.0
 20
0.0
 30
0.0
  9
$PUCSYDIR
 10
0.0
 20
1.0
 30
0.0
  9
$USERI1
 70
     0
  9
$USERI2
 70
     0
  9
$USERI3
 70
     0
  9
$USERI4
 70
     0
  9
$USERI5
 70
     0
  9
$USERR1
 40
0.0
  9
$USERR2
 40
0.0
  9
$USERR3
 40
0.0
  9
$USERR4
 40
0.0
  9
$USERR5
 40
0.0
  9
$WORLDVIEW
 70
     1
  9
$SHADEDGE
 70
     3
  9
$SHADEDIF
 70
    70
  9
$TILEMODE
 70
     1
  9
$MAXACTVP
 70
    16
  9
$PINSBASE
 10
0.0
 20
0.0
 30
0.0
  9
$PLIMCHECK
 70
     0
  9
$PEXTMIN
 10
1.000000E+20
 20
1.000000E+20
 30
1.000000E+20
  9
$PEXTMAX
 10
-1.000000E+20
 20
-1.000000E+20
 30
-1.000000E+20
  9
$PLIMMIN
 10
0.0
 20
0.0
  9
$PLIMMAX
 10
12.0
 20
9.0
  9
$UNITMODE
 70
     0
  9
$VISRETAIN
 70
     0
  9
$PLINEGEN
 70
     1
  9
$PSLTSCALE
 70
     0
  9
$TREEDEPTH
 70
  3020
  9
$PICKSTYLE
 70
     1
  9
$CMLSTYLE
  2
Standard
  9
$CMLJUST
 70
     0
  9
$CMLSCALE
 40
1.0
  9
$PROXYGRAPHICS
 70
     0
  9
$MEASUREMENT
 70
     0
  0
ENDSEC
  0
SECTION
  2
CLASSES
  0
CLASS
  1
LWPOLYLINE
  2
AcDbPolyline
  3
"AutoCAD"
 90
        0
280
     0
281
     1
  0
CLASS
  1
IMAGE
  2
AcDbRasterImage
  3
ISM
 90
      127
280
     0
281
     1
  0
CLASS
  1
OLE2FRAME
  2
AcDbOle2Frame
  3
""
 90
        0
280
     0
281
     1
  0
CLASS
  1
HATCH
  2
AcDbHatch
  3
"ACAD_SEDONA"
 90
        0
280
     0
281
     1
  0
CLASS
  1
DICTIONARYVAR
  2
AcDbDictionaryVar
  3
"AutoCAD"
 90
        0
280
     0
281
     0
  0
CLASS
  1
RASTERVARIABLES
  2
AcDbRasterVariables
  3
ISM
 90
        0
280
     0
281
     0
  0
CLASS
  1
IMAGEDEF
  2
AcDbRasterImageDef
  3
ISM
 90
        0
280
     0
281
     0
  0
CLASS
  1
IMAGEDEF_REACTOR
  2
AcDbRasterImageDefReactor
  3
ISM
 90
        1
280
     0
281
     0
  0
CLASS
  1
IDBUFFER
  2
AcDbIdBuffer
  3
"Acad"
 90
        0
280
     0
281
     0
  0
CLASS
  1
SPATIAL_FILTER
  2
AcDbSpatialFilter
  3
"Acad"
 90
        0
280
     0
281
     0
  0
CLASS
  1
XRECORD
  2
AcDbXrecord
  3
"<Built In>"
 90
        0
280
     0
281
     0
  0
CLASS
  1
SORTENTSTABLE
  2
AcDbSortentsTable
  3
"AutoCAD"
 90
        0
280
     0
281
     0
  0
CLASS
  1
LAYER_INDEX
  2
AcDbLayerIndex
  3
"Acad"
 90
        0
280
     0
281
     0
  0
CLASS
  1
SPATIAL_INDEX
  2
AcDbSpatialIndex
  3
"Acad"
 90
        0
280
     0
281
     0
  0
CLASS
  1
OBJECT_PTR
  2
CAseDLPNTableRecord
  3
"ASE-LPNTableRecord"
 90
        1
280
     0
281
     0
  0
CLASS
  1
LAYOUT
  2
AcDbLayout
  3
"AutoCAD 2000"
 90
        1
280
     0
281
     0
  0
CLASS
  1
PLOTSETTINGS
  2
AcDbPlotSettings
  3
"AutoCAD 2000"
 90
        1
280
     0
281
     0
  0
CLASS
  1
ACDBDICTIONARYWDFLT
  2
AcDbDictionaryWithDefault
  3
"AutoCAD 2000"
 90
        1
280
     0
281
     0
  0
CLASS
  1
ACDBPLACEHOLDER
  2
AcDbPlaceHolder
  3
"AutoCAD 2000"
 90
        1
280
     0
281
     0
  0
CLASS
  1
VBA_PROJECT
  2
AcDbVbaProject
  3
"acadvba"
 90
        1
280
     0
281
     0
  0
CLASS
  1
WIPEOUT
  2
AcDbWipeout
  3
WipeOut|AutoCAD Express Tool|expresstools@autodesk.com
 90
      127
280
     0
281
     1
  0
CLASS
  1
WIPEOUTVARIABLES
  2
AcDbWipeoutVariables
  3
WipeOut|AutoCAD Express Tool|expresstools@autodesk.com
 90
        0
280
     0
281
     0
  0
CLASS
  1
RTEXT
  2
RText
  3
RText|AutoCAD Express Tool|expresstools@autodesk.com
 90
        0
280
     0
281
     1
  0
CLASS
  1
ARCALIGNEDTEXT
  2
AcDbArcAlignedText
  3
ATEXT|AutoCAD Express Tool|expresstools@autodesk.com
 90
        0
280
     0
281
     1
  0
ENDSEC
  0
SECTION
  2
TABLES
  0
TABLE
  2
VPORT
  5
7
100
AcDbSymbolTable
 70
     1
  0
VPORT
  5
15
100
AcDbSymbolTableRecord
100
AcDbViewportTableRecord
  2
*ACTIVE
 70
     0
 10
0.0
 20
0.0
 11
1.0
 21
1.0
 12
164.500002
 22
85.4
 13
0.0
 23
0.0
 14
1.0
 24
1.0
 15
0.0
 25
0.0
 16
0.0
 26
0.0
 36
1.0
 17
0.0
 27
0.0
 37
0.0
 40
215.0
 41
1.722533
 42
50.0
 43
0.0
 44
0.0
 50
0.0
 51
0.0
 71
     0
 72
   100
 73
     1
 74
     1
 75
     0
 76
     0
 77
     0
 78
     0
  0
ENDTAB
  0
TABLE
  2
LTYPE
  5
4
100
AcDbSymbolTable
 70
     9
  0
LTYPE
  5
11
100
AcDbSymbolTableRecord
100
AcDbLinetypeTableRecord
  2
BYBLOCK
 70
    64
  3

 72
    65
 73
     0
 40
0.0
  0
LTYPE
  5
12
100
AcDbSymbolTableRecord
100
AcDbLinetypeTableRecord
  2
BYLAYER
 70
    64
  3

 72
    65
 73
     0
 40
0.0
  0
LTYPE
  5
13
100
AcDbSymbolTableRecord
100
AcDbLinetypeTableRecord
  2
CONTINUOUS
 70
    64
  3
実線
 72
    65
 73
     0
 40
0.0
  0
LTYPE
  5
1D
100
AcDbSymbolTableRecord
100
AcDbLinetypeTableRecord
  2
EXLTYPE1
 70
    64
  3
破線
 72
    65
 73
     2
 40
4.0
 49
3.0
 74
     0
 49
-1.0
 74
     0
  0
LTYPE
  5
1E
100
AcDbSymbolTableRecord
100
AcDbLinetypeTableRecord
  2
EXLTYPE2
 70
    64
  3
点線
 72
    65
 73
     2
 40
2.0
 49
1.0
 74
     0
 49
-1.0
 74
     0
  0
LTYPE
  5
1F
100
AcDbSymbolTableRecord
100
AcDbLinetypeTableRecord
  2
EXLTYPE3
 70
    64
  3
一点鎖線
 72
    65
 73
     4
 40
33.0
 49
30.0
 74
     0
 49
-1.0
 74
     0
 49
1.0
 74
     0
 49
-1.0
 74
     0
  0
LTYPE
  5
20
100
AcDbSymbolTableRecord
100
AcDbLinetypeTableRecord
  2
EXLTYPE4
 70
    64
  3
二点鎖線
 72
    65
 73
     6
 40
35.0
 49
30.0
 74
     0
 49
-1.0
 74
     0
 49
1.0
 74
     0
 49
-1.0
 74
     0
 49
1.0
 74
     0
 49
-1.0
 74
     0
  0
LTYPE
  5
21
100
AcDbSymbolTableRecord
100
AcDbLinetypeTableRecord
  2
EXLTYPE5
 70
    64
  3
三点鎖線
 72
    65
 73
     8
 40
37.0
 49
30.0
 74
     0
 49
-1.0
 74
     0
 49
1.0
 74
     0
 49
-1.0
 74
     0
 49
1.0
 74
     0
 49
-1.0
 74
     0
 49
1.0
 74
     0
 49
-1.0
 74
     0
  0
LTYPE
  5
22
100
AcDbSymbolTableRecord
100
AcDbLinetypeTableRecord
  2
EXLTYPE6
 70
    64
  3
四点鎖線
 72
    65
 73
    10
 40
39.0
 49
30.0
 74
     0
 49
-1.0
 74
     0
 49
1.0
 74
     0
 49
-1.0
 74
     0
 49
1.0
 74
     0
 49
-1.0
 74
     0
 49
1.0
 74
     0
 49
-1.0
 74
     0
 49
1.0
 74
     0
 49
-1.0
 74
     0
  0
ENDTAB
  0
TABLE
  2
LAYER
  5
2
100
AcDbSymbolTable
 70
     4
  0
LAYER
  5
14
100
AcDbSymbolTableRecord
100
AcDbLayerTableRecord
  2
0
 70
     0
 62
     7
  6
CONTINUOUS
  0
LAYER
  5
25
100
AcDbSymbolTableRecord
100
AcDbLayerTableRecord
  2
LAY-1
 70
    64
 62
     7
  6
CONTINUOUS
  0
LAYER
  5
26
100
AcDbSymbolTableRecord
100
AcDbLayerTableRecord
  2
LAY-2
 70
    64
 62
     7
  6
CONTINUOUS
  0
LAYER
  5
27
100
AcDbSymbolTableRecord
100
AcDbLayerTableRecord
  2
LAY-3
 70
    64
 62
     7
  6
CONTINUOUS
  0
ENDTAB
  0
TABLE
  2
STYLE
  5
3
100
AcDbSymbolTable
 70
     4
  0
STYLE
  5
17
100
AcDbSymbolTableRecord
100
AcDbTextStyleTableRecord
  2
STANDARD
 70
     0
 40
0.0
 41
1.0
 50
0.0
 71
     0
 42
0.0
  3
monotxt
  4
extfont
  0
STYLE
  5
23
100
AcDbSymbolTableRecord
100
AcDbTextStyleTableRecord
  2
EXCADSTD
 70
    64
 40
0.0
 41
1.0
 50
0.0
 71
     0
 42
0.2
  3
monotxt
  4
extfont
  0
STYLE
  5
24
100
AcDbSymbolTableRecord
100
AcDbTextStyleTableRecord
  2
EXCADVERT
 70
    68
 40
0.0
 41
1.0
 50
0.0
 71
     0
 42
0.286885
  3
monotxt
  4
extfont
  0
STYLE
  5
92
100
AcDbSymbolTableRecord
100
AcDbTextStyleTableRecord
  2
EXCADTTF1
 70
    64
 40
0.0
 41
1.0
 50
0.0
 71
     0
 42
0.2
  3
MS Gothic.ttf
  4

1001
ACAD
1000
MS Gothic
1071
    32817
  0
ENDTAB
  0
TABLE
  2
VIEW
  5
5
100
AcDbSymbolTable
 70
     0
  0
ENDTAB
  0
TABLE
  2
UCS
  5
6
100
AcDbSymbolTable
 70
     0
  0
ENDTAB
  0
TABLE
  2
APPID
  5
8
100
AcDbSymbolTable
 70
     1
  0
APPID
  5
16
100
AcDbSymbolTableRecord
100
AcDbRegAppTableRecord
  2
ACAD
 70
     0
  0
ENDTAB
  0
TABLE
  2
DIMSTYLE
  5
9
100
AcDbSymbolTable
 70
     1
  0
DIMSTYLE
105
18
100
AcDbSymbolTableRecord
100
AcDbDimStyleTableRecord
  2
STANDARD
 70
     0
  3

  4

  5

  6

  7

 40
1.0
 41
0.18
 42
0.0625
 43
0.38
 44
0.18
 45
0.0
 46
0.0
 47
0.0
 48
0.0
 71
     0
 72
     0
 73
     1
 74
     1
 75
     0
 76
     0
 77
     0
 78
     0
140
0.18
141
0.09
142
0.0
143
25.4
144
1.0
145
0.0
146
1.0
147
0.09
170
     0
171
     2
172
     0
173
     0
174
     0
175
     0
176
     0
177
     0
178
     0
270
     2
271
     4
272
     4
273
     2
274
     2
275
     0
280
     0
281
     0
282
     0
283
     1
284
     0
285
     0
286
     0
287
     0
288
     0
340
17
  0
ENDTAB
  0
TABLE
  2
BLOCK_RECORD
  5
1
100
AcDbSymbolTable
 70
    14
  0
BLOCK_RECORD
  5
A
100
AcDbSymbolTableRecord
100
AcDbBlockTableRecord
  2
*MODEL_SPACE
  0
BLOCK_RECORD
  5
B
100
AcDbSymbolTableRecord
100
AcDbBlockTableRecord
  2
*PAPER_SPACE
  0
BLOCK_RECORD
  5
28
100
AcDbSymbolTableRecord
100
AcDbBlockTableRecord
  2
_EX_NORM
  0
BLOCK_RECORD
  5
29
100
AcDbSymbolTableRecord
100
AcDbBlockTableRecord
  2
_EX_BNORM
  0
BLOCK_RECORD
  5
2A
100
AcDbSymbolTableRecord
100
AcDbBlockTableRecord
  2
_EX_BCIR
  0
BLOCK_RECORD
  5
2B
100
AcDbSymbolTableRecord
100
AcDbBlockTableRecord
  2
_EX_RCIVIL
  0
BLOCK_RECORD
  5
2C
100
AcDbSymbolTableRecord
100
AcDbBlockTableRecord
  2
_EX_SLANT
  0
BLOCK_RECORD
  5
2D
100
AcDbSymbolTableRecord
100
AcDbBlockTableRecord
  2
_EX_NONE
  0
BLOCK_RECORD
  5
2E
100
AcDbSymbolTableRecord
100
AcDbBlockTableRecord
  2
_EX_CIVIL
  0
BLOCK_RECORD
  5
2F
100
AcDbSymbolTableRecord
100
AcDbBlockTableRecord
  2
_EX_WCIR
  0
BLOCK_RECORD
  5
30
100
AcDbSymbolTableRecord
100
AcDbBlockTableRecord
  2
_EX_WCIR2
  0
BLOCK_RECORD
  5
31
100
AcDbSymbolTableRecord
100
AcDbBlockTableRecord
  2
_EX_WNORM
  0
BLOCK_RECORD
  5
32
100
AcDbSymbolTableRecord
100
AcDbBlockTableRecord
  2
_EX_NNORM
  0
BLOCK_RECORD
  5
33
100
AcDbSymbolTableRecord
100
AcDbBlockTableRecord
  2
_EX_BBOX
  0
BLOCK_RECORD
  5
34
100
AcDbSymbolTableRecord
100
AcDbBlockTableRecord
  2
_EX_WBOX
  0
BLOCK_RECORD
  5
35
100
AcDbSymbolTableRecord
100
AcDbBlockTableRecord
  2
_EX_INTEGRAL
  0
ENDTAB
  0
ENDSEC
  0
SECTION
  2
BLOCKS
  0
BLOCK
  5
D
100
AcDbEntity
  8
0
100
AcDbBlockBegin
  2
*MODEL_SPACE
 70
     0
 10
0.0
 20
0.0
 30
0.0
  3
*MODEL_SPACE
  1

  0
ENDBLK
  5
E
100
AcDbEntity
  8
0
100
AcDbBlockEnd
  0
BLOCK
  5
F
100
AcDbEntity
 67
     1
  8
0
100
AcDbBlockBegin
  2
*PAPER_SPACE
 70
     0
 10
0.0
 20
0.0
 30
0.0
  3
*PAPER_SPACE
  1

  0
ENDBLK
  5
10
100
AcDbEntity
 67
     1
  8
0
100
AcDbBlockEnd
  0
BLOCK
  5
36
100
AcDbEntity
  8
0
100
AcDbBlockBegin
  2
_EX_NORM
 70
     0
 10
0.0
 20
0.0
 30
0.0
  3
_EX_NORM
  1

  0
LINE
  5
37
100
AcDbEntity
  8
0
  6
CONTINUOUS
 62
     0
100
AcDbLine
 10
0.0
 20
0.0
 30
0.0
 11
-1.0
 21
0.0
 31
0.0
  0
LINE
  5
38
100
AcDbEntity
  8
0
  6
CONTINUOUS
 62
     0
100
AcDbLine
 10
0.0
 20
0.0
 30
0.0
 11
-1.0
 21
0.166667
 31
0.0
  0
LINE
  5
39
100
AcDbEntity
  8
0
  6
CONTINUOUS
 62
     0
100
AcDbLine
 10
0.0
 20
0.0
 30
0.0
 11
-1.0
 21
-0.166667
 31
0.0
  0
ENDBLK
  5
3A
100
AcDbEntity
  8
0
100
AcDbBlockEnd
  0
BLOCK
  5
3B
100
AcDbEntity
  8
0
100
AcDbBlockBegin
  2
_EX_BNORM
 70
     0
 10
0.0
 20
0.0
 30
0.0
  3
_EX_BNORM
  1

  0
LINE
  5
3C
100
AcDbEntity
  8
0
  6
CONTINUOUS
 62
     0
100
AcDbLine
 10
0.0
 20
0.0
 30
0.0
 11
-1.0
 21
0.0
 31
0.0
  0
LINE
  5
3D
100
AcDbEntity
  8
0
  6
CONTINUOUS
 62
     0
100
AcDbLine
 10
0.0
 20
0.0
 30
0.0
 11
-1.0
 21
0.166667
 31
0.0
  0
LINE
  5
3E
100
AcDbEntity
  8
0
  6
CONTINUOUS
 62
     0
100
AcDbLine
 10
0.0
 20
0.0
 30
0.0
 11
-1.0
 21
-0.166667
 31
0.0
  0
LINE
  5
3F
100
AcDbEntity
  8
0
  6
CONTINUOUS
 62
     0
100
AcDbLine
 10
0.0
 20
0.0
 30
0.0
 11
-1.0
 21
0.083333
 31
0.0
  0
LINE
  5
40
100
AcDbEntity
  8
0
  6
CONTINUOUS
 62
     0
100
AcDbLine
 10
0.0
 20
0.0
 30
0.0
 11
-1.0
 21
-0.083333
 31
0.0
  0
LINE
  5
41
100
AcDbEntity
  8
0
  6
CONTINUOUS
 62
     0
100
AcDbLine
 10
-1.0
 20
0.166667
 30
0.0
 11
-1.0
 21
-0.166667
 31
0.0
  0
ENDBLK
  5
42
100
AcDbEntity
  8
0
100
AcDbBlockEnd
  0
BLOCK
  5
43
100
AcDbEntity
  8
0
100
AcDbBlockBegin
  2
_EX_BCIR
 70
     0
 10
0.0
 20
0.0
 30
0.0
  3
_EX_BCIR
  1

  0
LINE
  5
44
100
AcDbEntity
  8
0
  6
CONTINUOUS
 62
     0
100
AcDbLine
 10
0.0
 20
0.0
 30
0.0
 11
-1.0
 21
0.0
 31
0.0
  0
CIRCLE
  5
45
100
AcDbEntity
  8
0
  6
CONTINUOUS
 62
     0
100
AcDbCircle
 10
0.0
 20
0.0
 30
0.0
 40
0.5
  0
CIRCLE
  5
46
100
AcDbEntity
  8
0
  6
CONTINUOUS
 62
     0
100
AcDbCircle
 10
0.0
 20
0.0
 30
0.0
 40
0.25
  0
ENDBLK
  5
47
100
AcDbEntity
  8
0
100
AcDbBlockEnd
  0
BLOCK
  5
48
100
AcDbEntity
  8
0
100
AcDbBlockBegin
  2
_EX_RCIVIL
 70
     0
 10
0.0
 20
0.0
 30
0.0
  3
_EX_RCIVIL
  1

  0
LINE
  5
49
100
AcDbEntity
  8
0
  6
CONTINUOUS
 62
     0
100
AcDbLine
 10
0.0
 20
0.0
 30
0.0
 11
-1.0
 21
0.0
 31
0.0
  0
LINE
  5
4A
100
AcDbEntity
  8
0
  6
CONTINUOUS
 62
     0
100
AcDbLine
 10
-1.0
 20
-0.25
 30
0.0
 11
0.0
 21
-0.25
 31
0.0
  0
LINE
  5
4B
100
AcDbEntity
  8
0
  6
CONTINUOUS
 62
     0
100
AcDbLine
 10
-1.0
 20
-0.125
 30
0.0
 11
0.0
 21
-0.125
 31
0.0
  0
ENDBLK
  5
4C
100
AcDbEntity
  8
0
100
AcDbBlockEnd
  0
BLOCK
  5
4D
100
AcDbEntity
  8
0
100
AcDbBlockBegin
  2
_EX_SLANT
 70
     0
 10
0.0
 20
0.0
 30
0.0
  3
_EX_SLANT
  1

  0
LINE
  5
4E
100
AcDbEntity
  8
0
  6
CONTINUOUS
 62
     0
100
AcDbLine
 10
0.0
 20
0.0
 30
0.0
 11
-1.0
 21
0.0
 31
0.0
  0
LINE
  5
4F
100
AcDbEntity
  8
0
  6
CONTINUOUS
 62
     0
100
AcDbLine
 10
0.707107
 20
0.707107
 30
0.0
 11
-0.707107
 21
-0.707107
 31
0.0
  0
ENDBLK
  5
50
100
AcDbEntity
  8
0
100
AcDbBlockEnd
  0
BLOCK
  5
51
100
AcDbEntity
  8
0
100
AcDbBlockBegin
  2
_EX_NONE
 70
     0
 10
0.0
 20
0.0
 30
0.0
  3
_EX_NONE
  1

  0
LINE
  5
52
100
AcDbEntity
  8
0
  6
CONTINUOUS
 62
     0
100
AcDbLine
 10
0.0
 20
0.0
 30
0.0
 11
-1.0
 21
0.0
 31
0.0
  0
ENDBLK
  5
53
100
AcDbEntity
  8
0
100
AcDbBlockEnd
  0
BLOCK
  5
54
100
AcDbEntity
  8
0
100
AcDbBlockBegin
  2
_EX_CIVIL
 70
     0
 10
0.0
 20
0.0
 30
0.0
  3
_EX_CIVIL
  1

  0
LINE
  5
55
100
AcDbEntity
  8
0
  6
CONTINUOUS
 62
     0
100
AcDbLine
 10
0.0
 20
0.0
 30
0.0
 11
-1.0
 21
0.0
 31
0.0
  0
LINE
  5
56
100
AcDbEntity
  8
0
  6
CONTINUOUS
 62
     0
100
AcDbLine
 10
-1.0
 20
0.25
 30
0.0
 11
0.0
 21
0.25
 31
0.0
  0
LINE
  5
57
100
AcDbEntity
  8
0
  6
CONTINUOUS
 62
     0
100
AcDbLine
 10
-1.0
 20
0.125
 30
0.0
 11
0.0
 21
0.125
 31
0.0
  0
ENDBLK
  5
58
100
AcDbEntity
  8
0
100
AcDbBlockEnd
  0
BLOCK
  5
59
100
AcDbEntity
  8
0
100
AcDbBlockBegin
  2
_EX_WCIR
 70
     0
 10
0.0
 20
0.0
 30
0.0
  3
_EX_WCIR
  1

  0
LINE
  5
5A
100
AcDbEntity
  8
0
  6
CONTINUOUS
 62
     0
100
AcDbLine
 10
0.0
 20
0.0
 30
0.0
 11
-1.0
 21
0.0
 31
0.0
  0
CIRCLE
  5
5B
100
AcDbEntity
  8
0
  6
CONTINUOUS
 62
     0
100
AcDbCircle
 10
0.0
 20
0.0
 30
0.0
 40
0.5
  0
ENDBLK
  5
5C
100
AcDbEntity
  8
0
100
AcDbBlockEnd
  0
BLOCK
  5
5D
100
AcDbEntity
  8
0
100
AcDbBlockBegin
  2
_EX_WCIR2
 70
     0
 10
0.0
 20
0.0
 30
0.0
  3
_EX_WCIR2
  1

  0
LINE
  5
5E
100
AcDbEntity
  8
0
  6
CONTINUOUS
 62
     0
100
AcDbLine
 10
-0.5
 20
0.0
 30
0.0
 11
-1.0
 21
0.0
 31
0.0
  0
CIRCLE
  5
5F
100
AcDbEntity
  8
0
  6
CONTINUOUS
 62
     0
100
AcDbCircle
 10
0.0
 20
0.0
 30
0.0
 40
0.5
  0
ENDBLK
  5
60
100
AcDbEntity
  8
0
100
AcDbBlockEnd
  0
BLOCK
  5
61
100
AcDbEntity
  8
0
100
AcDbBlockBegin
  2
_EX_WNORM
 70
     0
 10
0.0
 20
0.0
 30
0.0
  3
_EX_WNORM
  1

  0
LINE
  5
62
100
AcDbEntity
  8
0
  6
CONTINUOUS
 62
     0
100
AcDbLine
 10
-1.0
 20
0.0
 30
0.0
 11
-1.0
 21
0.0
 31
0.0
  0
LINE
  5
63
100
AcDbEntity
  8
0
  6
CONTINUOUS
 62
     0
100
AcDbLine
 10
0.0
 20
0.0
 30
0.0
 11
-1.0
 21
0.166667
 31
0.0
  0
LINE
  5
64
100
AcDbEntity
  8
0
  6
CONTINUOUS
 62
     0
100
AcDbLine
 10
0.0
 20
0.0
 30
0.0
 11
-1.0
 21
-0.166667
 31
0.0
  0
LINE
  5
65
100
AcDbEntity
  8
0
  6
CONTINUOUS
 62
     0
100
AcDbLine
 10
-1.0
 20
0.166667
 30
0.0
 11
-1.0
 21
-0.166667
 31
0.0
  0
ENDBLK
  5
66
100
AcDbEntity
  8
0
100
AcDbBlockEnd
  0
BLOCK
  5
67
100
AcDbEntity
  8
0
100
AcDbBlockBegin
  2
_EX_NNORM
 70
     0
 10
0.0
 20
0.0
 30
0.0
  3
_EX_NNORM
  1

  0
LINE
  5
68
100
AcDbEntity
  8
0
  6
CONTINUOUS
 62
     0
100
AcDbLine
 10
0.0
 20
0.0
 30
0.0
 11
-1.0
 21
0.0
 31
0.0
  0
LINE
  5
69
100
AcDbEntity
  8
0
  6
CONTINUOUS
 62
     0
100
AcDbLine
 10
0.0
 20
0.0
 30
0.0
 11
-1.0
 21
0.166667
 31
0.0
  0
LINE
  5
6A
100
AcDbEntity
  8
0
  6
CONTINUOUS
 62
     0
100
AcDbLine
 10
0.0
 20
0.0
 30
0.0
 11
-1.0
 21
-0.166667
 31
0.0
  0
LINE
  5
6B
100
AcDbEntity
  8
0
  6
CONTINUOUS
 62
     0
100
AcDbLine
 10
-1.0
 20
0.166667
 30
0.0
 11
-1.0
 21
-0.166667
 31
0.0
  0
ENDBLK
  5
6C
100
AcDbEntity
  8
0
100
AcDbBlockEnd
  0
BLOCK
  5
6D
100
AcDbEntity
  8
0
100
AcDbBlockBegin
  2
_EX_BBOX
 70
     0
 10
0.0
 20
0.0
 30
0.0
  3
_EX_BBOX
  1

  0
LINE
  5
6E
100
AcDbEntity
  8
0
  6
CONTINUOUS
 62
     0
100
AcDbLine
 10
0.0
 20
0.0
 30
0.0
 11
-1.0
 21
0.0
 31
0.0
  0
LINE
  5
6F
100
AcDbEntity
  8
0
  6
CONTINUOUS
 62
     0
100
AcDbLine
 10
-0.5
 20
0.5
 30
0.0
 11
0.5
 21
0.5
 31
0.0
  0
LINE
  5
70
100
AcDbEntity
  8
0
  6
CONTINUOUS
 62
     0
100
AcDbLine
 10
0.5
 20
0.5
 30
0.0
 11
0.5
 21
-0.5
 31
0.0
  0
LINE
  5
71
100
AcDbEntity
  8
0
  6
CONTINUOUS
 62
     0
100
AcDbLine
 10
0.5
 20
-0.5
 30
0.0
 11
-0.5
 21
-0.5
 31
0.0
  0
LINE
  5
72
100
AcDbEntity
  8
0
  6
CONTINUOUS
 62
     0
100
AcDbLine
 10
-0.5
 20
-0.5
 30
0.0
 11
-0.5
 21
0.5
 31
0.0
  0
LINE
  5
73
100
AcDbEntity
  8
0
  6
CONTINUOUS
 62
     0
100
AcDbLine
 10
-0.25
 20
0.25
 30
0.0
 11
0.25
 21
0.25
 31
0.0
  0
LINE
  5
74
100
AcDbEntity
  8
0
  6
CONTINUOUS
 62
     0
100
AcDbLine
 10
0.25
 20
0.25
 30
0.0
 11
0.25
 21
-0.25
 31
0.0
  0
LINE
  5
75
100
AcDbEntity
  8
0
  6
CONTINUOUS
 62
     0
100
AcDbLine
 10
0.25
 20
-0.25
 30
0.0
 11
-0.25
 21
-0.25
 31
0.0
  0
LINE
  5
76
100
AcDbEntity
  8
0
  6
CONTINUOUS
 62
     0
100
AcDbLine
 10
-0.25
 20
-0.25
 30
0.0
 11
-0.25
 21
0.25
 31
0.0
  0
ENDBLK
  5
77
100
AcDbEntity
  8
0
100
AcDbBlockEnd
  0
BLOCK
  5
78
100
AcDbEntity
  8
0
100
AcDbBlockBegin
  2
_EX_WBOX
 70
     0
 10
0.0
 20
0.0
 30
0.0
  3
_EX_WBOX
  1

  0
LINE
  5
79
100
AcDbEntity
  8
0
  6
CONTINUOUS
 62
     0
100
AcDbLine
 10
-0.5
 20
0.0
 30
0.0
 11
-1.0
 21
0.0
 31
0.0
  0
LINE
  5
7A
100
AcDbEntity
  8
0
  6
CONTINUOUS
 62
     0
100
AcDbLine
 10
-0.5
 20
0.5
 30
0.0
 11
0.5
 21
0.5
 31
0.0
  0
LINE
  5
7B
100
AcDbEntity
  8
0
  6
CONTINUOUS
 62
     0
100
AcDbLine
 10
0.5
 20
0.5
 30
0.0
 11
0.5
 21
-0.5
 31
0.0
  0
LINE
  5
7C
100
AcDbEntity
  8
0
  6
CONTINUOUS
 62
     0
100
AcDbLine
 10
0.5
 20
-0.5
 30
0.0
 11
-0.5
 21
-0.5
 31
0.0
  0
LINE
  5
7D
100
AcDbEntity
  8
0
  6
CONTINUOUS
 62
     0
100
AcDbLine
 10
-0.5
 20
-0.5
 30
0.0
 11
-0.5
 21
0.5
 31
0.0
  0
ENDBLK
  5
7E
100
AcDbEntity
  8
0
100
AcDbBlockEnd
  0
BLOCK
  5
7F
100
AcDbEntity
  8
0
100
AcDbBlockBegin
  2
_EX_INTEGRAL
 70
     0
 10
0.0
 20
0.0
 30
0.0
  3
_EX_INTEGRAL
  1

  0
LINE
  5
80
100
AcDbEntity
  8
0
  6
CONTINUOUS
 62
     0
100
AcDbLine
 10
0.0
 20
0.0
 30
0.0
 11
-1.0
 21
0.0
 31
0.0
  0
ARC
  5
81
100
AcDbEntity
  8
0
  6
CONTINUOUS
 62
     0
100
AcDbCircle
 10
0.0
 20
0.0
 30
0.0
 40
0.707107
100
AcDbArc
 50
90.0
 51
180.0
  0
ARC
  5
82
100
AcDbEntity
  8
0
  6
CONTINUOUS
 62
     0
100
AcDbCircle
 10
0.0
 20
0.0
 30
0.0
 40
0.707107
100
AcDbArc
 50
270.0
 51
0.0
  0
ENDBLK
  5
83
100
AcDbEntity
  8
0
100
AcDbBlockEnd
  0
ENDSEC
  0
SECTION
  2
ENTITIES
  0
LINE
  5
84
100
AcDbEntity
  8
LAY-1
  6
CONTINUOUS
 62
     2
100
AcDbLine
 10
60.9
 20
94.6
 30
0.0
 11
240.9
 21
94.6
 31
0.0
  0
LINE
  5
85
100
AcDbEntity
  8
LAY-1
  6
CONTINUOUS
 62
     2
100
AcDbLine
 10
60.9
 20
52.6
 30
0.0
 11
240.9
 21
52.6
 31
0.0
  0
LINE
  5
86
100
AcDbEntity
  8
LAY-1
  6
CONTINUOUS
 62
     2
100
AcDbLine
 10
60.9
 20
134.6
 30
0.0
 11
240.9
 21
134.6
 31
0.0
  0
LINE
  5
87
100
AcDbEntity
  8
LAY-1
  6
CONTINUOUS
 62
     2
100
AcDbLine
 10
60.9
 20
101.6
 30
0.0
 11
240.9
 21
101.6
 31
0.0
  0
LINE
  5
88
100
AcDbEntity
  8
LAY-1
  6
CONTINUOUS
 62
     2
100
AcDbLine
 10
150.9
 20
101.6
 30
0.0
 11
150.9
 21
52.6
 31
0.0
  0
LINE
  5
89
100
AcDbEntity
  8
LAY-1
  6
CONTINUOUS
 62
     2
100
AcDbLine
 10
60.9
 20
141.6
 30
0.0
 11
240.9
 21
141.6
 31
0.0
  0
LINE
  5
8A
100
AcDbEntity
  8
LAY-1
  6
CONTINUOUS
 62
     2
100
AcDbLine
 10
60.9
 20
168.6
 30
0.0
 11
240.9
 21
168.6
 31
0.0
  0
LINE
  5
8B
100
AcDbEntity
  8
LAY-1
  6
CONTINUOUS
 62
     2
100
AcDbLine
 10
120.9
 20
175.6
 30
0.0
 11
120.9
 21
101.6
 31
0.0
  0
LINE
  5
8C
100
AcDbEntity
  8
LAY-1
  6
CONTINUOUS
 62
     2
100
AcDbLine
 10
180.9
 20
175.6
 30
0.0
 11
180.9
 21
101.6
 31
0.0
  0
LINE
  5
8D
100
AcDbEntity
  8
LAY-1
  6
CONTINUOUS
 62
     2
100
AcDbLine
 10
60.9
 20
175.6
 30
0.0
 11
240.9
 21
175.6
 31
0.0
  0
LINE
  5
8E
100
AcDbEntity
  8
LAY-1
  6
CONTINUOUS
 62
     2
100
AcDbLine
 10
60.9
 20
192.9
 30
0.0
 11
240.9
 21
192.9
 31
0.0
  0
LINE
  5
8F
100
AcDbEntity
  8
LAY-1
  6
CONTINUOUS
 62
     2
100
AcDbLine
 10
60.9
 20
192.9
 30
0.0
 11
60.9
 21
52.6
 31
0.0
  0
LINE
  5
90
100
AcDbEntity
  8
LAY-1
  6
CONTINUOUS
 62
     2
100
AcDbLine
 10
240.9
 20
192.9
 30
0.0
 11
240.9
 21
52.6
 31
0.0
  0
TEXT
  5
91
100
AcDbEntity
  8
LAY-1
  6
CONTINUOUS
 62
     7
100
AcDbText
 10
72.85
 20
170.9
 30
0.0
 40
3.0
  1
４０Ａ　３００Ｌ～２０００Ｌ
 41
0.71
  7
EXCADSTD
 72
     5
 11
108.35
 21
170.9
 31
0.0
100
AcDbText
  0
TEXT
  5
93
100
AcDbEntity
  8
LAY-1
  6
CONTINUOUS
 62
     1
100
AcDbText
 10
-96.749998
 20
-22.1
 30
0.0
 40
11.25
  1
スケールは１／１０となっています。必要に応じてサイズを１０倍して下さい。
 41
0.966667
  7
EXCADTTF1
 72
     5
 11
425.750002
 21
-22.1
 31
0.0
100
AcDbText
  0
TEXT
  5
94
100
AcDbEntity
  8
LAY-1
  6
CONTINUOUS
 62
     7
100
AcDbText
 10
132.85
 20
170.7
 30
0.0
 40
3.0
  1
５０Ａ　３００Ｌ～２０００Ｌ
 41
0.71
  7
EXCADSTD
 72
     5
 11
168.35
 21
170.7
 31
0.0
100
AcDbText
  0
TEXT
  5
95
100
AcDbEntity
  8
LAY-1
  6
CONTINUOUS
 62
     7
100
AcDbText
 10
192.05
 20
170.6
 30
0.0
 40
3.0
  1
６５Ａ　３００Ｌ～２０００Ｌ
 41
0.71
  7
EXCADSTD
 72
     5
 11
227.55
 21
170.6
 31
0.0
100
AcDbText
  0
TEXT
  5
96
100
AcDbEntity
  8
LAY-1
  6
CONTINUOUS
 62
     7
100
AcDbText
 10
72.45
 20
136.9
 30
0.0
 40
3.0
  1
８０Ａ　３００Ｌ～２０００Ｌ
 41
0.71
  7
EXCADSTD
 72
     5
 11
107.95
 21
136.9
 31
0.0
100
AcDbText
  0
TEXT
  5
97
100
AcDbEntity
  8
LAY-1
  6
CONTINUOUS
 62
     7
100
AcDbText
 10
132.8
 20
136.9
 30
0.0
 40
3.0
  1
１００Ａ　４００Ｌ～２０００Ｌ
 41
0.709333
  7
EXCADSTD
 72
     5
 11
170.8
 21
136.9
 31
0.0
100
AcDbText
  0
TEXT
  5
98
100
AcDbEntity
  8
LAY-1
  6
CONTINUOUS
 62
     7
100
AcDbText
 10
191.7
 20
136.9
 30
0.0
 40
3.0
  1
１２５Ａ　４００Ｌ～２０００Ｌ
 41
0.709333
  7
EXCADSTD
 72
     5
 11
229.7
 21
136.9
 31
0.0
100
AcDbText
  0
TEXT
  5
99
100
AcDbEntity
  8
LAY-1
  6
CONTINUOUS
 62
     7
100
AcDbText
 10
85.5
 20
96.9
 30
0.0
 40
3.0
  1
１５０Ａ　５００Ｌ～２０００Ｌ
 41
0.709333
  7
EXCADSTD
 72
     5
 11
123.5
 21
96.9
 31
0.0
100
AcDbText
  0
TEXT
  5
9A
100
AcDbEntity
  8
LAY-1
  6
CONTINUOUS
 62
     7
100
AcDbText
 10
180.8
 20
96.9
 30
0.0
 40
3.0
  1
２００Ａ　６００Ｌ～２０００Ｌ
 41
0.709333
  7
EXCADSTD
 72
     5
 11
218.8
 21
96.9
 31
0.0
100
AcDbText
  0
TEXT
  5
9B
100
AcDbEntity
  8
LAY-1
  6
CONTINUOUS
 62
     7
100
AcDbText
 10
115.4
 20
179.7
 30
0.0
 40
8.0
  1
露出用排水ジョイント　ドレネックス
 41
0.741176
  7
EXCADSTD
 72
     5
 11
235.4
 21
179.7
 31
0.0
100
AcDbText
  0
LINE
  5
9C
100
AcDbEntity
  8
LAY-1
  6
CONTINUOUS
 62
     2
100
AcDbLine
 10
82.038966
 20
188.37
 30
0.0
 11
83.201034
 21
188.37
 31
0.0
  0
LINE
  5
9D
100
AcDbEntity
  8
LAY-1
  6
CONTINUOUS
 62
     2
100
AcDbLine
 10
81.213728
 20
188.17
 30
0.0
 11
84.026272
 21
188.17
 31
0.0
  0
LINE
  5
9E
100
AcDbEntity
  8
LAY-1
  6
CONTINUOUS
 62
     2
100
AcDbLine
 10
80.739149
 20
187.97
 30
0.0
 11
84.500851
 21
187.97
 31
0.0
  0
LINE
  5
9F
100
AcDbEntity
  8
LAY-1
  6
CONTINUOUS
 62
     2
100
AcDbLine
 10
80.38
 20
187.77
 30
0.0
 11
84.86
 21
187.77
 31
0.0
  0
LINE
  5
A0
100
AcDbEntity
  8
LAY-1
  6
CONTINUOUS
 62
     2
100
AcDbLine
 10
80.086702
 20
187.57
 30
0.0
 11
85.153298
 21
187.57
 31
0.0
  0
LINE
  5
A1
100
AcDbEntity
  8
LAY-1
  6
CONTINUOUS
 62
     2
100
AcDbLine
 10
79.838346
 20
187.37
 30
0.0
 11
85.401654
 21
187.37
 31
0.0
  0
LINE
  5
A2
100
AcDbEntity
  8
LAY-1
  6
CONTINUOUS
 62
     2
100
AcDbLine
 10
72.62
 20
187.17
 30
0.0
 11
79.064605
 21
187.17
 31
0.0
  0
LINE
  5
A3
100
AcDbEntity
  8
LAY-1
  6
CONTINUOUS
 62
     2
100
AcDbLine
 10
79.623736
 20
187.17
 30
0.0
 11
85.616264
 21
187.17
 31
0.0
  0
LINE
  5
A4
100
AcDbEntity
  8
LAY-1
  6
CONTINUOUS
 62
     2
100
AcDbLine
 10
86.175395
 20
187.17
 30
0.0
 11
91.02
 21
187.17
 31
0.0
  0
LINE
  5
A5
100
AcDbEntity
  8
LAY-1
  6
CONTINUOUS
 62
     2
100
AcDbLine
 10
91.7
 20
187.17
 30
0.0
 11
97.06
 21
187.17
 31
0.0
  0
LINE
  5
A6
100
AcDbEntity
  8
LAY-1
  6
CONTINUOUS
 62
     2
100
AcDbLine
 10
97.66
 20
187.17
 30
0.0
 11
99.02
 21
187.17
 31
0.0
  0
LINE
  5
A7
100
AcDbEntity
  8
LAY-1
  6
CONTINUOUS
 62
     2
100
AcDbLine
 10
101.82
 20
187.17
 30
0.0
 11
103.18
 21
187.17
 31
0.0
  0
LINE
  5
A8
100
AcDbEntity
  8
LAY-1
  6
CONTINUOUS
 62
     2
100
AcDbLine
 10
72.62
 20
186.97
 30
0.0
 11
78.905053
 21
186.97
 31
0.0
  0
LINE
  5
A9
100
AcDbEntity
  8
LAY-1
  6
CONTINUOUS
 62
     2
100
AcDbLine
 10
79.43604
 20
186.97
 30
0.0
 11
85.80396
 21
186.97
 31
0.0
  0
LINE
  5
AA
100
AcDbEntity
  8
LAY-1
  6
CONTINUOUS
 62
     2
100
AcDbLine
 10
86.334947
 20
186.97
 30
0.0
 11
91.02
 21
186.97
 31
0.0
  0
LINE
  5
AB
100
AcDbEntity
  8
LAY-1
  6
CONTINUOUS
 62
     2
100
AcDbLine
 10
91.7
 20
186.97
 30
0.0
 11
97.06
 21
186.97
 31
0.0
  0
LINE
  5
AC
100
AcDbEntity
  8
LAY-1
  6
CONTINUOUS
 62
     2
100
AcDbLine
 10
97.66
 20
186.97
 30
0.0
 11
99.151618
 21
186.97
 31
0.0
  0
LINE
  5
AD
100
AcDbEntity
  8
LAY-1
  6
CONTINUOUS
 62
     2
100
AcDbLine
 10
101.82
 20
186.97
 30
0.0
 11
103.18
 21
186.97
 31
0.0
  0
LINE
  5
AE
100
AcDbEntity
  8
LAY-1
  6
CONTINUOUS
 62
     2
100
AcDbLine
 10
72.62
 20
186.77
 30
0.0
 11
78.762432
 21
186.77
 31
0.0
  0
LINE
  5
AF
100
AcDbEntity
  8
LAY-1
  6
CONTINUOUS
 62
     2
100
AcDbLine
 10
79.270731
 20
186.77
 30
0.0
 11
81.58077
 21
186.77
 31
0.0
  0
LINE
  5
B0
100
AcDbEntity
  8
LAY-1
  6
CONTINUOUS
 62
     2
100
AcDbLine
 10
83.65923
 20
186.77
 30
0.0
 11
85.969269
 21
186.77
 31
0.0
  0
LINE
  5
B1
100
AcDbEntity
  8
LAY-1
  6
CONTINUOUS
 62
     2
100
AcDbLine
 10
86.477568
 20
186.77
 30
0.0
 11
91.02
 21
186.77
 31
0.0
  0
LINE
  5
B2
100
AcDbEntity
  8
LAY-1
  6
CONTINUOUS
 62
     2
100
AcDbLine
 10
91.7
 20
186.77
 30
0.0
 11
97.06
 21
186.77
 31
0.0
  0
LINE
  5
B3
100
AcDbEntity
  8
LAY-1
  6
CONTINUOUS
 62
     2
100
AcDbLine
 10
97.66
 20
186.77
 30
0.0
 11
99.283235
 21
186.77
 31
0.0
  0
LINE
  5
B4
100
AcDbEntity
  8
LAY-1
  6
CONTINUOUS
 62
     2
100
AcDbLine
 10
101.82
 20
186.77
 30
0.0
 11
103.18
 21
186.77
 31
0.0
  0
LINE
  5
B5
100
AcDbEntity
  8
LAY-1
  6
CONTINUOUS
 62
     2
100
AcDbLine
 10
72.62
 20
186.57
 30
0.0
 11
78.634924
 21
186.57
 31
0.0
  0
LINE
  5
B6
100
AcDbEntity
  8
LAY-1
  6
CONTINUOUS
 62
     2
100
AcDbLine
 10
79.124632
 20
186.57
 30
0.0
 11
81.177779
 21
186.57
 31
0.0
  0
LINE
  5
B7
100
AcDbEntity
  8
LAY-1
  6
CONTINUOUS
 62
     2
100
AcDbLine
 10
84.062221
 20
186.57
 30
0.0
 11
86.115368
 21
186.57
 31
0.0
  0
LINE
  5
B8
100
AcDbEntity
  8
LAY-1
  6
CONTINUOUS
 62
     2
100
AcDbLine
 10
86.605076
 20
186.57
 30
0.0
 11
91.02
 21
186.57
 31
0.0
  0
LINE
  5
B9
100
AcDbEntity
  8
LAY-1
  6
CONTINUOUS
 62
     2
100
AcDbLine
 10
91.7
 20
186.57
 30
0.0
 11
97.06
 21
186.57
 31
0.0
  0
LINE
  5
BA
100
AcDbEntity
  8
LAY-1
  6
CONTINUOUS
 62
     2
100
AcDbLine
 10
97.66
 20
186.57
 30
0.0
 11
99.414853
 21
186.57
 31
0.0
  0
LINE
  5
BB
100
AcDbEntity
  8
LAY-1
  6
CONTINUOUS
 62
     2
100
AcDbLine
 10
101.82
 20
186.57
 30
0.0
 11
103.18
 21
186.57
 31
0.0
  0
LINE
  5
BC
100
AcDbEntity
  8
LAY-1
  6
CONTINUOUS
 62
     2
100
AcDbLine
 10
72.62
 20
186.37
 30
0.0
 11
78.521118
 21
186.37
 31
0.0
  0
LINE
  5
BD
100
AcDbEntity
  8
LAY-1
  6
CONTINUOUS
 62
     2
100
AcDbLine
 10
78.995417
 20
186.37
 30
0.0
 11
80.887949
 21
186.37
 31
0.0
  0
LINE
  5
BE
100
AcDbEntity
  8
LAY-1
  6
CONTINUOUS
 62
     2
100
AcDbLine
 10
84.352051
 20
186.37
 30
0.0
 11
86.244583
 21
186.37
 31
0.0
  0
LINE
  5
BF
100
AcDbEntity
  8
LAY-1
  6
CONTINUOUS
 62
     2
100
AcDbLine
 10
86.718882
 20
186.37
 30
0.0
 11
91.02
 21
186.37
 31
0.0
  0
LINE
  5
C0
100
AcDbEntity
  8
LAY-1
  6
CONTINUOUS
 62
     2
100
AcDbLine
 10
91.7
 20
186.37
 30
0.0
 11
97.06
 21
186.37
 31
0.0
  0
LINE
  5
C1
100
AcDbEntity
  8
LAY-1
  6
CONTINUOUS
 62
     2
100
AcDbLine
 10
97.66
 20
186.37
 30
0.0
 11
99.546471
 21
186.37
 31
0.0
  0
LINE
  5
C2
100
AcDbEntity
  8
LAY-1
  6
CONTINUOUS
 62
     2
100
AcDbLine
 10
101.82
 20
186.37
 30
0.0
 11
103.18
 21
186.37
 31
0.0
  0
LINE
  5
C3
100
AcDbEntity
  8
LAY-1
  6
CONTINUOUS
 62
     2
100
AcDbLine
 10
72.62
 20
186.17
 30
0.0
 11
78.419901
 21
186.17
 31
0.0
  0
LINE
  5
C4
100
AcDbEntity
  8
LAY-1
  6
CONTINUOUS
 62
     2
100
AcDbLine
 10
78.881337
 20
186.17
 30
0.0
 11
80.660408
 21
186.17
 31
0.0
  0
LINE
  5
C5
100
AcDbEntity
  8
LAY-1
  6
CONTINUOUS
 62
     2
100
AcDbLine
 10
81.916864
 20
186.17
 30
0.0
 11
83.323136
 21
186.17
 31
0.0
  0
LINE
  5
C6
100
AcDbEntity
  8
LAY-1
  6
CONTINUOUS
 62
     2
100
AcDbLine
 10
84.579592
 20
186.17
 30
0.0
 11
86.358663
 21
186.17
 31
0.0
  0
LINE
  5
C7
100
AcDbEntity
  8
LAY-1
  6
CONTINUOUS
 62
     2
100
AcDbLine
 10
86.820099
 20
186.17
 30
0.0
 11
91.02
 21
186.17
 31
0.0
  0
LINE
  5
C8
100
AcDbEntity
  8
LAY-1
  6
CONTINUOUS
 62
     2
100
AcDbLine
 10
91.7
 20
186.17
 30
0.0
 11
97.06
 21
186.17
 31
0.0
  0
LINE
  5
C9
100
AcDbEntity
  8
LAY-1
  6
CONTINUOUS
 62
     2
100
AcDbLine
 10
97.66
 20
186.17
 30
0.0
 11
99.678088
 21
186.17
 31
0.0
  0
LINE
  5
CA
100
AcDbEntity
  8
LAY-1
  6
CONTINUOUS
 62
     2
100
AcDbLine
 10
101.82
 20
186.17
 30
0.0
 11
103.18
 21
186.17
 31
0.0
  0
LINE
  5
CB
100
AcDbEntity
  8
LAY-1
  6
CONTINUOUS
 62
     2
100
AcDbLine
 10
72.62
 20
185.97
 30
0.0
 11
78.330381
 21
185.97
 31
0.0
  0
LINE
  5
CC
100
AcDbEntity
  8
LAY-1
  6
CONTINUOUS
 62
     2
100
AcDbLine
 10
78.781042
 20
185.97
 30
0.0
 11
80.475239
 21
185.97
 31
0.0
  0
LINE
  5
CD
100
AcDbEntity
  8
LAY-1
  6
CONTINUOUS
 62
     2
100
AcDbLine
 10
81.5
 20
185.97
 30
0.0
 11
83.74
 21
185.97
 31
0.0
  0
LINE
  5
CE
100
AcDbEntity
  8
LAY-1
  6
CONTINUOUS
 62
     2
100
AcDbLine
 10
84.764761
 20
185.97
 30
0.0
 11
86.458958
 21
185.97
 31
0.0
  0
LINE
  5
CF
100
AcDbEntity
  8
LAY-1
  6
CONTINUOUS
 62
     2
100
AcDbLine
 10
86.909619
 20
185.97
 30
0.0
 11
91.02
 21
185.97
 31
0.0
  0
LINE
  5
D0
100
AcDbEntity
  8
LAY-1
  6
CONTINUOUS
 62
     2
100
AcDbLine
 10
91.7
 20
185.97
 30
0.0
 11
97.06
 21
185.97
 31
0.0
  0
LINE
  5
D1
100
AcDbEntity
  8
LAY-1
  6
CONTINUOUS
 62
     2
100
AcDbLine
 10
97.66
 20
185.97
 30
0.0
 11
99.809706
 21
185.97
 31
0.0
  0
LINE
  5
D2
100
AcDbEntity
  8
LAY-1
  6
CONTINUOUS
 62
     2
100
AcDbLine
 10
101.82
 20
185.97
 30
0.0
 11
103.18
 21
185.97
 31
0.0
  0
LINE
  5
D3
100
AcDbEntity
  8
LAY-1
  6
CONTINUOUS
 62
     2
100
AcDbLine
 10
75.42
 20
185.77
 30
0.0
 11
76.82
 21
185.77
 31
0.0
  0
LINE
  5
D4
100
AcDbEntity
  8
LAY-1
  6
CONTINUOUS
 62
     2
100
AcDbLine
 10
78.693475
 20
185.77
 30
0.0
 11
80.322175
 21
185.77
 31
0.0
  0
LINE
  5
D5
100
AcDbEntity
  8
LAY-1
  6
CONTINUOUS
 62
     2
100
AcDbLine
 10
81.229173
 20
185.77
 30
0.0
 11
84.010827
 21
185.77
 31
0.0
  0
LINE
  5
D6
100
AcDbEntity
  8
LAY-1
  6
CONTINUOUS
 62
     2
100
AcDbLine
 10
84.917825
 20
185.77
 30
0.0
 11
86.546525
 21
185.77
 31
0.0
  0
LINE
  5
D7
100
AcDbEntity
  8
LAY-1
  6
CONTINUOUS
 62
     2
100
AcDbLine
 10
89.477216
 20
185.77
 30
0.0
 11
91.02
 21
185.77
 31
0.0
  0
LINE
  5
D8
100
AcDbEntity
  8
LAY-1
  6
CONTINUOUS
 62
     2
100
AcDbLine
 10
91.7
 20
185.77
 30
0.0
 11
93.1
 21
185.77
 31
0.0
  0
LINE
  5
D9
100
AcDbEntity
  8
LAY-1
  6
CONTINUOUS
 62
     2
100
AcDbLine
 10
97.66
 20
185.77
 30
0.0
 11
99.941324
 21
185.77
 31
0.0
  0
LINE
  5
DA
100
AcDbEntity
  8
LAY-1
  6
CONTINUOUS
 62
     2
100
AcDbLine
 10
101.82
 20
185.77
 30
0.0
 11
103.18
 21
185.77
 31
0.0
  0
LINE
  5
DB
100
AcDbEntity
  8
LAY-1
  6
CONTINUOUS
 62
     2
100
AcDbLine
 10
75.42
 20
185.57
 30
0.0
 11
76.82
 21
185.57
 31
0.0
  0
LINE
  5
DC
100
AcDbEntity
  8
LAY-1
  6
CONTINUOUS
 62
     2
100
AcDbLine
 10
78.617801
 20
185.57
 30
0.0
 11
80.195129
 21
185.57
 31
0.0
  0
LINE
  5
DD
100
AcDbEntity
  8
LAY-1
  6
CONTINUOUS
 62
     2
100
AcDbLine
 10
81.02802
 20
185.57
 30
0.0
 11
84.21198
 21
185.57
 31
0.0
  0
LINE
  5
DE
100
AcDbEntity
  8
LAY-1
  6
CONTINUOUS
 62
     2
100
AcDbLine
 10
85.044871
 20
185.57
 30
0.0
 11
86.622199
 21
185.57
 31
0.0
  0
LINE
  5
DF
100
AcDbEntity
  8
LAY-1
  6
CONTINUOUS
 62
     2
100
AcDbLine
 10
89.296916
 20
185.57
 30
0.0
 11
90.8397
 21
185.57
 31
0.0
  0
LINE
  5
E0
100
AcDbEntity
  8
LAY-1
  6
CONTINUOUS
 62
     2
100
AcDbLine
 10
91.7
 20
185.57
 30
0.0
 11
93.1
 21
185.57
 31
0.0
  0
LINE
  5
E1
100
AcDbEntity
  8
LAY-1
  6
CONTINUOUS
 62
     2
100
AcDbLine
 10
97.66
 20
185.57
 30
0.0
 11
100.072941
 21
185.57
 31
0.0
  0
LINE
  5
E2
100
AcDbEntity
  8
LAY-1
  6
CONTINUOUS
 62
     2
100
AcDbLine
 10
101.82
 20
185.57
 30
0.0
 11
103.18
 21
185.57
 31
0.0
  0
LINE
  5
E3
100
AcDbEntity
  8
LAY-1
  6
CONTINUOUS
 62
     2
100
AcDbLine
 10
75.42
 20
185.37
 30
0.0
 11
76.82
 21
185.37
 31
0.0
  0
LINE
  5
E4
100
AcDbEntity
  8
LAY-1
  6
CONTINUOUS
 62
     2
100
AcDbLine
 10
78.553355
 20
185.37
 30
0.0
 11
80.090178
 21
185.37
 31
0.0
  0
LINE
  5
E5
100
AcDbEntity
  8
LAY-1
  6
CONTINUOUS
 62
     2
100
AcDbLine
 10
80.872316
 20
185.37
 30
0.0
 11
84.367684
 21
185.37
 31
0.0
  0
LINE
  5
E6
100
AcDbEntity
  8
LAY-1
  6
CONTINUOUS
 62
     2
100
AcDbLine
 10
85.149822
 20
185.37
 30
0.0
 11
86.686645
 21
185.37
 31
0.0
  0
LINE
  5
E7
100
AcDbEntity
  8
LAY-1
  6
CONTINUOUS
 62
     2
100
AcDbLine
 10
89.116617
 20
185.37
 30
0.0
 11
90.6594
 21
185.37
 31
0.0
  0
LINE
  5
E8
100
AcDbEntity
  8
LAY-1
  6
CONTINUOUS
 62
     2
100
AcDbLine
 10
91.7
 20
185.37
 30
0.0
 11
93.1
 21
185.37
 31
0.0
  0
LINE
  5
E9
100
AcDbEntity
  8
LAY-1
  6
CONTINUOUS
 62
     2
100
AcDbLine
 10
97.66
 20
185.37
 30
0.0
 11
99.02
 21
185.37
 31
0.0
  0
LINE
  5
EA
100
AcDbEntity
  8
LAY-1
  6
CONTINUOUS
 62
     2
100
AcDbLine
 10
99.056029
 20
185.37
 30
0.0
 11
100.204559
 21
185.37
 31
0.0
  0
LINE
  5
EB
100
AcDbEntity
  8
LAY-1
  6
CONTINUOUS
 62
     2
100
AcDbLine
 10
101.82
 20
185.37
 30
0.0
 11
103.18
 21
185.37
 31
0.0
  0
LINE
  5
EC
100
AcDbEntity
  8
LAY-1
  6
CONTINUOUS
 62
     2
100
AcDbLine
 10
75.42
 20
185.17
 30
0.0
 11
76.82
 21
185.17
 31
0.0
  0
LINE
  5
ED
100
AcDbEntity
  8
LAY-1
  6
CONTINUOUS
 62
     2
100
AcDbLine
 10
78.499612
 20
185.17
 30
0.0
 11
80.004661
 21
185.17
 31
0.0
  0
LINE
  5
EE
100
AcDbEntity
  8
LAY-1
  6
CONTINUOUS
 62
     2
100
AcDbLine
 10
80.750669
 20
185.17
 30
0.0
 11
84.489331
 21
185.17
 31
0.0
  0
LINE
  5
EF
100
AcDbEntity
  8
LAY-1
  6
CONTINUOUS
 62
     2
100
AcDbLine
 10
85.235339
 20
185.17
 30
0.0
 11
86.740388
 21
185.17
 31
0.0
  0
LINE
  5
F0
100
AcDbEntity
  8
LAY-1
  6
CONTINUOUS
 62
     2
100
AcDbLine
 10
88.936317
 20
185.17
 30
0.0
 11
90.479101
 21
185.17
 31
0.0
  0
LINE
  5
F1
100
AcDbEntity
  8
LAY-1
  6
CONTINUOUS
 62
     2
100
AcDbLine
 10
91.7
 20
185.17
 30
0.0
 11
93.1
 21
185.17
 31
0.0
  0
LINE
  5
F2
100
AcDbEntity
  8
LAY-1
  6
CONTINUOUS
 62
     2
100
AcDbLine
 10
97.66
 20
185.17
 30
0.0
 11
99.02
 21
185.17
 31
0.0
  0
LINE
  5
F3
100
AcDbEntity
  8
LAY-1
  6
CONTINUOUS
 62
     2
100
AcDbLine
 10
99.187647
 20
185.17
 30
0.0
 11
100.336176
 21
185.17
 31
0.0
  0
LINE
  5
F4
100
AcDbEntity
  8
LAY-1
  6
CONTINUOUS
 62
     2
100
AcDbLine
 10
101.82
 20
185.17
 30
0.0
 11
103.18
 21
185.17
 31
0.0
  0
LINE
  5
F5
100
AcDbEntity
  8
LAY-1
  6
CONTINUOUS
 62
     2
100
AcDbLine
 10
75.42
 20
184.97
 30
0.0
 11
76.82
 21
184.97
 31
0.0
  0
LINE
  5
F6
100
AcDbEntity
  8
LAY-1
  6
CONTINUOUS
 62
     2
100
AcDbLine
 10
78.456156
 20
184.97
 30
0.0
 11
79.936718
 21
184.97
 31
0.0
  0
LINE
  5
F7
100
AcDbEntity
  8
LAY-1
  6
CONTINUOUS
 62
     2
100
AcDbLine
 10
80.656737
 20
184.97
 30
0.0
 11
84.583263
 21
184.97
 31
0.0
  0
LINE
  5
F8
100
AcDbEntity
  8
LAY-1
  6
CONTINUOUS
 62
     2
100
AcDbLine
 10
85.303282
 20
184.97
 30
0.0
 11
86.783844
 21
184.97
 31
0.0
  0
LINE
  5
F9
100
AcDbEntity
  8
LAY-1
  6
CONTINUOUS
 62
     2
100
AcDbLine
 10
88.756017
 20
184.97
 30
0.0
 11
90.298801
 21
184.97
 31
0.0
  0
LINE
  5
FA
100
AcDbEntity
  8
LAY-1
  6
CONTINUOUS
 62
     2
100
AcDbLine
 10
91.7
 20
184.97
 30
0.0
 11
93.1
 21
184.97
 31
0.0
  0
LINE
  5
FB
100
AcDbEntity
  8
LAY-1
  6
CONTINUOUS
 62
     2
100
AcDbLine
 10
97.66
 20
184.97
 30
0.0
 11
99.02
 21
184.97
 31
0.0
  0
LINE
  5
FC
100
AcDbEntity
  8
LAY-1
  6
CONTINUOUS
 62
     2
100
AcDbLine
 10
99.319265
 20
184.97
 30
0.0
 11
100.467794
 21
184.97
 31
0.0
  0
LINE
  5
FD
100
AcDbEntity
  8
LAY-1
  6
CONTINUOUS
 62
     2
100
AcDbLine
 10
101.82
 20
184.97
 30
0.0
 11
103.18
 21
184.97
 31
0.0
  0
LINE
  5
FE
100
AcDbEntity
  8
LAY-1
  6
CONTINUOUS
 62
     2
100
AcDbLine
 10
75.42
 20
184.77
 30
0.0
 11
76.82
 21
184.77
 31
0.0
  0
LINE
  5
FF
100
AcDbEntity
  8
LAY-1
  6
CONTINUOUS
 62
     2
100
AcDbLine
 10
78.422668
 20
184.77
 30
0.0
 11
79.885041
 21
184.77
 31
0.0
  0
LINE
  5
100
100
AcDbEntity
  8
LAY-1
  6
CONTINUOUS
 62
     2
100
AcDbLine
 10
80.586678
 20
184.77
 30
0.0
 11
84.653322
 21
184.77
 31
0.0
  0
LINE
  5
101
100
AcDbEntity
  8
LAY-1
  6
CONTINUOUS
 62
     2
100
AcDbLine
 10
85.354959
 20
184.77
 30
0.0
 11
86.817332
 21
184.77
 31
0.0
  0
LINE
  5
102
100
AcDbEntity
  8
LAY-1
  6
CONTINUOUS
 62
     2
100
AcDbLine
 10
88.575717
 20
184.77
 30
0.0
 11
90.118501
 21
184.77
 31
0.0
  0
LINE
  5
103
100
AcDbEntity
  8
LAY-1
  6
CONTINUOUS
 62
     2
100
AcDbLine
 10
91.7
 20
184.77
 30
0.0
 11
97.06
 21
184.77
 31
0.0
  0
LINE
  5
104
100
AcDbEntity
  8
LAY-1
  6
CONTINUOUS
 62
     2
100
AcDbLine
 10
97.66
 20
184.77
 30
0.0
 11
99.02
 21
184.77
 31
0.0
  0
LINE
  5
105
100
AcDbEntity
  8
LAY-1
  6
CONTINUOUS
 62
     2
100
AcDbLine
 10
99.450882
 20
184.77
 30
0.0
 11
100.599412
 21
184.77
 31
0.0
  0
LINE
  5
106
100
AcDbEntity
  8
LAY-1
  6
CONTINUOUS
 62
     2
100
AcDbLine
 10
101.82
 20
184.77
 30
0.0
 11
103.18
 21
184.77
 31
0.0
  0
LINE
  5
107
100
AcDbEntity
  8
LAY-1
  6
CONTINUOUS
 62
     2
100
AcDbLine
 10
75.42
 20
184.57
 30
0.0
 11
76.82
 21
184.57
 31
0.0
  0
LINE
  5
108
100
AcDbEntity
  8
LAY-1
  6
CONTINUOUS
 62
     2
100
AcDbLine
 10
78.39891
 20
184.57
 30
0.0
 11
79.848719
 21
184.57
 31
0.0
  0
LINE
  5
109
100
AcDbEntity
  8
LAY-1
  6
CONTINUOUS
 62
     2
100
AcDbLine
 10
80.538078
 20
184.57
 30
0.0
 11
84.701922
 21
184.57
 31
0.0
  0
LINE
  5
10A
100
AcDbEntity
  8
LAY-1
  6
CONTINUOUS
 62
     2
100
AcDbLine
 10
85.391281
 20
184.57
 30
0.0
 11
86.84109
 21
184.57
 31
0.0
  0
LINE
  5
10B
100
AcDbEntity
  8
LAY-1
  6
CONTINUOUS
 62
     2
100
AcDbLine
 10
88.395418
 20
184.57
 30
0.0
 11
89.938201
 21
184.57
 31
0.0
  0
LINE
  5
10C
100
AcDbEntity
  8
LAY-1
  6
CONTINUOUS
 62
     2
100
AcDbLine
 10
91.7
 20
184.57
 30
0.0
 11
97.06
 21
184.57
 31
0.0
  0
LINE
  5
10D
100
AcDbEntity
  8
LAY-1
  6
CONTINUOUS
 62
     2
100
AcDbLine
 10
97.66
 20
184.57
 30
0.0
 11
99.02
 21
184.57
 31
0.0
  0
LINE
  5
10E
100
AcDbEntity
  8
LAY-1
  6
CONTINUOUS
 62
     2
100
AcDbLine
 10
99.5825
 20
184.57
 30
0.0
 11
100.731029
 21
184.57
 31
0.0
  0
LINE
  5
10F
100
AcDbEntity
  8
LAY-1
  6
CONTINUOUS
 62
     2
100
AcDbLine
 10
101.82
 20
184.57
 30
0.0
 11
103.18
 21
184.57
 31
0.0
  0
LINE
  5
110
100
AcDbEntity
  8
LAY-1
  6
CONTINUOUS
 62
     2
100
AcDbLine
 10
75.42
 20
184.37
 30
0.0
 11
76.82
 21
184.37
 31
0.0
  0
LINE
  5
111
100
AcDbEntity
  8
LAY-1
  6
CONTINUOUS
 62
     2
100
AcDbLine
 10
78.38472
 20
184.37
 30
0.0
 11
79.827152
 21
184.37
 31
0.0
  0
LINE
  5
112
100
AcDbEntity
  8
LAY-1
  6
CONTINUOUS
 62
     2
100
AcDbLine
 10
80.509455
 20
184.37
 30
0.0
 11
84.730545
 21
184.37
 31
0.0
  0
LINE
  5
113
100
AcDbEntity
  8
LAY-1
  6
CONTINUOUS
 62
     2
100
AcDbLine
 10
85.412848
 20
184.37
 30
0.0
 11
86.85528
 21
184.37
 31
0.0
  0
LINE
  5
114
100
AcDbEntity
  8
LAY-1
  6
CONTINUOUS
 62
     2
100
AcDbLine
 10
88.215118
 20
184.37
 30
0.0
 11
89.757901
 21
184.37
 31
0.0
  0
LINE
  5
115
100
AcDbEntity
  8
LAY-1
  6
CONTINUOUS
 62
     2
100
AcDbLine
 10
91.7
 20
184.37
 30
0.0
 11
97.06
 21
184.37
 31
0.0
  0
LINE
  5
116
100
AcDbEntity
  8
LAY-1
  6
CONTINUOUS
 62
     2
100
AcDbLine
 10
97.66
 20
184.37
 30
0.0
 11
99.02
 21
184.37
 31
0.0
  0
LINE
  5
117
100
AcDbEntity
  8
LAY-1
  6
CONTINUOUS
 62
     2
100
AcDbLine
 10
99.714118
 20
184.37
 30
0.0
 11
100.862647
 21
184.37
 31
0.0
  0
LINE
  5
118
100
AcDbEntity
  8
LAY-1
  6
CONTINUOUS
 62
     2
100
AcDbLine
 10
101.82
 20
184.37
 30
0.0
 11
103.18
 21
184.37
 31
0.0
  0
LINE
  5
119
100
AcDbEntity
  8
LAY-1
  6
CONTINUOUS
 62
     2
100
AcDbLine
 10
75.42
 20
184.17
 30
0.0
 11
76.82
 21
184.17
 31
0.0
  0
LINE
  5
11A
100
AcDbEntity
  8
LAY-1
  6
CONTINUOUS
 62
     2
100
AcDbLine
 10
78.38
 20
184.17
 30
0.0
 11
79.82
 21
184.17
 31
0.0
  0
LINE
  5
11B
100
AcDbEntity
  8
LAY-1
  6
CONTINUOUS
 62
     2
100
AcDbLine
 10
80.5
 20
184.17
 30
0.0
 11
84.74
 21
184.17
 31
0.0
  0
LINE
  5
11C
100
AcDbEntity
  8
LAY-1
  6
CONTINUOUS
 62
     2
100
AcDbLine
 10
85.42
 20
184.17
 30
0.0
 11
86.86
 21
184.17
 31
0.0
  0
LINE
  5
11D
100
AcDbEntity
  8
LAY-1
  6
CONTINUOUS
 62
     2
100
AcDbLine
 10
88.034818
 20
184.17
 30
0.0
 11
89.577602
 21
184.17
 31
0.0
  0
LINE
  5
11E
100
AcDbEntity
  8
LAY-1
  6
CONTINUOUS
 62
     2
100
AcDbLine
 10
91.7
 20
184.17
 30
0.0
 11
97.06
 21
184.17
 31
0.0
  0
LINE
  5
11F
100
AcDbEntity
  8
LAY-1
  6
CONTINUOUS
 62
     2
100
AcDbLine
 10
97.66
 20
184.17
 30
0.0
 11
99.02
 21
184.17
 31
0.0
  0
LINE
  5
120
100
AcDbEntity
  8
LAY-1
  6
CONTINUOUS
 62
     2
100
AcDbLine
 10
99.845735
 20
184.17
 30
0.0
 11
100.994265
 21
184.17
 31
0.0
  0
LINE
  5
121
100
AcDbEntity
  8
LAY-1
  6
CONTINUOUS
 62
     2
100
AcDbLine
 10
101.82
 20
184.17
 30
0.0
 11
103.18
 21
184.17
 31
0.0
  0
LINE
  5
122
100
AcDbEntity
  8
LAY-1
  6
CONTINUOUS
 62
     2
100
AcDbLine
 10
75.42
 20
183.97
 30
0.0
 11
76.82
 21
183.97
 31
0.0
  0
LINE
  5
123
100
AcDbEntity
  8
LAY-1
  6
CONTINUOUS
 62
     2
100
AcDbLine
 10
78.38472
 20
183.97
 30
0.0
 11
79.827152
 21
183.97
 31
0.0
  0
LINE
  5
124
100
AcDbEntity
  8
LAY-1
  6
CONTINUOUS
 62
     2
100
AcDbLine
 10
80.509455
 20
183.97
 30
0.0
 11
84.730545
 21
183.97
 31
0.0
  0
LINE
  5
125
100
AcDbEntity
  8
LAY-1
  6
CONTINUOUS
 62
     2
100
AcDbLine
 10
85.412848
 20
183.97
 30
0.0
 11
86.85528
 21
183.97
 31
0.0
  0
LINE
  5
126
100
AcDbEntity
  8
LAY-1
  6
CONTINUOUS
 62
     2
100
AcDbLine
 10
87.854518
 20
183.97
 30
0.0
 11
89.397302
 21
183.97
 31
0.0
  0
LINE
  5
127
100
AcDbEntity
  8
LAY-1
  6
CONTINUOUS
 62
     2
100
AcDbLine
 10
91.7
 20
183.97
 30
0.0
 11
97.06
 21
183.97
 31
0.0
  0
LINE
  5
128
100
AcDbEntity
  8
LAY-1
  6
CONTINUOUS
 62
     2
100
AcDbLine
 10
97.66
 20
183.97
 30
0.0
 11
99.02
 21
183.97
 31
0.0
  0
LINE
  5
129
100
AcDbEntity
  8
LAY-1
  6
CONTINUOUS
 62
     2
100
AcDbLine
 10
99.977353
 20
183.97
 30
0.0
 11
101.125882
 21
183.97
 31
0.0
  0
LINE
  5
12A
100
AcDbEntity
  8
LAY-1
  6
CONTINUOUS
 62
     2
100
AcDbLine
 10
101.82
 20
183.97
 30
0.0
 11
103.18
 21
183.97
 31
0.0
  0
LINE
  5
12B
100
AcDbEntity
  8
LAY-1
  6
CONTINUOUS
 62
     2
100
AcDbLine
 10
75.42
 20
183.77
 30
0.0
 11
76.82
 21
183.77
 31
0.0
  0
LINE
  5
12C
100
AcDbEntity
  8
LAY-1
  6
CONTINUOUS
 62
     2
100
AcDbLine
 10
78.39891
 20
183.77
 30
0.0
 11
79.848719
 21
183.77
 31
0.0
  0
LINE
  5
12D
100
AcDbEntity
  8
LAY-1
  6
CONTINUOUS
 62
     2
100
AcDbLine
 10
80.538078
 20
183.77
 30
0.0
 11
84.701922
 21
183.77
 31
0.0
  0
LINE
  5
12E
100
AcDbEntity
  8
LAY-1
  6
CONTINUOUS
 62
     2
100
AcDbLine
 10
85.391281
 20
183.77
 30
0.0
 11
86.84109
 21
183.77
 31
0.0
  0
LINE
  5
12F
100
AcDbEntity
  8
LAY-1
  6
CONTINUOUS
 62
     2
100
AcDbLine
 10
87.674218
 20
183.77
 30
0.0
 11
89.217002
 21
183.77
 31
0.0
  0
LINE
  5
130
100
AcDbEntity
  8
LAY-1
  6
CONTINUOUS
 62
     2
100
AcDbLine
 10
91.7
 20
183.77
 30
0.0
 11
97.06
 21
183.77
 31
0.0
  0
LINE
  5
131
100
AcDbEntity
  8
LAY-1
  6
CONTINUOUS
 62
     2
100
AcDbLine
 10
97.66
 20
183.77
 30
0.0
 11
99.02
 21
183.77
 31
0.0
  0
LINE
  5
132
100
AcDbEntity
  8
LAY-1
  6
CONTINUOUS
 62
     2
100
AcDbLine
 10
100.108971
 20
183.77
 30
0.0
 11
101.2575
 21
183.77
 31
0.0
  0
LINE
  5
133
100
AcDbEntity
  8
LAY-1
  6
CONTINUOUS
 62
     2
100
AcDbLine
 10
101.82
 20
183.77
 30
0.0
 11
103.18
 21
183.77
 31
0.0
  0
LINE
  5
134
100
AcDbEntity
  8
LAY-1
  6
CONTINUOUS
 62
     2
100
AcDbLine
 10
75.42
 20
183.57
 30
0.0
 11
76.82
 21
183.57
 31
0.0
  0
LINE
  5
135
100
AcDbEntity
  8
LAY-1
  6
CONTINUOUS
 62
     2
100
AcDbLine
 10
78.422668
 20
183.57
 30
0.0
 11
79.885041
 21
183.57
 31
0.0
  0
LINE
  5
136
100
AcDbEntity
  8
LAY-1
  6
CONTINUOUS
 62
     2
100
AcDbLine
 10
80.586678
 20
183.57
 30
0.0
 11
84.653322
 21
183.57
 31
0.0
  0
LINE
  5
137
100
AcDbEntity
  8
LAY-1
  6
CONTINUOUS
 62
     2
100
AcDbLine
 10
85.354959
 20
183.57
 30
0.0
 11
86.817332
 21
183.57
 31
0.0
  0
LINE
  5
138
100
AcDbEntity
  8
LAY-1
  6
CONTINUOUS
 62
     2
100
AcDbLine
 10
87.493919
 20
183.57
 30
0.0
 11
89.036702
 21
183.57
 31
0.0
  0
LINE
  5
139
100
AcDbEntity
  8
LAY-1
  6
CONTINUOUS
 62
     2
100
AcDbLine
 10
91.7
 20
183.57
 30
0.0
 11
93.1
 21
183.57
 31
0.0
  0
LINE
  5
13A
100
AcDbEntity
  8
LAY-1
  6
CONTINUOUS
 62
     2
100
AcDbLine
 10
97.66
 20
183.57
 30
0.0
 11
99.02
 21
183.57
 31
0.0
  0
LINE
  5
13B
100
AcDbEntity
  8
LAY-1
  6
CONTINUOUS
 62
     2
100
AcDbLine
 10
100.240588
 20
183.57
 30
0.0
 11
101.389118
 21
183.57
 31
0.0
  0
LINE
  5
13C
100
AcDbEntity
  8
LAY-1
  6
CONTINUOUS
 62
     2
100
AcDbLine
 10
101.82
 20
183.57
 30
0.0
 11
103.18
 21
183.57
 31
0.0
  0
LINE
  5
13D
100
AcDbEntity
  8
LAY-1
  6
CONTINUOUS
 62
     2
100
AcDbLine
 10
75.42
 20
183.37
 30
0.0
 11
76.82
 21
183.37
 31
0.0
  0
LINE
  5
13E
100
AcDbEntity
  8
LAY-1
  6
CONTINUOUS
 62
     2
100
AcDbLine
 10
78.456156
 20
183.37
 30
0.0
 11
79.936718
 21
183.37
 31
0.0
  0
LINE
  5
13F
100
AcDbEntity
  8
LAY-1
  6
CONTINUOUS
 62
     2
100
AcDbLine
 10
80.656737
 20
183.37
 30
0.0
 11
84.583263
 21
183.37
 31
0.0
  0
LINE
  5
140
100
AcDbEntity
  8
LAY-1
  6
CONTINUOUS
 62
     2
100
AcDbLine
 10
85.303282
 20
183.37
 30
0.0
 11
86.783844
 21
183.37
 31
0.0
  0
LINE
  5
141
100
AcDbEntity
  8
LAY-1
  6
CONTINUOUS
 62
     2
100
AcDbLine
 10
87.313619
 20
183.37
 30
0.0
 11
88.856403
 21
183.37
 31
0.0
  0
LINE
  5
142
100
AcDbEntity
  8
LAY-1
  6
CONTINUOUS
 62
     2
100
AcDbLine
 10
91.7
 20
183.37
 30
0.0
 11
93.1
 21
183.37
 31
0.0
  0
LINE
  5
143
100
AcDbEntity
  8
LAY-1
  6
CONTINUOUS
 62
     2
100
AcDbLine
 10
97.66
 20
183.37
 30
0.0
 11
99.02
 21
183.37
 31
0.0
  0
LINE
  5
144
100
AcDbEntity
  8
LAY-1
  6
CONTINUOUS
 62
     2
100
AcDbLine
 10
100.372206
 20
183.37
 30
0.0
 11
101.520735
 21
183.37
 31
0.0
  0
LINE
  5
145
100
AcDbEntity
  8
LAY-1
  6
CONTINUOUS
 62
     2
100
AcDbLine
 10
101.82
 20
183.37
 30
0.0
 11
103.18
 21
183.37
 31
0.0
  0
LINE
  5
146
100
AcDbEntity
  8
LAY-1
  6
CONTINUOUS
 62
     2
100
AcDbLine
 10
75.42
 20
183.17
 30
0.0
 11
76.82
 21
183.17
 31
0.0
  0
LINE
  5
147
100
AcDbEntity
  8
LAY-1
  6
CONTINUOUS
 62
     2
100
AcDbLine
 10
78.499612
 20
183.17
 30
0.0
 11
80.004661
 21
183.17
 31
0.0
  0
LINE
  5
148
100
AcDbEntity
  8
LAY-1
  6
CONTINUOUS
 62
     2
100
AcDbLine
 10
80.750669
 20
183.17
 30
0.0
 11
84.489331
 21
183.17
 31
0.0
  0
LINE
  5
149
100
AcDbEntity
  8
LAY-1
  6
CONTINUOUS
 62
     2
100
AcDbLine
 10
85.235339
 20
183.17
 30
0.0
 11
86.740388
 21
183.17
 31
0.0
  0
LINE
  5
14A
100
AcDbEntity
  8
LAY-1
  6
CONTINUOUS
 62
     2
100
AcDbLine
 10
87.163218
 20
183.17
 30
0.0
 11
88.676103
 21
183.17
 31
0.0
  0
LINE
  5
14B
100
AcDbEntity
  8
LAY-1
  6
CONTINUOUS
 62
     2
100
AcDbLine
 10
91.7
 20
183.17
 30
0.0
 11
93.1
 21
183.17
 31
0.0
  0
LINE
  5
14C
100
AcDbEntity
  8
LAY-1
  6
CONTINUOUS
 62
     2
100
AcDbLine
 10
97.66
 20
183.17
 30
0.0
 11
99.02
 21
183.17
 31
0.0
  0
LINE
  5
14D
100
AcDbEntity
  8
LAY-1
  6
CONTINUOUS
 62
     2
100
AcDbLine
 10
100.503824
 20
183.17
 30
0.0
 11
101.652353
 21
183.17
 31
0.0
  0
LINE
  5
14E
100
AcDbEntity
  8
LAY-1
  6
CONTINUOUS
 62
     2
100
AcDbLine
 10
101.82
 20
183.17
 30
0.0
 11
103.18
 21
183.17
 31
0.0
  0
LINE
  5
14F
100
AcDbEntity
  8
LAY-1
  6
CONTINUOUS
 62
     2
100
AcDbLine
 10
75.42
 20
182.97
 30
0.0
 11
76.82
 21
182.97
 31
0.0
  0
LINE
  5
150
100
AcDbEntity
  8
LAY-1
  6
CONTINUOUS
 62
     2
100
AcDbLine
 10
78.553355
 20
182.97
 30
0.0
 11
80.090178
 21
182.97
 31
0.0
  0
LINE
  5
151
100
AcDbEntity
  8
LAY-1
  6
CONTINUOUS
 62
     2
100
AcDbLine
 10
80.872316
 20
182.97
 30
0.0
 11
84.367684
 21
182.97
 31
0.0
  0
LINE
  5
152
100
AcDbEntity
  8
LAY-1
  6
CONTINUOUS
 62
     2
100
AcDbLine
 10
85.149822
 20
182.97
 30
0.0
 11
86.686645
 21
182.97
 31
0.0
  0
LINE
  5
153
100
AcDbEntity
  8
LAY-1
  6
CONTINUOUS
 62
     2
100
AcDbLine
 10
87.114534
 20
182.97
 30
0.0
 11
88.495803
 21
182.97
 31
0.0
  0
LINE
  5
154
100
AcDbEntity
  8
LAY-1
  6
CONTINUOUS
 62
     2
100
AcDbLine
 10
91.7
 20
182.97
 30
0.0
 11
93.1
 21
182.97
 31
0.0
  0
LINE
  5
155
100
AcDbEntity
  8
LAY-1
  6
CONTINUOUS
 62
     2
100
AcDbLine
 10
97.66
 20
182.97
 30
0.0
 11
99.02
 21
182.97
 31
0.0
  0
LINE
  5
156
100
AcDbEntity
  8
LAY-1
  6
CONTINUOUS
 62
     2
100
AcDbLine
 10
100.635441
 20
182.97
 30
0.0
 11
101.783971
 21
182.97
 31
0.0
  0
LINE
  5
157
100
AcDbEntity
  8
LAY-1
  6
CONTINUOUS
 62
     2
100
AcDbLine
 10
101.82
 20
182.97
 30
0.0
 11
103.18
 21
182.97
 31
0.0
  0
LINE
  5
158
100
AcDbEntity
  8
LAY-1
  6
CONTINUOUS
 62
     2
100
AcDbLine
 10
75.42
 20
182.77
 30
0.0
 11
76.82
 21
182.77
 31
0.0
  0
LINE
  5
159
100
AcDbEntity
  8
LAY-1
  6
CONTINUOUS
 62
     2
100
AcDbLine
 10
78.617801
 20
182.77
 30
0.0
 11
80.195129
 21
182.77
 31
0.0
  0
LINE
  5
15A
100
AcDbEntity
  8
LAY-1
  6
CONTINUOUS
 62
     2
100
AcDbLine
 10
81.02802
 20
182.77
 30
0.0
 11
84.21198
 21
182.77
 31
0.0
  0
LINE
  5
15B
100
AcDbEntity
  8
LAY-1
  6
CONTINUOUS
 62
     2
100
AcDbLine
 10
85.044871
 20
182.77
 30
0.0
 11
86.622199
 21
182.77
 31
0.0
  0
LINE
  5
15C
100
AcDbEntity
  8
LAY-1
  6
CONTINUOUS
 62
     2
100
AcDbLine
 10
87.056308
 20
182.77
 30
0.0
 11
88.315503
 21
182.77
 31
0.0
  0
LINE
  5
15D
100
AcDbEntity
  8
LAY-1
  6
CONTINUOUS
 62
     2
100
AcDbLine
 10
91.7
 20
182.77
 30
0.0
 11
93.1
 21
182.77
 31
0.0
  0
LINE
  5
15E
100
AcDbEntity
  8
LAY-1
  6
CONTINUOUS
 62
     2
100
AcDbLine
 10
97.66
 20
182.77
 30
0.0
 11
99.02
 21
182.77
 31
0.0
  0
LINE
  5
15F
100
AcDbEntity
  8
LAY-1
  6
CONTINUOUS
 62
     2
100
AcDbLine
 10
100.767059
 20
182.77
 30
0.0
 11
103.18
 21
182.77
 31
0.0
  0
LINE
  5
160
100
AcDbEntity
  8
LAY-1
  6
CONTINUOUS
 62
     2
100
AcDbLine
 10
75.42
 20
182.57
 30
0.0
 11
76.82
 21
182.57
 31
0.0
  0
LINE
  5
161
100
AcDbEntity
  8
LAY-1
  6
CONTINUOUS
 62
     2
100
AcDbLine
 10
78.693475
 20
182.57
 30
0.0
 11
80.322175
 21
182.57
 31
0.0
  0
LINE
  5
162
100
AcDbEntity
  8
LAY-1
  6
CONTINUOUS
 62
     2
100
AcDbLine
 10
81.229173
 20
182.57
 30
0.0
 11
84.010827
 21
182.57
 31
0.0
  0
LINE
  5
163
100
AcDbEntity
  8
LAY-1
  6
CONTINUOUS
 62
     2
100
AcDbLine
 10
84.917825
 20
182.57
 30
0.0
 11
86.546525
 21
182.57
 31
0.0
  0
LINE
  5
164
100
AcDbEntity
  8
LAY-1
  6
CONTINUOUS
 62
     2
100
AcDbLine
 10
86.988161
 20
182.57
 30
0.0
 11
91.02
 21
182.57
 31
0.0
  0
LINE
  5
165
100
AcDbEntity
  8
LAY-1
  6
CONTINUOUS
 62
     2
100
AcDbLine
 10
91.7
 20
182.57
 30
0.0
 11
97.06
 21
182.57
 31
0.0
  0
LINE
  5
166
100
AcDbEntity
  8
LAY-1
  6
CONTINUOUS
 62
     2
100
AcDbLine
 10
97.66
 20
182.57
 30
0.0
 11
99.02
 21
182.57
 31
0.0
  0
LINE
  5
167
100
AcDbEntity
  8
LAY-1
  6
CONTINUOUS
 62
     2
100
AcDbLine
 10
100.898676
 20
182.57
 30
0.0
 11
103.18
 21
182.57
 31
0.0
  0
LINE
  5
168
100
AcDbEntity
  8
LAY-1
  6
CONTINUOUS
 62
     2
100
AcDbLine
 10
75.42
 20
182.37
 30
0.0
 11
76.82
 21
182.37
 31
0.0
  0
LINE
  5
169
100
AcDbEntity
  8
LAY-1
  6
CONTINUOUS
 62
     2
100
AcDbLine
 10
78.781042
 20
182.37
 30
0.0
 11
80.475239
 21
182.37
 31
0.0
  0
LINE
  5
16A
100
AcDbEntity
  8
LAY-1
  6
CONTINUOUS
 62
     2
100
AcDbLine
 10
81.5
 20
182.37
 30
0.0
 11
83.74
 21
182.37
 31
0.0
  0
LINE
  5
16B
100
AcDbEntity
  8
LAY-1
  6
CONTINUOUS
 62
     2
100
AcDbLine
 10
84.764761
 20
182.37
 30
0.0
 11
86.458958
 21
182.37
 31
0.0
  0
LINE
  5
16C
100
AcDbEntity
  8
LAY-1
  6
CONTINUOUS
 62
     2
100
AcDbLine
 10
86.909619
 20
182.37
 30
0.0
 11
91.02
 21
182.37
 31
0.0
  0
LINE
  5
16D
100
AcDbEntity
  8
LAY-1
  6
CONTINUOUS
 62
     2
100
AcDbLine
 10
91.7
 20
182.37
 30
0.0
 11
97.06
 21
182.37
 31
0.0
  0
LINE
  5
16E
100
AcDbEntity
  8
LAY-1
  6
CONTINUOUS
 62
     2
100
AcDbLine
 10
97.66
 20
182.37
 30
0.0
 11
99.02
 21
182.37
 31
0.0
  0
LINE
  5
16F
100
AcDbEntity
  8
LAY-1
  6
CONTINUOUS
 62
     2
100
AcDbLine
 10
101.030294
 20
182.37
 30
0.0
 11
103.18
 21
182.37
 31
0.0
  0
LINE
  5
170
100
AcDbEntity
  8
LAY-1
  6
CONTINUOUS
 62
     2
100
AcDbLine
 10
75.42
 20
182.17
 30
0.0
 11
76.82
 21
182.17
 31
0.0
  0
LINE
  5
171
100
AcDbEntity
  8
LAY-1
  6
CONTINUOUS
 62
     2
100
AcDbLine
 10
78.881337
 20
182.17
 30
0.0
 11
80.660408
 21
182.17
 31
0.0
  0
LINE
  5
172
100
AcDbEntity
  8
LAY-1
  6
CONTINUOUS
 62
     2
100
AcDbLine
 10
81.916864
 20
182.17
 30
0.0
 11
83.323136
 21
182.17
 31
0.0
  0
LINE
  5
173
100
AcDbEntity
  8
LAY-1
  6
CONTINUOUS
 62
     2
100
AcDbLine
 10
84.579592
 20
182.17
 30
0.0
 11
86.358663
 21
182.17
 31
0.0
  0
LINE
  5
174
100
AcDbEntity
  8
LAY-1
  6
CONTINUOUS
 62
     2
100
AcDbLine
 10
86.820099
 20
182.17
 30
0.0
 11
91.02
 21
182.17
 31
0.0
  0
LINE
  5
175
100
AcDbEntity
  8
LAY-1
  6
CONTINUOUS
 62
     2
100
AcDbLine
 10
91.7
 20
182.17
 30
0.0
 11
97.06
 21
182.17
 31
0.0
  0
LINE
  5
176
100
AcDbEntity
  8
LAY-1
  6
CONTINUOUS
 62
     2
100
AcDbLine
 10
97.66
 20
182.17
 30
0.0
 11
99.02
 21
182.17
 31
0.0
  0
LINE
  5
177
100
AcDbEntity
  8
LAY-1
  6
CONTINUOUS
 62
     2
100
AcDbLine
 10
101.161912
 20
182.17
 30
0.0
 11
103.18
 21
182.17
 31
0.0
  0
LINE
  5
178
100
AcDbEntity
  8
LAY-1
  6
CONTINUOUS
 62
     2
100
AcDbLine
 10
75.42
 20
181.97
 30
0.0
 11
76.82
 21
181.97
 31
0.0
  0
LINE
  5
179
100
AcDbEntity
  8
LAY-1
  6
CONTINUOUS
 62
     2
100
AcDbLine
 10
78.995417
 20
181.97
 30
0.0
 11
80.887949
 21
181.97
 31
0.0
  0
LINE
  5
17A
100
AcDbEntity
  8
LAY-1
  6
CONTINUOUS
 62
     2
100
AcDbLine
 10
84.352051
 20
181.97
 30
0.0
 11
86.244583
 21
181.97
 31
0.0
  0
LINE
  5
17B
100
AcDbEntity
  8
LAY-1
  6
CONTINUOUS
 62
     2
100
AcDbLine
 10
86.718882
 20
181.97
 30
0.0
 11
91.02
 21
181.97
 31
0.0
  0
LINE
  5
17C
100
AcDbEntity
  8
LAY-1
  6
CONTINUOUS
 62
     2
100
AcDbLine
 10
91.7
 20
181.97
 30
0.0
 11
97.06
 21
181.97
 31
0.0
  0
LINE
  5
17D
100
AcDbEntity
  8
LAY-1
  6
CONTINUOUS
 62
     2
100
AcDbLine
 10
97.66
 20
181.97
 30
0.0
 11
99.02
 21
181.97
 31
0.0
  0
LINE
  5
17E
100
AcDbEntity
  8
LAY-1
  6
CONTINUOUS
 62
     2
100
AcDbLine
 10
101.293529
 20
181.97
 30
0.0
 11
103.18
 21
181.97
 31
0.0
  0
LINE
  5
17F
100
AcDbEntity
  8
LAY-1
  6
CONTINUOUS
 62
     2
100
AcDbLine
 10
75.42
 20
181.77
 30
0.0
 11
76.82
 21
181.77
 31
0.0
  0
LINE
  5
180
100
AcDbEntity
  8
LAY-1
  6
CONTINUOUS
 62
     2
100
AcDbLine
 10
79.124632
 20
181.77
 30
0.0
 11
81.177779
 21
181.77
 31
0.0
  0
LINE
  5
181
100
AcDbEntity
  8
LAY-1
  6
CONTINUOUS
 62
     2
100
AcDbLine
 10
84.062221
 20
181.77
 30
0.0
 11
86.115368
 21
181.77
 31
0.0
  0
LINE
  5
182
100
AcDbEntity
  8
LAY-1
  6
CONTINUOUS
 62
     2
100
AcDbLine
 10
86.605076
 20
181.77
 30
0.0
 11
91.02
 21
181.77
 31
0.0
  0
LINE
  5
183
100
AcDbEntity
  8
LAY-1
  6
CONTINUOUS
 62
     2
100
AcDbLine
 10
91.7
 20
181.77
 30
0.0
 11
97.06
 21
181.77
 31
0.0
  0
LINE
  5
184
100
AcDbEntity
  8
LAY-1
  6
CONTINUOUS
 62
     2
100
AcDbLine
 10
97.66
 20
181.77
 30
0.0
 11
99.02
 21
181.77
 31
0.0
  0
LINE
  5
185
100
AcDbEntity
  8
LAY-1
  6
CONTINUOUS
 62
     2
100
AcDbLine
 10
101.425147
 20
181.77
 30
0.0
 11
103.18
 21
181.77
 31
0.0
  0
LINE
  5
186
100
AcDbEntity
  8
LAY-1
  6
CONTINUOUS
 62
     2
100
AcDbLine
 10
75.42
 20
181.57
 30
0.0
 11
76.82
 21
181.57
 31
0.0
  0
LINE
  5
187
100
AcDbEntity
  8
LAY-1
  6
CONTINUOUS
 62
     2
100
AcDbLine
 10
79.270731
 20
181.57
 30
0.0
 11
81.58077
 21
181.57
 31
0.0
  0
LINE
  5
188
100
AcDbEntity
  8
LAY-1
  6
CONTINUOUS
 62
     2
100
AcDbLine
 10
83.65923
 20
181.57
 30
0.0
 11
85.969269
 21
181.57
 31
0.0
  0
LINE
  5
189
100
AcDbEntity
  8
LAY-1
  6
CONTINUOUS
 62
     2
100
AcDbLine
 10
86.477568
 20
181.57
 30
0.0
 11
91.02
 21
181.57
 31
0.0
  0
LINE
  5
18A
100
AcDbEntity
  8
LAY-1
  6
CONTINUOUS
 62
     2
100
AcDbLine
 10
91.7
 20
181.57
 30
0.0
 11
97.06
 21
181.57
 31
0.0
  0
LINE
  5
18B
100
AcDbEntity
  8
LAY-1
  6
CONTINUOUS
 62
     2
100
AcDbLine
 10
97.66
 20
181.57
 30
0.0
 11
99.02
 21
181.57
 31
0.0
  0
LINE
  5
18C
100
AcDbEntity
  8
LAY-1
  6
CONTINUOUS
 62
     2
100
AcDbLine
 10
101.556765
 20
181.57
 30
0.0
 11
103.18
 21
181.57
 31
0.0
  0
LINE
  5
18D
100
AcDbEntity
  8
LAY-1
  6
CONTINUOUS
 62
     2
100
AcDbLine
 10
75.42
 20
181.37
 30
0.0
 11
76.82
 21
181.37
 31
0.0
  0
LINE
  5
18E
100
AcDbEntity
  8
LAY-1
  6
CONTINUOUS
 62
     2
100
AcDbLine
 10
79.43604
 20
181.37
 30
0.0
 11
85.80396
 21
181.37
 31
0.0
  0
LINE
  5
18F
100
AcDbEntity
  8
LAY-1
  6
CONTINUOUS
 62
     2
100
AcDbLine
 10
86.334947
 20
181.37
 30
0.0
 11
91.02
 21
181.37
 31
0.0
  0
LINE
  5
190
100
AcDbEntity
  8
LAY-1
  6
CONTINUOUS
 62
     2
100
AcDbLine
 10
91.7
 20
181.37
 30
0.0
 11
97.06
 21
181.37
 31
0.0
  0
LINE
  5
191
100
AcDbEntity
  8
LAY-1
  6
CONTINUOUS
 62
     2
100
AcDbLine
 10
97.66
 20
181.37
 30
0.0
 11
99.02
 21
181.37
 31
0.0
  0
LINE
  5
192
100
AcDbEntity
  8
LAY-1
  6
CONTINUOUS
 62
     2
100
AcDbLine
 10
101.688382
 20
181.37
 30
0.0
 11
103.18
 21
181.37
 31
0.0
  0
LINE
  5
193
100
AcDbEntity
  8
LAY-1
  6
CONTINUOUS
 62
     2
100
AcDbLine
 10
79.623736
 20
181.17
 30
0.0
 11
85.616264
 21
181.17
 31
0.0
  0
LINE
  5
194
100
AcDbEntity
  8
LAY-1
  6
CONTINUOUS
 62
     2
100
AcDbLine
 10
79.838346
 20
180.97
 30
0.0
 11
85.401654
 21
180.97
 31
0.0
  0
LINE
  5
195
100
AcDbEntity
  8
LAY-1
  6
CONTINUOUS
 62
     2
100
AcDbLine
 10
80.086702
 20
180.77
 30
0.0
 11
85.153298
 21
180.77
 31
0.0
  0
LINE
  5
196
100
AcDbEntity
  8
LAY-1
  6
CONTINUOUS
 62
     2
100
AcDbLine
 10
80.38
 20
180.57
 30
0.0
 11
84.86
 21
180.57
 31
0.0
  0
LINE
  5
197
100
AcDbEntity
  8
LAY-1
  6
CONTINUOUS
 62
     2
100
AcDbLine
 10
80.739149
 20
180.37
 30
0.0
 11
84.500851
 21
180.37
 31
0.0
  0
LINE
  5
198
100
AcDbEntity
  8
LAY-1
  6
CONTINUOUS
 62
     2
100
AcDbLine
 10
81.213728
 20
180.17
 30
0.0
 11
84.026272
 21
180.17
 31
0.0
  0
LINE
  5
199
100
AcDbEntity
  8
LAY-1
  6
CONTINUOUS
 62
     2
100
AcDbLine
 10
82.038966
 20
179.97
 30
0.0
 11
83.201034
 21
179.97
 31
0.0
  0
LINE
  5
19A
100
AcDbEntity
  8
LAY-1
  6
CONTINUOUS
 62
     2
100
AcDbLine
 10
75.42
 20
185.77
 30
0.0
 11
75.42
 21
181.17
 31
0.0
  0
LINE
  5
19B
100
AcDbEntity
  8
LAY-1
  6
CONTINUOUS
 62
     2
100
AcDbLine
 10
76.82
 20
185.77
 30
0.0
 11
76.82
 21
181.17
 31
0.0
  0
CIRCLE
  5
19C
100
AcDbEntity
  8
LAY-1
  6
CONTINUOUS
 62
     2
100
AcDbCircle
 10
82.62
 20
184.17
 30
0.0
 40
2.12
  0
CIRCLE
  5
19D
100
AcDbEntity
  8
LAY-1
  6
CONTINUOUS
 62
     2
100
AcDbCircle
 10
82.62
 20
184.17
 30
0.0
 40
2.8
  0
CIRCLE
  5
19E
100
AcDbEntity
  8
LAY-1
  6
CONTINUOUS
 62
     2
100
AcDbCircle
 10
82.62
 20
184.17
 30
0.0
 40
4.24
  0
LINE
  5
19F
100
AcDbEntity
  8
LAY-1
  6
CONTINUOUS
 62
     2
100
AcDbLine
 10
72.62
 20
187.17
 30
0.0
 11
72.62
 21
185.77
 31
0.0
  0
LINE
  5
1A0
100
AcDbEntity
  8
LAY-1
  6
CONTINUOUS
 62
     2
100
AcDbLine
 10
75.42
 20
181.17
 30
0.0
 11
76.82
 21
181.17
 31
0.0
  0
ARC
  5
1A1
100
AcDbEntity
  8
LAY-1
  6
CONTINUOUS
 62
     2
100
AcDbCircle
 10
82.62
 20
184.17
 30
0.0
 40
4.651971
100
AcDbArc
 50
139.842723
 51
159.882882
  0
ARC
  5
1A2
100
AcDbEntity
  8
LAY-1
  6
CONTINUOUS
 62
     2
100
AcDbCircle
 10
82.62
 20
184.17
 30
0.0
 40
4.651971
100
AcDbArc
 50
20.117118
 51
40.157277
  0
LINE
  5
1A3
100
AcDbEntity
  8
LAY-1
  6
CONTINUOUS
 62
     2
100
AcDbLine
 10
91.02
 20
182.57
 30
0.0
 11
91.02
 21
181.17
 31
0.0
  0
LINE
  5
1A4
100
AcDbEntity
  8
LAY-1
  6
CONTINUOUS
 62
     2
100
AcDbLine
 10
91.02
 20
187.17
 30
0.0
 11
91.02
 21
185.77
 31
0.0
  0
ARC
  5
1A5
100
AcDbEntity
  8
LAY-1
  6
CONTINUOUS
 62
     2
100
AcDbCircle
 10
82.62
 20
184.17
 30
0.0
 40
4.651971
100
AcDbArc
 50
319.842723
 51
348.135428
  0
LINE
  5
1A6
100
AcDbEntity
  8
LAY-1
  6
CONTINUOUS
 62
     2
100
AcDbLine
 10
91.02
 20
185.77
 30
0.0
 11
88.135203
 21
182.57
 31
0.0
  0
LINE
  5
1A7
100
AcDbEntity
  8
LAY-1
  6
CONTINUOUS
 62
     2
100
AcDbLine
 10
89.477216
 20
185.77
 30
0.0
 11
87.172587
 21
183.213559
 31
0.0
  0
LINE
  5
1A8
100
AcDbEntity
  8
LAY-1
  6
CONTINUOUS
 62
     2
100
AcDbLine
 10
91.7
 20
187.17
 30
0.0
 11
91.7
 21
181.17
 31
0.0
  0
LINE
  5
1A9
100
AcDbEntity
  8
LAY-1
  6
CONTINUOUS
 62
     2
100
AcDbLine
 10
93.1
 20
184.77
 30
0.0
 11
97.06
 21
184.77
 31
0.0
  0
LINE
  5
1AA
100
AcDbEntity
  8
LAY-1
  6
CONTINUOUS
 62
     2
100
AcDbLine
 10
93.1
 20
183.57
 30
0.0
 11
97.06
 21
183.57
 31
0.0
  0
LINE
  5
1AB
100
AcDbEntity
  8
LAY-1
  6
CONTINUOUS
 62
     2
100
AcDbLine
 10
97.66
 20
187.17
 30
0.0
 11
97.66
 21
181.17
 31
0.0
  0
LINE
  5
1AC
100
AcDbEntity
  8
LAY-1
  6
CONTINUOUS
 62
     2
100
AcDbLine
 10
103.18
 20
187.17
 30
0.0
 11
103.18
 21
181.17
 31
0.0
  0
LINE
  5
1AD
100
AcDbEntity
  8
LAY-1
  6
CONTINUOUS
 62
     2
100
AcDbLine
 10
101.82
 20
181.17
 30
0.0
 11
99.02
 21
185.424749
 31
0.0
  0
LINE
  5
1AE
100
AcDbEntity
  8
LAY-1
  6
CONTINUOUS
 62
     2
100
AcDbLine
 10
99.02
 20
187.17
 30
0.0
 11
101.82
 21
182.915251
 31
0.0
  0
LINE
  5
1AF
100
AcDbEntity
  8
LAY-1
  6
CONTINUOUS
 62
     2
100
AcDbLine
 10
97.06
 20
187.17
 30
0.0
 11
97.06
 21
185.77
 31
0.0
  0
LINE
  5
1B0
100
AcDbEntity
  8
LAY-1
  6
CONTINUOUS
 62
     2
100
AcDbLine
 10
97.06
 20
184.77
 30
0.0
 11
97.06
 21
183.57
 31
0.0
  0
LINE
  5
1B1
100
AcDbEntity
  8
LAY-1
  6
CONTINUOUS
 62
     2
100
AcDbLine
 10
97.06
 20
182.57
 30
0.0
 11
97.06
 21
181.17
 31
0.0
  0
LINE
  5
1B2
100
AcDbEntity
  8
LAY-1
  6
CONTINUOUS
 62
     2
100
AcDbLine
 10
93.1
 20
185.77
 30
0.0
 11
97.06
 21
185.77
 31
0.0
  0
LINE
  5
1B3
100
AcDbEntity
  8
LAY-1
  6
CONTINUOUS
 62
     2
100
AcDbLine
 10
91.7
 20
187.17
 30
0.0
 11
97.06
 21
187.17
 31
0.0
  0
LINE
  5
1B4
100
AcDbEntity
  8
LAY-1
  6
CONTINUOUS
 62
     2
100
AcDbLine
 10
93.1
 20
183.57
 30
0.0
 11
93.1
 21
182.57
 31
0.0
  0
LINE
  5
1B5
100
AcDbEntity
  8
LAY-1
  6
CONTINUOUS
 62
     2
100
AcDbLine
 10
91.7
 20
181.17
 30
0.0
 11
97.06
 21
181.17
 31
0.0
  0
LINE
  5
1B6
100
AcDbEntity
  8
LAY-1
  6
CONTINUOUS
 62
     2
100
AcDbLine
 10
93.1
 20
182.57
 30
0.0
 11
97.06
 21
182.57
 31
0.0
  0
LINE
  5
1B7
100
AcDbEntity
  8
LAY-1
  6
CONTINUOUS
 62
     2
100
AcDbLine
 10
99.02
 20
185.424749
 30
0.0
 11
99.02
 21
181.17
 31
0.0
  0
LINE
  5
1B8
100
AcDbEntity
  8
LAY-1
  6
CONTINUOUS
 62
     2
100
AcDbLine
 10
97.66
 20
187.17
 30
0.0
 11
99.02
 21
187.17
 31
0.0
  0
LINE
  5
1B9
100
AcDbEntity
  8
LAY-1
  6
CONTINUOUS
 62
     2
100
AcDbLine
 10
101.82
 20
187.17
 30
0.0
 11
103.18
 21
187.17
 31
0.0
  0
LINE
  5
1BA
100
AcDbEntity
  8
LAY-1
  6
CONTINUOUS
 62
     2
100
AcDbLine
 10
97.66
 20
181.17
 30
0.0
 11
99.02
 21
181.17
 31
0.0
  0
LINE
  5
1BB
100
AcDbEntity
  8
LAY-1
  6
CONTINUOUS
 62
     2
100
AcDbLine
 10
101.82
 20
181.17
 30
0.0
 11
103.18
 21
181.17
 31
0.0
  0
LINE
  5
1BC
100
AcDbEntity
  8
LAY-1
  6
CONTINUOUS
 62
     2
100
AcDbLine
 10
101.82
 20
187.17
 30
0.0
 11
101.82
 21
182.915251
 31
0.0
  0
LINE
  5
1BD
100
AcDbEntity
  8
LAY-1
  6
CONTINUOUS
 62
     2
100
AcDbLine
 10
72.62
 20
185.77
 30
0.0
 11
75.42
 21
185.77
 31
0.0
  0
LINE
  5
1BE
100
AcDbEntity
  8
LAY-1
  6
CONTINUOUS
 62
     2
100
AcDbLine
 10
76.82
 20
185.77
 30
0.0
 11
78.251839
 21
185.77
 31
0.0
  0
LINE
  5
1BF
100
AcDbEntity
  8
LAY-1
  6
CONTINUOUS
 62
     2
100
AcDbLine
 10
72.62
 20
187.17
 30
0.0
 11
79.064605
 21
187.17
 31
0.0
  0
LINE
  5
1C0
100
AcDbEntity
  8
LAY-1
  6
CONTINUOUS
 62
     2
100
AcDbLine
 10
86.175395
 20
187.17
 30
0.0
 11
91.02
 21
187.17
 31
0.0
  0
LINE
  5
1C1
100
AcDbEntity
  8
LAY-1
  6
CONTINUOUS
 62
     2
100
AcDbLine
 10
86.988161
 20
185.77
 30
0.0
 11
89.477216
 21
185.77
 31
0.0
  0
LINE
  5
1C2
100
AcDbEntity
  8
LAY-1
  6
CONTINUOUS
 62
     2
100
AcDbLine
 10
86.175395
 20
181.17
 30
0.0
 11
91.02
 21
181.17
 31
0.0
  0
LINE
  5
1C3
100
AcDbEntity
  8
LAY-1
  6
CONTINUOUS
 62
     2
100
AcDbLine
 10
88.135203
 20
182.57
 30
0.0
 11
91.02
 21
182.57
 31
0.0
  0
LINE
  5
1C4
100
AcDbEntity
  8
LAY-1
  6
CONTINUOUS
 62
     2
100
AcDbLine
 10
93.1
 20
185.77
 30
0.0
 11
93.1
 21
184.77
 31
0.0
  0
TEXT
  5
1C5
100
AcDbEntity
  8
LAY-1
  6
CONTINUOUS
 62
     7
100
AcDbText
 10
72.500002
 20
38.1
 30
0.0
 40
8.0
  1
図面は最小面間です。それ以上の面間は胴部を
 41
0.79
  7
EXCADSTD
 72
     5
 11
230.500002
 21
38.1
 31
0.0
100
AcDbText
  0
TEXT
  5
1C6
100
AcDbEntity
  8
LAY-1
  6
CONTINUOUS
 62
     7
100
AcDbText
 10
72.500002
 20
29.1
 30
0.0
 40
8.0
  1
ストレッチで伸ばしてご使用ください。
 41
0.790417
  7
EXCADSTD
 72
     5
 11
208.000002
 21
29.1
 31
0.0
100
AcDbText
  0
LINE
  5
1C7
100
AcDbEntity
  8
LAY-2
  6
EXLTYPE4
 62
     6
100
AcDbLine
 10
80.240967
 20
157.15
 30
0.0
 11
80.240967
 21
151.15
 31
0.0
  0
LINE
  5
1C8
100
AcDbEntity
  8
LAY-2
  6
EXLTYPE3
 62
     1
100
AcDbLine
 10
74.240967
 20
154.15
 30
0.0
 11
106.240967
 21
154.15
 31
0.0
  0
LINE
  5
1C9
100
AcDbEntity
  8
LAY-2
  6
EXLTYPE4
 62
     6
100
AcDbLine
 10
100.240967
 20
151.15
 30
0.0
 11
100.240967
 21
157.15
 31
0.0
  0
LINE
  5
1CA
100
AcDbEntity
  8
LAY-2
  6
CONTINUOUS
 62
     3
100
AcDbLine
 10
75.240967
 20
157.15
 30
0.0
 11
75.240967
 21
151.15
 31
0.0
  0
LINE
  5
1CB
100
AcDbEntity
  8
LAY-2
  6
CONTINUOUS
 62
     3
100
AcDbLine
 10
77.240967
 20
151.05
 30
0.0
 11
78.490967
 21
151.05
 31
0.0
  0
LINE
  5
1CC
100
AcDbEntity
  8
LAY-2
  6
CONTINUOUS
 62
     3
100
AcDbLine
 10
78.490967
 20
157.25
 30
0.0
 11
78.490967
 21
151.05
 31
0.0
  0
LINE
  5
1CD
100
AcDbEntity
  8
LAY-2
  6
CONTINUOUS
 62
     3
100
AcDbLine
 10
77.240967
 20
157.25
 30
0.0
 11
77.240967
 21
151.05
 31
0.0
  0
LINE
  5
1CE
100
AcDbEntity
  8
LAY-2
  6
CONTINUOUS
 62
     3
100
AcDbLine
 10
77.240967
 20
157.25
 30
0.0
 11
78.490967
 21
157.25
 31
0.0
  0
CIRCLE
  5
1CF
100
AcDbEntity
  8
LAY-2
  6
CONTINUOUS
 62
     3
100
AcDbCircle
 10
77.865967
 20
157.875
 30
0.0
 40
0.625
  0
LINE
  5
1D0
100
AcDbEntity
  8
LAY-2
  6
CONTINUOUS
 62
     3
100
AcDbLine
 10
77.253594
 20
157.75
 30
0.0
 11
78.478339
 21
157.75
 31
0.0
  0
LINE
  5
1D1
100
AcDbEntity
  8
LAY-2
  6
CONTINUOUS
 62
     3
100
AcDbLine
 10
77.253594
 20
158.0
 30
0.0
 11
78.478339
 21
158.0
 31
0.0
  0
LINE
  5
1D2
100
AcDbEntity
  8
LAY-2
  6
CONTINUOUS
 62
     3
100
AcDbLine
 10
75.240967
 20
151.15
 30
0.0
 11
77.240967
 21
151.15
 31
0.0
  0
LINE
  5
1D3
100
AcDbEntity
  8
LAY-2
  6
CONTINUOUS
 62
     3
100
AcDbLine
 10
75.240967
 20
157.15
 30
0.0
 11
77.240967
 21
157.15
 31
0.0
  0
LINE
  5
1D4
100
AcDbEntity
  8
LAY-2
  6
CONTINUOUS
 62
     3
100
AcDbLine
 10
78.490967
 20
151.15
 30
0.0
 11
80.140967
 21
151.15
 31
0.0
  0
ARC
  5
1D5
100
AcDbEntity
  8
LAY-2
  6
CONTINUOUS
 62
     3
100
AcDbCircle
 10
80.140967
 20
151.75
 30
0.0
 40
0.6
100
AcDbArc
 50
270.0
 51
0.0
  0
LINE
  5
1D6
100
AcDbEntity
  8
LAY-2
  6
CONTINUOUS
 62
     3
100
AcDbLine
 10
78.490967
 20
157.15
 30
0.0
 11
80.140967
 21
157.15
 31
0.0
  0
ARC
  5
1D7
100
AcDbEntity
  8
LAY-2
  6
CONTINUOUS
 62
     3
100
AcDbCircle
 10
80.140967
 20
156.55
 30
0.0
 40
0.6
100
AcDbArc
 50
0.0
 51
90.0
  0
LINE
  5
1D8
100
AcDbEntity
  8
LAY-2
  6
CONTINUOUS
 62
     3
100
AcDbLine
 10
80.740967
 20
156.55
 30
0.0
 11
80.740967
 21
151.75
 31
0.0
  0
LINE
  5
1D9
100
AcDbEntity
  8
LAY-2
  6
CONTINUOUS
 62
     3
100
AcDbLine
 10
81.240967
 20
152.0
 30
0.0
 11
81.739304
 21
152.0
 31
0.0
  0
LINE
  5
1DA
100
AcDbEntity
  8
LAY-2
  6
CONTINUOUS
 62
     3
100
AcDbLine
 10
82.239304
 20
152.0
 30
0.0
 11
82.740967
 21
152.0
 31
0.0
  0
LINE
  5
1DB
100
AcDbEntity
  8
LAY-2
  6
CONTINUOUS
 62
     3
100
AcDbLine
 10
83.240967
 20
152.0
 30
0.0
 11
83.739304
 21
152.0
 31
0.0
  0
LINE
  5
1DC
100
AcDbEntity
  8
LAY-2
  6
CONTINUOUS
 62
     3
100
AcDbLine
 10
84.239304
 20
152.0
 30
0.0
 11
84.740967
 21
152.0
 31
0.0
  0
ARC
  5
1DD
100
AcDbEntity
  8
LAY-2
  6
CONTINUOUS
 62
     3
100
AcDbCircle
 10
81.990967
 20
152.0
 30
0.0
 40
0.25
100
AcDbArc
 50
186.588806
 51
15.911933
  0
ARC
  5
1DE
100
AcDbEntity
  8
LAY-2
  6
CONTINUOUS
 62
     3
100
AcDbCircle
 10
82.990967
 20
152.0
 30
0.0
 40
0.25
100
AcDbArc
 50
186.588806
 51
15.911933
  0
ARC
  5
1DF
100
AcDbEntity
  8
LAY-2
  6
CONTINUOUS
 62
     3
100
AcDbCircle
 10
83.990967
 20
152.0
 30
0.0
 40
0.25
100
AcDbArc
 50
186.588806
 51
357.265678
  0
ARC
  5
1E0
100
AcDbEntity
  8
LAY-2
  6
CONTINUOUS
 62
     3
100
AcDbCircle
 10
80.989304
 20
152.0
 30
0.0
 40
0.25
100
AcDbArc
 50
186.588806
 51
15.911933
  0
ARC
  5
1E1
100
AcDbEntity
  8
LAY-2
  6
CONTINUOUS
 62
     3
100
AcDbCircle
 10
81.490967
 20
156.3
 30
0.0
 40
0.25
100
AcDbArc
 50
6.588806
 51
177.265678
  0
ARC
  5
1E2
100
AcDbEntity
  8
LAY-2
  6
CONTINUOUS
 62
     3
100
AcDbCircle
 10
82.490967
 20
156.3
 30
0.0
 40
0.25
100
AcDbArc
 50
6.588806
 51
177.265678
  0
LINE
  5
1E3
100
AcDbEntity
  8
LAY-2
  6
CONTINUOUS
 62
     3
100
AcDbLine
 10
82.742629
 20
156.3
 30
0.0
 11
83.242629
 21
156.3
 31
0.0
  0
ARC
  5
1E4
100
AcDbEntity
  8
LAY-2
  6
CONTINUOUS
 62
     3
100
AcDbCircle
 10
83.490967
 20
156.3
 30
0.0
 40
0.25
100
AcDbArc
 50
6.588806
 51
177.265678
  0
ARC
  5
1E5
100
AcDbEntity
  8
LAY-2
  6
CONTINUOUS
 62
     3
100
AcDbCircle
 10
84.490967
 20
156.3
 30
0.0
 40
0.25
100
AcDbArc
 50
6.588806
 51
177.265678
  0
LINE
  5
1E6
100
AcDbEntity
  8
LAY-2
  6
CONTINUOUS
 62
     3
100
AcDbLine
 10
83.742629
 20
156.3
 30
0.0
 11
84.242629
 21
156.3
 31
0.0
  0
LINE
  5
1E7
100
AcDbEntity
  8
LAY-2
  6
CONTINUOUS
 62
     3
100
AcDbLine
 10
80.740967
 20
156.3
 30
0.0
 11
81.242629
 21
156.3
 31
0.0
  0
LINE
  5
1E8
100
AcDbEntity
  8
LAY-2
  6
CONTINUOUS
 62
     3
100
AcDbLine
 10
81.742629
 20
156.3
 30
0.0
 11
82.242629
 21
156.3
 31
0.0
  0
ARC
  5
1E9
100
AcDbEntity
  8
LAY-2
  6
CONTINUOUS
 62
     3
100
AcDbCircle
 10
99.490967
 20
156.3
 30
0.0
 40
0.25
100
AcDbArc
 50
6.588806
 51
177.265678
  0
LINE
  5
1EA
100
AcDbEntity
  8
LAY-2
  6
CONTINUOUS
 62
     3
100
AcDbLine
 10
99.239304
 20
152.0
 30
0.0
 11
99.740967
 21
152.0
 31
0.0
  0
ARC
  5
1EB
100
AcDbEntity
  8
LAY-2
  6
CONTINUOUS
 62
     3
100
AcDbCircle
 10
100.340967
 20
151.75
 30
0.0
 40
0.6
100
AcDbArc
 50
180.0
 51
270.0
  0
ARC
  5
1EC
100
AcDbEntity
  8
LAY-2
  6
CONTINUOUS
 62
     3
100
AcDbCircle
 10
100.340967
 20
156.55
 30
0.0
 40
0.6
100
AcDbArc
 50
90.0
 51
180.0
  0
LINE
  5
1ED
100
AcDbEntity
  8
LAY-2
  6
CONTINUOUS
 62
     3
100
AcDbLine
 10
101.990967
 20
157.15
 30
0.0
 11
100.340967
 21
157.15
 31
0.0
  0
LINE
  5
1EE
100
AcDbEntity
  8
LAY-2
  6
CONTINUOUS
 62
     3
100
AcDbLine
 10
99.740967
 20
151.75
 30
0.0
 11
99.740967
 21
156.55
 31
0.0
  0
LINE
  5
1EF
100
AcDbEntity
  8
LAY-2
  6
CONTINUOUS
 62
     3
100
AcDbLine
 10
101.990967
 20
151.15
 30
0.0
 11
100.340967
 21
151.15
 31
0.0
  0
LINE
  5
1F0
100
AcDbEntity
  8
LAY-2
  6
CONTINUOUS
 62
     3
100
AcDbLine
 10
103.240967
 20
151.05
 30
0.0
 11
101.990967
 21
151.05
 31
0.0
  0
LINE
  5
1F1
100
AcDbEntity
  8
LAY-2
  6
CONTINUOUS
 62
     3
100
AcDbLine
 10
101.990967
 20
157.25
 30
0.0
 11
101.990967
 21
151.05
 31
0.0
  0
LINE
  5
1F2
100
AcDbEntity
  8
LAY-2
  6
CONTINUOUS
 62
     3
100
AcDbLine
 10
103.240967
 20
157.25
 30
0.0
 11
103.240967
 21
151.05
 31
0.0
  0
LINE
  5
1F3
100
AcDbEntity
  8
LAY-2
  6
CONTINUOUS
 62
     3
100
AcDbLine
 10
103.240967
 20
157.25
 30
0.0
 11
101.990967
 21
157.25
 31
0.0
  0
CIRCLE
  5
1F4
100
AcDbEntity
  8
LAY-2
  6
CONTINUOUS
 62
     3
100
AcDbCircle
 10
102.615967
 20
157.875
 30
0.0
 40
0.625
  0
LINE
  5
1F5
100
AcDbEntity
  8
LAY-2
  6
CONTINUOUS
 62
     3
100
AcDbLine
 10
103.228339
 20
157.75
 30
0.0
 11
102.003594
 21
157.75
 31
0.0
  0
LINE
  5
1F6
100
AcDbEntity
  8
LAY-2
  6
CONTINUOUS
 62
     3
100
AcDbLine
 10
103.228339
 20
158.0
 30
0.0
 11
102.003594
 21
158.0
 31
0.0
  0
LINE
  5
1F7
100
AcDbEntity
  8
LAY-2
  6
CONTINUOUS
 62
     3
100
AcDbLine
 10
105.240967
 20
151.15
 30
0.0
 11
103.240967
 21
151.15
 31
0.0
  0
LINE
  5
1F8
100
AcDbEntity
  8
LAY-2
  6
CONTINUOUS
 62
     3
100
AcDbLine
 10
105.240967
 20
157.15
 30
0.0
 11
105.240967
 21
151.15
 31
0.0
  0
LINE
  5
1F9
100
AcDbEntity
  8
LAY-2
  6
CONTINUOUS
 62
     3
100
AcDbLine
 10
105.240967
 20
157.15
 30
0.0
 11
103.240967
 21
157.15
 31
0.0
  0
ARC
  5
1FA
100
AcDbEntity
  8
LAY-2
  6
CONTINUOUS
 62
     3
100
AcDbCircle
 10
95.490967
 20
156.3
 30
0.0
 40
0.25
100
AcDbArc
 50
6.588806
 51
177.265678
  0
LINE
  5
1FB
100
AcDbEntity
  8
LAY-2
  6
CONTINUOUS
 62
     3
100
AcDbLine
 10
95.240967
 20
152.0
 30
0.0
 11
95.739304
 21
152.0
 31
0.0
  0
LINE
  5
1FC
100
AcDbEntity
  8
LAY-2
  6
CONTINUOUS
 62
     3
100
AcDbLine
 10
95.742629
 20
156.3
 30
0.0
 11
96.242629
 21
156.3
 31
0.0
  0
LINE
  5
1FD
100
AcDbEntity
  8
LAY-2
  6
CONTINUOUS
 62
     3
100
AcDbLine
 10
95.241251
 20
156.311926
 30
0.0
 11
95.742618
 21
151.971314
 31
0.0
  0
LINE
  5
1FE
100
AcDbEntity
  8
LAY-2
  6
CONTINUOUS
 62
     3
100
AcDbLine
 10
95.739315
 20
156.328686
 30
0.0
 11
96.240682
 21
151.988074
 31
0.0
  0
ARC
  5
1FF
100
AcDbEntity
  8
LAY-2
  6
CONTINUOUS
 62
     3
100
AcDbCircle
 10
95.990967
 20
152.0
 30
0.0
 40
0.25
100
AcDbArc
 50
186.588806
 51
357.265678
  0
LINE
  5
200
100
AcDbEntity
  8
LAY-2
  6
CONTINUOUS
 62
     3
100
AcDbLine
 10
84.742629
 20
156.3
 30
0.0
 11
85.242629
 21
156.3
 31
0.0
  0
ARC
  5
201
100
AcDbEntity
  8
LAY-2
  6
CONTINUOUS
 62
     3
100
AcDbCircle
 10
85.490967
 20
156.3
 30
0.0
 40
0.25
100
AcDbArc
 50
6.588806
 51
177.265678
  0
LINE
  5
202
100
AcDbEntity
  8
LAY-2
  6
CONTINUOUS
 62
     3
100
AcDbLine
 10
85.240967
 20
152.0
 30
0.0
 11
85.739304
 21
152.0
 31
0.0
  0
LINE
  5
203
100
AcDbEntity
  8
LAY-2
  6
CONTINUOUS
 62
     3
100
AcDbLine
 10
85.241251
 20
156.311926
 30
0.0
 11
85.742618
 21
151.971314
 31
0.0
  0
LINE
  5
204
100
AcDbEntity
  8
LAY-2
  6
CONTINUOUS
 62
     3
100
AcDbLine
 10
84.739315
 20
156.328686
 30
0.0
 11
85.240682
 21
151.988074
 31
0.0
  0
ARC
  5
205
100
AcDbEntity
  8
LAY-2
  6
CONTINUOUS
 62
     3
100
AcDbCircle
 10
84.990967
 20
152.0
 30
0.0
 40
0.25
100
AcDbArc
 50
186.588806
 51
357.265678
  0
ARC
  5
206
100
AcDbEntity
  8
LAY-2
  6
CONTINUOUS
 62
     3
100
AcDbCircle
 10
85.990967
 20
152.0
 30
0.0
 40
0.25
100
AcDbArc
 50
186.588806
 51
357.265678
  0
ARC
  5
207
100
AcDbEntity
  8
LAY-2
  6
CONTINUOUS
 62
     3
100
AcDbCircle
 10
94.490967
 20
156.3
 30
0.0
 40
0.25
100
AcDbArc
 50
6.588806
 51
177.265678
  0
ARC
  5
208
100
AcDbEntity
  8
LAY-2
  6
CONTINUOUS
 62
     3
100
AcDbCircle
 10
94.990967
 20
152.0
 30
0.0
 40
0.25
100
AcDbArc
 50
186.588806
 51
357.265678
  0
LINE
  5
209
100
AcDbEntity
  8
LAY-2
  6
CONTINUOUS
 62
     3
100
AcDbLine
 10
94.742629
 20
156.3
 30
0.0
 11
95.242629
 21
156.3
 31
0.0
  0
LINE
  5
20A
100
AcDbEntity
  8
LAY-2
  6
CONTINUOUS
 62
     3
100
AcDbLine
 10
94.241251
 20
156.311926
 30
0.0
 11
94.742618
 21
151.971314
 31
0.0
  0
LINE
  5
20B
100
AcDbEntity
  8
LAY-2
  6
CONTINUOUS
 62
     3
100
AcDbLine
 10
94.739315
 20
156.328686
 30
0.0
 11
95.240682
 21
151.988074
 31
0.0
  0
LINE
  5
20C
100
AcDbEntity
  8
LAY-2
  6
EXLTYPE3
 62
     1
100
AcDbLine
 10
85.480011
 20
156.54976
 30
0.0
 11
94.480011
 21
156.54976
 31
0.0
  0
LINE
  5
20D
100
AcDbEntity
  8
LAY-2
  6
EXLTYPE3
 62
     1
100
AcDbLine
 10
86.069039
 20
151.762503
 30
0.0
 11
94.912894
 21
151.762503
 31
0.0
  0
LINE
  5
20E
100
AcDbEntity
  8
LAY-2
  6
CONTINUOUS
 62
     3
100
AcDbLine
 10
80.737653
 20
156.328686
 30
0.0
 11
81.229726
 21
152.06854
 31
0.0
  0
LINE
  5
20F
100
AcDbEntity
  8
LAY-2
  6
CONTINUOUS
 62
     3
100
AcDbLine
 10
81.241251
 20
156.311926
 30
0.0
 11
81.742618
 21
151.971314
 31
0.0
  0
LINE
  5
210
100
AcDbEntity
  8
LAY-2
  6
CONTINUOUS
 62
     3
100
AcDbLine
 10
81.739315
 20
156.328686
 30
0.0
 11
82.231388
 21
152.06854
 31
0.0
  0
LINE
  5
211
100
AcDbEntity
  8
LAY-2
  6
CONTINUOUS
 62
     3
100
AcDbLine
 10
82.241251
 20
156.311926
 30
0.0
 11
82.742618
 21
151.971314
 31
0.0
  0
LINE
  5
212
100
AcDbEntity
  8
LAY-2
  6
CONTINUOUS
 62
     3
100
AcDbLine
 10
82.739315
 20
156.328686
 30
0.0
 11
83.231388
 21
152.06854
 31
0.0
  0
LINE
  5
213
100
AcDbEntity
  8
LAY-2
  6
CONTINUOUS
 62
     3
100
AcDbLine
 10
83.241251
 20
156.311926
 30
0.0
 11
83.742618
 21
151.971314
 31
0.0
  0
LINE
  5
214
100
AcDbEntity
  8
LAY-2
  6
CONTINUOUS
 62
     3
100
AcDbLine
 10
83.739315
 20
156.328686
 30
0.0
 11
84.240682
 21
151.988074
 31
0.0
  0
LINE
  5
215
100
AcDbEntity
  8
LAY-2
  6
CONTINUOUS
 62
     3
100
AcDbLine
 10
84.241251
 20
156.311926
 30
0.0
 11
84.742618
 21
151.971314
 31
0.0
  0
LINE
  5
216
100
AcDbEntity
  8
LAY-2
  6
CONTINUOUS
 62
     3
100
AcDbLine
 10
85.739315
 20
156.328686
 30
0.0
 11
86.240682
 21
151.988074
 31
0.0
  0
LINE
  5
217
100
AcDbEntity
  8
LAY-2
  6
CONTINUOUS
 62
     3
100
AcDbLine
 10
96.241251
 20
156.311926
 30
0.0
 11
96.742618
 21
151.971314
 31
0.0
  0
LINE
  5
218
100
AcDbEntity
  8
LAY-2
  6
CONTINUOUS
 62
     3
100
AcDbLine
 10
97.241251
 20
156.311926
 30
0.0
 11
97.742618
 21
151.971314
 31
0.0
  0
LINE
  5
219
100
AcDbEntity
  8
LAY-2
  6
CONTINUOUS
 62
     3
100
AcDbLine
 10
97.739315
 20
156.328686
 30
0.0
 11
98.240682
 21
151.988074
 31
0.0
  0
LINE
  5
21A
100
AcDbEntity
  8
LAY-2
  6
CONTINUOUS
 62
     3
100
AcDbLine
 10
98.241251
 20
156.311926
 30
0.0
 11
98.742618
 21
151.971314
 31
0.0
  0
LINE
  5
21B
100
AcDbEntity
  8
LAY-2
  6
CONTINUOUS
 62
     3
100
AcDbLine
 10
96.739315
 20
156.328686
 30
0.0
 11
97.240682
 21
151.988074
 31
0.0
  0
LINE
  5
21C
100
AcDbEntity
  8
LAY-2
  6
CONTINUOUS
 62
     3
100
AcDbLine
 10
98.739315
 20
156.328686
 30
0.0
 11
99.240682
 21
151.988074
 31
0.0
  0
ARC
  5
21D
100
AcDbEntity
  8
LAY-2
  6
CONTINUOUS
 62
     3
100
AcDbCircle
 10
96.490967
 20
156.3
 30
0.0
 40
0.25
100
AcDbArc
 50
6.588806
 51
177.265678
  0
LINE
  5
21E
100
AcDbEntity
  8
LAY-2
  6
CONTINUOUS
 62
     3
100
AcDbLine
 10
96.742629
 20
156.3
 30
0.0
 11
97.242629
 21
156.3
 31
0.0
  0
ARC
  5
21F
100
AcDbEntity
  8
LAY-2
  6
CONTINUOUS
 62
     3
100
AcDbCircle
 10
97.490967
 20
156.3
 30
0.0
 40
0.25
100
AcDbArc
 50
6.588806
 51
177.265678
  0
LINE
  5
220
100
AcDbEntity
  8
LAY-2
  6
CONTINUOUS
 62
     3
100
AcDbLine
 10
97.742629
 20
156.3
 30
0.0
 11
98.242629
 21
156.3
 31
0.0
  0
LINE
  5
221
100
AcDbEntity
  8
LAY-2
  6
CONTINUOUS
 62
     3
100
AcDbLine
 10
99.242629
 20
156.3
 30
0.0
 11
98.742629
 21
156.3
 31
0.0
  0
ARC
  5
222
100
AcDbEntity
  8
LAY-2
  6
CONTINUOUS
 62
     3
100
AcDbCircle
 10
98.490967
 20
156.3
 30
0.0
 40
0.25
100
AcDbArc
 50
6.588806
 51
177.265678
  0
LINE
  5
223
100
AcDbEntity
  8
LAY-2
  6
CONTINUOUS
 62
     3
100
AcDbLine
 10
96.239304
 20
152.0
 30
0.0
 11
96.740967
 21
152.0
 31
0.0
  0
ARC
  5
224
100
AcDbEntity
  8
LAY-2
  6
CONTINUOUS
 62
     3
100
AcDbCircle
 10
96.990967
 20
152.0
 30
0.0
 40
0.25
100
AcDbArc
 50
186.588806
 51
357.265678
  0
LINE
  5
225
100
AcDbEntity
  8
LAY-2
  6
CONTINUOUS
 62
     3
100
AcDbLine
 10
97.240967
 20
152.0
 30
0.0
 11
97.739304
 21
152.0
 31
0.0
  0
ARC
  5
226
100
AcDbEntity
  8
LAY-2
  6
CONTINUOUS
 62
     3
100
AcDbCircle
 10
97.990967
 20
152.0
 30
0.0
 40
0.25
100
AcDbArc
 50
186.588806
 51
357.265678
  0
ARC
  5
227
100
AcDbEntity
  8
LAY-2
  6
CONTINUOUS
 62
     3
100
AcDbCircle
 10
98.990967
 20
152.0
 30
0.0
 40
0.25
100
AcDbArc
 50
186.588806
 51
357.265678
  0
LINE
  5
228
100
AcDbEntity
  8
LAY-2
  6
CONTINUOUS
 62
     3
100
AcDbLine
 10
98.239304
 20
152.0
 30
0.0
 11
98.739304
 21
152.0
 31
0.0
  0
LINE
  5
229
100
AcDbEntity
  8
LAY-2
  6
CONTINUOUS
 62
     3
100
AcDbLine
 10
99.241251
 20
156.311926
 30
0.0
 11
99.740682
 21
151.988074
 31
0.0
  0
LINE
  5
22A
100
AcDbEntity
  8
LAY-2
  6
EXLTYPE3
 62
     1
100
AcDbLine
 10
134.81
 20
154.15
 30
0.0
 11
166.81
 21
154.15
 31
0.0
  0
LINE
  5
22B
100
AcDbEntity
  8
LAY-2
  6
EXLTYPE4
 62
     6
100
AcDbLine
 10
160.81
 20
157.752233
 30
0.0
 11
160.81
 21
150.547767
 31
0.0
  0
LINE
  5
22C
100
AcDbEntity
  8
LAY-2
  6
EXLTYPE4
 62
     6
100
AcDbLine
 10
140.81
 20
157.752233
 30
0.0
 11
140.81
 21
150.5
 31
0.0
  0
LINE
  5
22D
100
AcDbEntity
  8
LAY-2
  6
CONTINUOUS
 62
     3
100
AcDbLine
 10
135.81
 20
157.8
 30
0.0
 11
135.81
 21
150.5
 31
0.0
  0
LINE
  5
22E
100
AcDbEntity
  8
LAY-2
  6
CONTINUOUS
 62
     3
100
AcDbLine
 10
137.81
 20
157.9
 30
0.0
 11
139.06
 21
157.9
 31
0.0
  0
CIRCLE
  5
22F
100
AcDbEntity
  8
LAY-2
  6
CONTINUOUS
 62
     3
100
AcDbCircle
 10
138.435
 20
158.525
 30
0.0
 40
0.625
  0
LINE
  5
230
100
AcDbEntity
  8
LAY-2
  6
CONTINUOUS
 62
     3
100
AcDbLine
 10
137.822628
 20
158.4
 30
0.0
 11
139.047372
 21
158.4
 31
0.0
  0
LINE
  5
231
100
AcDbEntity
  8
LAY-2
  6
CONTINUOUS
 62
     3
100
AcDbLine
 10
137.822628
 20
158.65
 30
0.0
 11
139.047372
 21
158.65
 31
0.0
  0
LINE
  5
232
100
AcDbEntity
  8
LAY-2
  6
CONTINUOUS
 62
     3
100
AcDbLine
 10
137.81
 20
150.4
 30
0.0
 11
139.06
 21
150.4
 31
0.0
  0
LINE
  5
233
100
AcDbEntity
  8
LAY-2
  6
CONTINUOUS
 62
     3
100
AcDbLine
 10
135.81
 20
157.8
 30
0.0
 11
137.81
 21
157.8
 31
0.0
  0
LINE
  5
234
100
AcDbEntity
  8
LAY-2
  6
CONTINUOUS
 62
     3
100
AcDbLine
 10
135.81
 20
150.5
 30
0.0
 11
137.81
 21
150.5
 31
0.0
  0
LINE
  5
235
100
AcDbEntity
  8
LAY-2
  6
CONTINUOUS
 62
     3
100
AcDbLine
 10
139.06
 20
157.9
 30
0.0
 11
139.06
 21
150.4
 31
0.0
  0
LINE
  5
236
100
AcDbEntity
  8
LAY-2
  6
CONTINUOUS
 62
     3
100
AcDbLine
 10
137.81
 20
157.9
 30
0.0
 11
137.81
 21
150.4
 31
0.0
  0
LINE
  5
237
100
AcDbEntity
  8
LAY-2
  6
CONTINUOUS
 62
     3
100
AcDbLine
 10
139.06
 20
157.8
 30
0.0
 11
140.61
 21
157.8
 31
0.0
  0
LINE
  5
238
100
AcDbEntity
  8
LAY-2
  6
CONTINUOUS
 62
     3
100
AcDbLine
 10
139.06
 20
150.5
 30
0.0
 11
140.61
 21
150.5
 31
0.0
  0
ARC
  5
239
100
AcDbEntity
  8
LAY-2
  6
CONTINUOUS
 62
     3
100
AcDbCircle
 10
140.52923
 20
151.28077
 30
0.0
 40
0.784937
100
AcDbArc
 50
275.906185
 51
354.093815
  0
ARC
  5
23A
100
AcDbEntity
  8
LAY-2
  6
CONTINUOUS
 62
     3
100
AcDbCircle
 10
142.06
 20
156.85
 30
0.0
 40
0.25
100
AcDbArc
 50
6.588806
 51
177.265678
  0
ARC
  5
23B
100
AcDbEntity
  8
LAY-2
  6
CONTINUOUS
 62
     3
100
AcDbCircle
 10
143.06
 20
156.85
 30
0.0
 40
0.25
100
AcDbArc
 50
6.588806
 51
177.265678
  0
LINE
  5
23C
100
AcDbEntity
  8
LAY-2
  6
CONTINUOUS
 62
     3
100
AcDbLine
 10
143.311662
 20
156.85
 30
0.0
 11
143.811662
 21
156.85
 31
0.0
  0
ARC
  5
23D
100
AcDbEntity
  8
LAY-2
  6
CONTINUOUS
 62
     3
100
AcDbCircle
 10
144.06
 20
156.85
 30
0.0
 40
0.25
100
AcDbArc
 50
6.588806
 51
177.265678
  0
ARC
  5
23E
100
AcDbEntity
  8
LAY-2
  6
CONTINUOUS
 62
     3
100
AcDbCircle
 10
145.06
 20
156.85
 30
0.0
 40
0.25
100
AcDbArc
 50
6.588806
 51
177.265678
  0
LINE
  5
23F
100
AcDbEntity
  8
LAY-2
  6
CONTINUOUS
 62
     3
100
AcDbLine
 10
144.311662
 20
156.85
 30
0.0
 11
144.811662
 21
156.85
 31
0.0
  0
LINE
  5
240
100
AcDbEntity
  8
LAY-2
  6
CONTINUOUS
 62
     3
100
AcDbLine
 10
145.311662
 20
156.85
 30
0.0
 11
145.811662
 21
156.85
 31
0.0
  0
ARC
  5
241
100
AcDbEntity
  8
LAY-2
  6
CONTINUOUS
 62
     3
100
AcDbCircle
 10
146.06
 20
156.85
 30
0.0
 40
0.25
100
AcDbArc
 50
6.588806
 51
177.265678
  0
LINE
  5
242
100
AcDbEntity
  8
LAY-2
  6
CONTINUOUS
 62
     3
100
AcDbLine
 10
141.81
 20
151.45
 30
0.0
 11
142.308338
 21
151.45
 31
0.0
  0
LINE
  5
243
100
AcDbEntity
  8
LAY-2
  6
CONTINUOUS
 62
     3
100
AcDbLine
 10
142.808338
 20
151.45
 30
0.0
 11
143.31
 21
151.45
 31
0.0
  0
LINE
  5
244
100
AcDbEntity
  8
LAY-2
  6
CONTINUOUS
 62
     3
100
AcDbLine
 10
143.81
 20
151.45
 30
0.0
 11
144.308338
 21
151.45
 31
0.0
  0
ARC
  5
245
100
AcDbEntity
  8
LAY-2
  6
CONTINUOUS
 62
     3
100
AcDbCircle
 10
144.56
 20
151.45
 30
0.0
 40
0.25
100
AcDbArc
 50
186.588806
 51
357.265678
  0
LINE
  5
246
100
AcDbEntity
  8
LAY-2
  6
CONTINUOUS
 62
     3
100
AcDbLine
 10
144.808338
 20
151.45
 30
0.0
 11
145.31
 21
151.45
 31
0.0
  0
LINE
  5
247
100
AcDbEntity
  8
LAY-2
  6
CONTINUOUS
 62
     3
100
AcDbLine
 10
145.81
 20
151.45
 30
0.0
 11
146.308338
 21
151.45
 31
0.0
  0
ARC
  5
248
100
AcDbEntity
  8
LAY-2
  6
CONTINUOUS
 62
     3
100
AcDbCircle
 10
143.56
 20
151.45
 30
0.0
 40
0.25
100
AcDbArc
 50
186.588806
 51
354.203053
  0
ARC
  5
249
100
AcDbEntity
  8
LAY-2
  6
CONTINUOUS
 62
     3
100
AcDbCircle
 10
142.56
 20
151.45
 30
0.0
 40
0.25
100
AcDbArc
 50
186.588806
 51
357.265678
  0
ARC
  5
24A
100
AcDbEntity
  8
LAY-2
  6
CONTINUOUS
 62
     3
100
AcDbCircle
 10
145.56
 20
151.45
 30
0.0
 40
0.25
100
AcDbArc
 50
186.588806
 51
354.203053
  0
LINE
  5
24B
100
AcDbEntity
  8
LAY-2
  6
CONTINUOUS
 62
     3
100
AcDbLine
 10
141.810285
 20
156.861926
 30
0.0
 11
142.311651
 21
151.421314
 31
0.0
  0
LINE
  5
24C
100
AcDbEntity
  8
LAY-2
  6
CONTINUOUS
 62
     3
100
AcDbLine
 10
142.810285
 20
156.861926
 30
0.0
 11
143.311651
 21
151.421314
 31
0.0
  0
LINE
  5
24D
100
AcDbEntity
  8
LAY-2
  6
CONTINUOUS
 62
     3
100
AcDbLine
 10
143.810285
 20
156.861926
 30
0.0
 11
144.311651
 21
151.421314
 31
0.0
  0
LINE
  5
24E
100
AcDbEntity
  8
LAY-2
  6
CONTINUOUS
 62
     3
100
AcDbLine
 10
144.308349
 20
156.878686
 30
0.0
 11
144.809715
 21
151.438074
 31
0.0
  0
LINE
  5
24F
100
AcDbEntity
  8
LAY-2
  6
CONTINUOUS
 62
     3
100
AcDbLine
 10
144.810285
 20
156.861926
 30
0.0
 11
145.311651
 21
151.421314
 31
0.0
  0
LINE
  5
250
100
AcDbEntity
  8
LAY-2
  6
CONTINUOUS
 62
     3
100
AcDbLine
 10
145.810285
 20
156.861926
 30
0.0
 11
146.311651
 21
151.421314
 31
0.0
  0
LINE
  5
251
100
AcDbEntity
  8
LAY-2
  6
CONTINUOUS
 62
     3
100
AcDbLine
 10
143.308349
 20
156.878686
 30
0.0
 11
143.808722
 21
151.424749
 31
0.0
  0
LINE
  5
252
100
AcDbEntity
  8
LAY-2
  6
CONTINUOUS
 62
     3
100
AcDbLine
 10
142.308349
 20
156.878686
 30
0.0
 11
142.809715
 21
151.438074
 31
0.0
  0
LINE
  5
253
100
AcDbEntity
  8
LAY-2
  6
CONTINUOUS
 62
     3
100
AcDbLine
 10
145.308349
 20
156.878686
 30
0.0
 11
145.808722
 21
151.424749
 31
0.0
  0
LINE
  5
254
100
AcDbEntity
  8
LAY-2
  6
CONTINUOUS
 62
     3
100
AcDbLine
 10
141.31
 20
157.1
 30
0.0
 11
141.31
 21
151.2
 31
0.0
  0
LINE
  5
255
100
AcDbEntity
  8
LAY-2
  6
CONTINUOUS
 62
     3
100
AcDbLine
 10
141.319579
 20
156.78146
 30
0.0
 11
141.811651
 21
151.421314
 31
0.0
  0
LINE
  5
256
100
AcDbEntity
  8
LAY-2
  6
CONTINUOUS
 62
     3
100
AcDbLine
 10
141.31
 20
156.85
 30
0.0
 11
141.811384
 21
156.85
 31
0.0
  0
LINE
  5
257
100
AcDbEntity
  8
LAY-2
  6
CONTINUOUS
 62
     3
100
AcDbLine
 10
142.310992
 20
156.85
 30
0.0
 11
142.811662
 21
156.85
 31
0.0
  0
ARC
  5
258
100
AcDbEntity
  8
LAY-2
  6
CONTINUOUS
 62
     3
100
AcDbCircle
 10
141.56
 20
151.45
 30
0.0
 40
0.25
100
AcDbArc
 50
186.588806
 51
357.265678
  0
ARC
  5
259
100
AcDbEntity
  8
LAY-2
  6
CONTINUOUS
 62
     3
100
AcDbCircle
 10
140.52923
 20
157.01923
 30
0.0
 40
0.784937
100
AcDbArc
 50
5.906185
 51
84.093815
  0
LINE
  5
25A
100
AcDbEntity
  8
LAY-2
  6
CONTINUOUS
 62
     3
100
AcDbLine
 10
165.81
 20
157.8
 30
0.0
 11
165.81
 21
150.5
 31
0.0
  0
LINE
  5
25B
100
AcDbEntity
  8
LAY-2
  6
CONTINUOUS
 62
     3
100
AcDbLine
 10
163.81
 20
157.9
 30
0.0
 11
162.56
 21
157.9
 31
0.0
  0
CIRCLE
  5
25C
100
AcDbEntity
  8
LAY-2
  6
CONTINUOUS
 62
     3
100
AcDbCircle
 10
163.185
 20
158.525
 30
0.0
 40
0.625
  0
LINE
  5
25D
100
AcDbEntity
  8
LAY-2
  6
CONTINUOUS
 62
     3
100
AcDbLine
 10
163.797372
 20
158.4
 30
0.0
 11
162.572628
 21
158.4
 31
0.0
  0
LINE
  5
25E
100
AcDbEntity
  8
LAY-2
  6
CONTINUOUS
 62
     3
100
AcDbLine
 10
163.797372
 20
158.65
 30
0.0
 11
162.572628
 21
158.65
 31
0.0
  0
LINE
  5
25F
100
AcDbEntity
  8
LAY-2
  6
CONTINUOUS
 62
     3
100
AcDbLine
 10
163.81
 20
150.4
 30
0.0
 11
162.56
 21
150.4
 31
0.0
  0
LINE
  5
260
100
AcDbEntity
  8
LAY-2
  6
CONTINUOUS
 62
     3
100
AcDbLine
 10
162.56
 20
157.9
 30
0.0
 11
162.56
 21
150.4
 31
0.0
  0
LINE
  5
261
100
AcDbEntity
  8
LAY-2
  6
CONTINUOUS
 62
     3
100
AcDbLine
 10
163.81
 20
157.9
 30
0.0
 11
163.81
 21
150.4
 31
0.0
  0
LINE
  5
262
100
AcDbEntity
  8
LAY-2
  6
CONTINUOUS
 62
     3
100
AcDbLine
 10
165.81
 20
157.8
 30
0.0
 11
163.81
 21
157.8
 31
0.0
  0
LINE
  5
263
100
AcDbEntity
  8
LAY-2
  6
CONTINUOUS
 62
     3
100
AcDbLine
 10
165.81
 20
150.5
 30
0.0
 11
163.81
 21
150.5
 31
0.0
  0
LINE
  5
264
100
AcDbEntity
  8
LAY-2
  6
CONTINUOUS
 62
     3
100
AcDbLine
 10
162.56
 20
157.8
 30
0.0
 11
161.01
 21
157.8
 31
0.0
  0
LINE
  5
265
100
AcDbEntity
  8
LAY-2
  6
CONTINUOUS
 62
     3
100
AcDbLine
 10
162.56
 20
150.5
 30
0.0
 11
161.01
 21
150.5
 31
0.0
  0
ARC
  5
266
100
AcDbEntity
  8
LAY-2
  6
CONTINUOUS
 62
     3
100
AcDbCircle
 10
161.09077
 20
151.28077
 30
0.0
 40
0.784937
100
AcDbArc
 50
185.906185
 51
264.093815
  0
ARC
  5
267
100
AcDbEntity
  8
LAY-2
  6
CONTINUOUS
 62
     3
100
AcDbCircle
 10
161.09077
 20
157.01923
 30
0.0
 40
0.784937
100
AcDbArc
 50
95.906185
 51
174.093815
  0
LINE
  5
268
100
AcDbEntity
  8
LAY-2
  6
CONTINUOUS
 62
     3
100
AcDbLine
 10
155.311662
 20
156.85
 30
0.0
 11
155.811662
 21
156.85
 31
0.0
  0
ARC
  5
269
100
AcDbEntity
  8
LAY-2
  6
CONTINUOUS
 62
     3
100
AcDbCircle
 10
156.06
 20
156.85
 30
0.0
 40
0.25
100
AcDbArc
 50
6.588806
 51
177.265678
  0
ARC
  5
26A
100
AcDbEntity
  8
LAY-2
  6
CONTINUOUS
 62
     3
100
AcDbCircle
 10
157.06
 20
156.85
 30
0.0
 40
0.25
100
AcDbArc
 50
6.588806
 51
177.265678
  0
LINE
  5
26B
100
AcDbEntity
  8
LAY-2
  6
CONTINUOUS
 62
     3
100
AcDbLine
 10
156.311662
 20
156.85
 30
0.0
 11
156.811662
 21
156.85
 31
0.0
  0
LINE
  5
26C
100
AcDbEntity
  8
LAY-2
  6
CONTINUOUS
 62
     3
100
AcDbLine
 10
157.311662
 20
156.85
 30
0.0
 11
157.811662
 21
156.85
 31
0.0
  0
ARC
  5
26D
100
AcDbEntity
  8
LAY-2
  6
CONTINUOUS
 62
     3
100
AcDbCircle
 10
158.06
 20
156.85
 30
0.0
 40
0.25
100
AcDbArc
 50
6.588806
 51
177.265678
  0
ARC
  5
26E
100
AcDbEntity
  8
LAY-2
  6
CONTINUOUS
 62
     3
100
AcDbCircle
 10
159.06
 20
156.85
 30
0.0
 40
0.25
100
AcDbArc
 50
6.588806
 51
177.265678
  0
LINE
  5
26F
100
AcDbEntity
  8
LAY-2
  6
CONTINUOUS
 62
     3
100
AcDbLine
 10
158.311662
 20
156.85
 30
0.0
 11
158.811662
 21
156.85
 31
0.0
  0
LINE
  5
270
100
AcDbEntity
  8
LAY-2
  6
CONTINUOUS
 62
     3
100
AcDbLine
 10
159.311662
 20
156.85
 30
0.0
 11
159.811662
 21
156.85
 31
0.0
  0
ARC
  5
271
100
AcDbEntity
  8
LAY-2
  6
CONTINUOUS
 62
     3
100
AcDbCircle
 10
160.06
 20
156.85
 30
0.0
 40
0.25
100
AcDbArc
 50
6.588806
 51
177.265678
  0
LINE
  5
272
100
AcDbEntity
  8
LAY-2
  6
CONTINUOUS
 62
     3
100
AcDbLine
 10
155.81
 20
151.45
 30
0.0
 11
156.308338
 21
151.45
 31
0.0
  0
LINE
  5
273
100
AcDbEntity
  8
LAY-2
  6
CONTINUOUS
 62
     3
100
AcDbLine
 10
156.808338
 20
151.45
 30
0.0
 11
157.31
 21
151.45
 31
0.0
  0
LINE
  5
274
100
AcDbEntity
  8
LAY-2
  6
CONTINUOUS
 62
     3
100
AcDbLine
 10
157.81
 20
151.45
 30
0.0
 11
158.308338
 21
151.45
 31
0.0
  0
LINE
  5
275
100
AcDbEntity
  8
LAY-2
  6
CONTINUOUS
 62
     3
100
AcDbLine
 10
158.808338
 20
151.45
 30
0.0
 11
159.31
 21
151.45
 31
0.0
  0
LINE
  5
276
100
AcDbEntity
  8
LAY-2
  6
CONTINUOUS
 62
     3
100
AcDbLine
 10
159.81
 20
151.45
 30
0.0
 11
160.308338
 21
151.45
 31
0.0
  0
ARC
  5
277
100
AcDbEntity
  8
LAY-2
  6
CONTINUOUS
 62
     3
100
AcDbCircle
 10
155.56
 20
151.45
 30
0.0
 40
0.25
100
AcDbArc
 50
186.588806
 51
354.203053
  0
ARC
  5
278
100
AcDbEntity
  8
LAY-2
  6
CONTINUOUS
 62
     3
100
AcDbCircle
 10
156.56
 20
151.45
 30
0.0
 40
0.25
100
AcDbArc
 50
186.588806
 51
357.265678
  0
ARC
  5
279
100
AcDbEntity
  8
LAY-2
  6
CONTINUOUS
 62
     3
100
AcDbCircle
 10
157.56
 20
151.45
 30
0.0
 40
0.25
100
AcDbArc
 50
186.588806
 51
354.203053
  0
ARC
  5
27A
100
AcDbEntity
  8
LAY-2
  6
CONTINUOUS
 62
     3
100
AcDbCircle
 10
158.56
 20
151.45
 30
0.0
 40
0.25
100
AcDbArc
 50
186.588806
 51
357.265678
  0
ARC
  5
27B
100
AcDbEntity
  8
LAY-2
  6
CONTINUOUS
 62
     3
100
AcDbCircle
 10
159.56
 20
151.45
 30
0.0
 40
0.25
100
AcDbArc
 50
186.588806
 51
354.203053
  0
LINE
  5
27C
100
AcDbEntity
  8
LAY-2
  6
CONTINUOUS
 62
     3
100
AcDbLine
 10
155.810285
 20
156.861926
 30
0.0
 11
156.311651
 21
151.421314
 31
0.0
  0
LINE
  5
27D
100
AcDbEntity
  8
LAY-2
  6
CONTINUOUS
 62
     3
100
AcDbLine
 10
156.810285
 20
156.861926
 30
0.0
 11
157.311651
 21
151.421314
 31
0.0
  0
LINE
  5
27E
100
AcDbEntity
  8
LAY-2
  6
CONTINUOUS
 62
     3
100
AcDbLine
 10
157.810285
 20
156.861926
 30
0.0
 11
158.311651
 21
151.421314
 31
0.0
  0
LINE
  5
27F
100
AcDbEntity
  8
LAY-2
  6
CONTINUOUS
 62
     3
100
AcDbLine
 10
158.810285
 20
156.861926
 30
0.0
 11
159.311651
 21
151.421314
 31
0.0
  0
LINE
  5
280
100
AcDbEntity
  8
LAY-2
  6
CONTINUOUS
 62
     3
100
AcDbLine
 10
159.810285
 20
156.861926
 30
0.0
 11
160.311651
 21
151.421314
 31
0.0
  0
LINE
  5
281
100
AcDbEntity
  8
LAY-2
  6
CONTINUOUS
 62
     3
100
AcDbLine
 10
155.308349
 20
156.878686
 30
0.0
 11
155.808722
 21
151.424749
 31
0.0
  0
LINE
  5
282
100
AcDbEntity
  8
LAY-2
  6
CONTINUOUS
 62
     3
100
AcDbLine
 10
156.308349
 20
156.878686
 30
0.0
 11
156.809715
 21
151.438074
 31
0.0
  0
LINE
  5
283
100
AcDbEntity
  8
LAY-2
  6
CONTINUOUS
 62
     3
100
AcDbLine
 10
157.308349
 20
156.878686
 30
0.0
 11
157.808722
 21
151.424749
 31
0.0
  0
LINE
  5
284
100
AcDbEntity
  8
LAY-2
  6
CONTINUOUS
 62
     3
100
AcDbLine
 10
158.308349
 20
156.878686
 30
0.0
 11
158.809715
 21
151.438074
 31
0.0
  0
LINE
  5
285
100
AcDbEntity
  8
LAY-2
  6
CONTINUOUS
 62
     3
100
AcDbLine
 10
159.308349
 20
156.878686
 30
0.0
 11
159.808722
 21
151.424749
 31
0.0
  0
LINE
  5
286
100
AcDbEntity
  8
LAY-2
  6
CONTINUOUS
 62
     3
100
AcDbLine
 10
160.31
 20
151.2
 30
0.0
 11
160.31
 21
157.1
 31
0.0
  0
ARC
  5
287
100
AcDbEntity
  8
LAY-2
  6
CONTINUOUS
 62
     3
100
AcDbCircle
 10
147.06
 20
156.85
 30
0.0
 40
0.25
100
AcDbArc
 50
6.588806
 51
177.265678
  0
LINE
  5
288
100
AcDbEntity
  8
LAY-2
  6
CONTINUOUS
 62
     3
100
AcDbLine
 10
146.311662
 20
156.85
 30
0.0
 11
146.811662
 21
156.85
 31
0.0
  0
LINE
  5
289
100
AcDbEntity
  8
LAY-2
  6
CONTINUOUS
 62
     3
100
AcDbLine
 10
146.808338
 20
151.45
 30
0.0
 11
147.31
 21
151.45
 31
0.0
  0
LINE
  5
28A
100
AcDbEntity
  8
LAY-2
  6
CONTINUOUS
 62
     3
100
AcDbLine
 10
146.810285
 20
156.861926
 30
0.0
 11
147.311651
 21
151.421314
 31
0.0
  0
LINE
  5
28B
100
AcDbEntity
  8
LAY-2
  6
CONTINUOUS
 62
     3
100
AcDbLine
 10
146.308349
 20
156.878686
 30
0.0
 11
146.809715
 21
151.438074
 31
0.0
  0
ARC
  5
28C
100
AcDbEntity
  8
LAY-2
  6
CONTINUOUS
 62
     3
100
AcDbCircle
 10
146.56
 20
151.45
 30
0.0
 40
0.25
100
AcDbArc
 50
186.588806
 51
357.265678
  0
ARC
  5
28D
100
AcDbEntity
  8
LAY-2
  6
CONTINUOUS
 62
     3
100
AcDbCircle
 10
147.56
 20
151.45
 30
0.0
 40
0.25
100
AcDbArc
 50
186.588806
 51
354.203053
  0
LINE
  5
28E
100
AcDbEntity
  8
LAY-2
  6
CONTINUOUS
 62
     3
100
AcDbLine
 10
147.308349
 20
156.878686
 30
0.0
 11
147.808722
 21
151.424749
 31
0.0
  0
ARC
  5
28F
100
AcDbEntity
  8
LAY-2
  6
CONTINUOUS
 62
     3
100
AcDbCircle
 10
154.06
 20
156.85
 30
0.0
 40
0.25
100
AcDbArc
 50
6.588806
 51
177.265678
  0
LINE
  5
290
100
AcDbEntity
  8
LAY-2
  6
CONTINUOUS
 62
     3
100
AcDbLine
 10
154.311662
 20
156.85
 30
0.0
 11
154.811662
 21
156.85
 31
0.0
  0
ARC
  5
291
100
AcDbEntity
  8
LAY-2
  6
CONTINUOUS
 62
     3
100
AcDbCircle
 10
154.56
 20
151.45
 30
0.0
 40
0.25
100
AcDbArc
 50
186.588806
 51
357.265678
  0
LINE
  5
292
100
AcDbEntity
  8
LAY-2
  6
CONTINUOUS
 62
     3
100
AcDbLine
 10
153.810285
 20
156.861926
 30
0.0
 11
154.311651
 21
151.421314
 31
0.0
  0
LINE
  5
293
100
AcDbEntity
  8
LAY-2
  6
CONTINUOUS
 62
     3
100
AcDbLine
 10
154.308349
 20
156.878686
 30
0.0
 11
154.809715
 21
151.438074
 31
0.0
  0
ARC
  5
294
100
AcDbEntity
  8
LAY-2
  6
CONTINUOUS
 62
     3
100
AcDbCircle
 10
155.06
 20
156.85
 30
0.0
 40
0.25
100
AcDbArc
 50
6.588806
 51
177.265678
  0
LINE
  5
295
100
AcDbEntity
  8
LAY-2
  6
CONTINUOUS
 62
     3
100
AcDbLine
 10
154.808338
 20
151.45
 30
0.0
 11
155.31
 21
151.45
 31
0.0
  0
LINE
  5
296
100
AcDbEntity
  8
LAY-2
  6
CONTINUOUS
 62
     3
100
AcDbLine
 10
154.810285
 20
156.861926
 30
0.0
 11
155.311651
 21
151.421314
 31
0.0
  0
LINE
  5
297
100
AcDbEntity
  8
LAY-2
  6
EXLTYPE3
 62
     1
100
AcDbLine
 10
147.048109
 20
157.099717
 30
0.0
 11
154.048109
 21
157.099717
 31
0.0
  0
LINE
  5
298
100
AcDbEntity
  8
LAY-2
  6
EXLTYPE3
 62
     1
100
AcDbLine
 10
154.56
 20
151.2
 30
0.0
 11
147.56
 21
151.2
 31
0.0
  0
LINE
  5
299
100
AcDbEntity
  8
LAY-2
  6
EXLTYPE4
 62
     6
100
AcDbLine
 10
204.5
 20
158.292789
 30
0.0
 11
204.5
 21
150.007211
 31
0.0
  0
LINE
  5
29A
100
AcDbEntity
  8
LAY-2
  6
EXLTYPE3
 62
     1
100
AcDbLine
 10
195.5
 20
154.15
 30
0.0
 11
227.5
 21
154.15
 31
0.0
  0
LINE
  5
29B
100
AcDbEntity
  8
LAY-2
  6
EXLTYPE4
 62
     6
100
AcDbLine
 10
218.5
 20
158.292789
 30
0.0
 11
218.5
 21
150.007211
 31
0.0
  0
LINE
  5
29C
100
AcDbEntity
  8
LAY-2
  6
CONTINUOUS
 62
     3
100
AcDbLine
 10
196.5
 20
158.4
 30
0.0
 11
196.5
 21
149.9
 31
0.0
  0
LINE
  5
29D
100
AcDbEntity
  8
LAY-2
  6
CONTINUOUS
 62
     3
100
AcDbLine
 10
200.0
 20
158.5
 30
0.0
 11
201.25
 21
158.5
 31
0.0
  0
CIRCLE
  5
29E
100
AcDbEntity
  8
LAY-2
  6
CONTINUOUS
 62
     3
100
AcDbCircle
 10
200.625
 20
159.125
 30
0.0
 40
0.625
  0
LINE
  5
29F
100
AcDbEntity
  8
LAY-2
  6
CONTINUOUS
 62
     3
100
AcDbLine
 10
200.012628
 20
159.0
 30
0.0
 11
201.237372
 21
159.0
 31
0.0
  0
LINE
  5
2A0
100
AcDbEntity
  8
LAY-2
  6
CONTINUOUS
 62
     3
100
AcDbLine
 10
200.012628
 20
159.25
 30
0.0
 11
201.237372
 21
159.25
 31
0.0
  0
LINE
  5
2A1
100
AcDbEntity
  8
LAY-2
  6
CONTINUOUS
 62
     3
100
AcDbLine
 10
200.0
 20
149.8
 30
0.0
 11
201.25
 21
149.8
 31
0.0
  0
LINE
  5
2A2
100
AcDbEntity
  8
LAY-2
  6
CONTINUOUS
 62
     3
100
AcDbLine
 10
196.5
 20
158.4
 30
0.0
 11
200.0
 21
158.4
 31
0.0
  0
LINE
  5
2A3
100
AcDbEntity
  8
LAY-2
  6
CONTINUOUS
 62
     3
100
AcDbLine
 10
196.5
 20
149.9
 30
0.0
 11
200.0
 21
149.9
 31
0.0
  0
LINE
  5
2A4
100
AcDbEntity
  8
LAY-2
  6
CONTINUOUS
 62
     3
100
AcDbLine
 10
201.25
 20
158.5
 30
0.0
 11
201.25
 21
149.8
 31
0.0
  0
LINE
  5
2A5
100
AcDbEntity
  8
LAY-2
  6
CONTINUOUS
 62
     3
100
AcDbLine
 10
200.0
 20
158.5
 30
0.0
 11
200.0
 21
149.8
 31
0.0
  0
LINE
  5
2A6
100
AcDbEntity
  8
LAY-2
  6
CONTINUOUS
 62
     3
100
AcDbLine
 10
201.25
 20
149.9
 30
0.0
 11
204.2
 21
149.9
 31
0.0
  0
LINE
  5
2A7
100
AcDbEntity
  8
LAY-2
  6
CONTINUOUS
 62
     3
100
AcDbLine
 10
201.25
 20
158.4
 30
0.0
 11
204.2
 21
158.4
 31
0.0
  0
ARC
  5
2A8
100
AcDbEntity
  8
LAY-2
  6
CONTINUOUS
 62
     3
100
AcDbCircle
 10
204.018342
 20
157.418342
 30
0.0
 40
0.998325
100
AcDbArc
 50
10.484123
 51
79.515877
  0
ARC
  5
2A9
100
AcDbEntity
  8
LAY-2
  6
CONTINUOUS
 62
     3
100
AcDbCircle
 10
204.018342
 20
150.881658
 30
0.0
 40
0.998325
100
AcDbArc
 50
280.484123
 51
349.515877
  0
ARC
  5
2AA
100
AcDbEntity
  8
LAY-2
  6
CONTINUOUS
 62
     3
100
AcDbCircle
 10
209.25
 20
150.95
 30
0.0
 40
0.25
100
AcDbArc
 50
186.588806
 51
357.265678
  0
LINE
  5
2AB
100
AcDbEntity
  8
LAY-2
  6
CONTINUOUS
 62
     3
100
AcDbLine
 10
206.500285
 20
157.361926
 30
0.0
 11
207.001651
 21
150.921314
 31
0.0
  0
LINE
  5
2AC
100
AcDbEntity
  8
LAY-2
  6
CONTINUOUS
 62
     3
100
AcDbLine
 10
207.500285
 20
157.361926
 30
0.0
 11
208.001651
 21
150.921314
 31
0.0
  0
LINE
  5
2AD
100
AcDbEntity
  8
LAY-2
  6
CONTINUOUS
 62
     3
100
AcDbLine
 10
208.500285
 20
157.361926
 30
0.0
 11
209.001651
 21
150.921314
 31
0.0
  0
LINE
  5
2AE
100
AcDbEntity
  8
LAY-2
  6
CONTINUOUS
 62
     3
100
AcDbLine
 10
207.998349
 20
157.378686
 30
0.0
 11
208.497812
 21
150.916999
 31
0.0
  0
LINE
  5
2AF
100
AcDbEntity
  8
LAY-2
  6
CONTINUOUS
 62
     3
100
AcDbLine
 10
206.998349
 20
157.378686
 30
0.0
 11
207.499715
 21
150.938074
 31
0.0
  0
LINE
  5
2B0
100
AcDbEntity
  8
LAY-2
  6
CONTINUOUS
 62
     3
100
AcDbLine
 10
205.998349
 20
157.378686
 30
0.0
 11
206.497168
 21
150.925846
 31
0.0
  0
LINE
  5
2B1
100
AcDbEntity
  8
LAY-2
  6
CONTINUOUS
 62
     3
100
AcDbLine
 10
205.498349
 20
157.378686
 30
0.0
 11
205.997812
 21
150.916999
 31
0.0
  0
LINE
  5
2B2
100
AcDbEntity
  8
LAY-2
  6
CONTINUOUS
 62
     3
100
AcDbLine
 10
205.000285
 20
157.361926
 30
0.0
 11
205.501651
 21
150.921314
 31
0.0
  0
LINE
  5
2B3
100
AcDbEntity
  8
LAY-2
  6
CONTINUOUS
 62
     3
100
AcDbLine
 10
205.0
 20
157.6
 30
0.0
 11
205.0
 21
150.7
 31
0.0
  0
LINE
  5
2B4
100
AcDbEntity
  8
LAY-2
  6
CONTINUOUS
 62
     3
100
AcDbLine
 10
206.001662
 20
157.35
 30
0.0
 11
206.501662
 21
157.35
 31
0.0
  0
ARC
  5
2B5
100
AcDbEntity
  8
LAY-2
  6
CONTINUOUS
 62
     3
100
AcDbCircle
 10
206.75
 20
157.35
 30
0.0
 40
0.25
100
AcDbArc
 50
6.588806
 51
177.265678
  0
ARC
  5
2B6
100
AcDbEntity
  8
LAY-2
  6
CONTINUOUS
 62
     3
100
AcDbCircle
 10
207.75
 20
157.35
 30
0.0
 40
0.25
100
AcDbArc
 50
6.588806
 51
177.265678
  0
LINE
  5
2B7
100
AcDbEntity
  8
LAY-2
  6
CONTINUOUS
 62
     3
100
AcDbLine
 10
207.001662
 20
157.35
 30
0.0
 11
207.501662
 21
157.35
 31
0.0
  0
LINE
  5
2B8
100
AcDbEntity
  8
LAY-2
  6
CONTINUOUS
 62
     3
100
AcDbLine
 10
208.001662
 20
157.35
 30
0.0
 11
208.501662
 21
157.35
 31
0.0
  0
ARC
  5
2B9
100
AcDbEntity
  8
LAY-2
  6
CONTINUOUS
 62
     3
100
AcDbCircle
 10
208.75
 20
157.35
 30
0.0
 40
0.25
100
AcDbArc
 50
6.588806
 51
177.265678
  0
ARC
  5
2BA
100
AcDbEntity
  8
LAY-2
  6
CONTINUOUS
 62
     3
100
AcDbCircle
 10
205.75
 20
157.35
 30
0.0
 40
0.25
100
AcDbArc
 50
6.588806
 51
177.265678
  0
LINE
  5
2BB
100
AcDbEntity
  8
LAY-2
  6
CONTINUOUS
 62
     3
100
AcDbLine
 10
205.001662
 20
157.35
 30
0.0
 11
205.501662
 21
157.35
 31
0.0
  0
LINE
  5
2BC
100
AcDbEntity
  8
LAY-2
  6
CONTINUOUS
 62
     3
100
AcDbLine
 10
206.5
 20
150.95
 30
0.0
 11
206.998338
 21
150.95
 31
0.0
  0
LINE
  5
2BD
100
AcDbEntity
  8
LAY-2
  6
CONTINUOUS
 62
     3
100
AcDbLine
 10
207.498338
 20
150.95
 30
0.0
 11
208.0
 21
150.95
 31
0.0
  0
LINE
  5
2BE
100
AcDbEntity
  8
LAY-2
  6
CONTINUOUS
 62
     3
100
AcDbLine
 10
208.5
 20
150.95
 30
0.0
 11
208.998338
 21
150.95
 31
0.0
  0
ARC
  5
2BF
100
AcDbEntity
  8
LAY-2
  6
CONTINUOUS
 62
     3
100
AcDbCircle
 10
208.25
 20
150.95
 30
0.0
 40
0.25
100
AcDbArc
 50
186.588806
 51
352.414522
  0
ARC
  5
2C0
100
AcDbEntity
  8
LAY-2
  6
CONTINUOUS
 62
     3
100
AcDbCircle
 10
207.25
 20
150.95
 30
0.0
 40
0.25
100
AcDbArc
 50
186.588806
 51
357.265678
  0
ARC
  5
2C1
100
AcDbEntity
  8
LAY-2
  6
CONTINUOUS
 62
     3
100
AcDbCircle
 10
206.248338
 20
150.95
 30
0.0
 40
0.25
100
AcDbArc
 50
191.216275
 51
354.455671
  0
LINE
  5
2C2
100
AcDbEntity
  8
LAY-2
  6
CONTINUOUS
 62
     3
100
AcDbLine
 10
205.99541
 20
150.95
 30
0.0
 11
205.999549
 21
150.95
 31
0.0
  0
LINE
  5
2C3
100
AcDbEntity
  8
LAY-2
  6
CONTINUOUS
 62
     3
100
AcDbLine
 10
205.5
 20
150.95
 30
0.0
 11
206.0
 21
150.95
 31
0.0
  0
ARC
  5
2C4
100
AcDbEntity
  8
LAY-2
  6
CONTINUOUS
 62
     3
100
AcDbCircle
 10
205.246676
 20
150.95
 30
0.0
 40
0.25
100
AcDbArc
 50
191.216275
 51
354.455671
  0
LINE
  5
2C5
100
AcDbEntity
  8
LAY-2
  6
CONTINUOUS
 62
     3
100
AcDbLine
 10
208.998349
 20
157.378686
 30
0.0
 11
209.499715
 21
150.938074
 31
0.0
  0
LINE
  5
2C6
100
AcDbEntity
  8
LAY-2
  6
CONTINUOUS
 62
     3
100
AcDbLine
 10
221.75
 20
158.4
 30
0.0
 11
218.8
 21
158.4
 31
0.0
  0
LINE
  5
2C7
100
AcDbEntity
  8
LAY-2
  6
CONTINUOUS
 62
     3
100
AcDbLine
 10
226.5
 20
149.9
 30
0.0
 11
226.5
 21
158.4
 31
0.0
  0
LINE
  5
2C8
100
AcDbEntity
  8
LAY-2
  6
CONTINUOUS
 62
     3
100
AcDbLine
 10
226.5
 20
149.9
 30
0.0
 11
223.0
 21
149.9
 31
0.0
  0
LINE
  5
2C9
100
AcDbEntity
  8
LAY-2
  6
CONTINUOUS
 62
     3
100
AcDbLine
 10
226.5
 20
158.4
 30
0.0
 11
223.0
 21
158.4
 31
0.0
  0
LINE
  5
2CA
100
AcDbEntity
  8
LAY-2
  6
CONTINUOUS
 62
     3
100
AcDbLine
 10
223.0
 20
158.5
 30
0.0
 11
221.75
 21
158.5
 31
0.0
  0
CIRCLE
  5
2CB
100
AcDbEntity
  8
LAY-2
  6
CONTINUOUS
 62
     3
100
AcDbCircle
 10
222.375
 20
159.125
 30
0.0
 40
0.625
  0
LINE
  5
2CC
100
AcDbEntity
  8
LAY-2
  6
CONTINUOUS
 62
     3
100
AcDbLine
 10
222.987372
 20
159.0
 30
0.0
 11
221.762628
 21
159.0
 31
0.0
  0
LINE
  5
2CD
100
AcDbEntity
  8
LAY-2
  6
CONTINUOUS
 62
     3
100
AcDbLine
 10
222.987372
 20
159.25
 30
0.0
 11
221.762628
 21
159.25
 31
0.0
  0
LINE
  5
2CE
100
AcDbEntity
  8
LAY-2
  6
CONTINUOUS
 62
     3
100
AcDbLine
 10
223.0
 20
149.8
 30
0.0
 11
221.75
 21
149.8
 31
0.0
  0
LINE
  5
2CF
100
AcDbEntity
  8
LAY-2
  6
CONTINUOUS
 62
     3
100
AcDbLine
 10
221.75
 20
158.5
 30
0.0
 11
221.75
 21
149.8
 31
0.0
  0
LINE
  5
2D0
100
AcDbEntity
  8
LAY-2
  6
CONTINUOUS
 62
     3
100
AcDbLine
 10
223.0
 20
158.5
 30
0.0
 11
223.0
 21
149.8
 31
0.0
  0
LINE
  5
2D1
100
AcDbEntity
  8
LAY-2
  6
CONTINUOUS
 62
     3
100
AcDbLine
 10
221.75
 20
149.9
 30
0.0
 11
218.8
 21
149.9
 31
0.0
  0
ARC
  5
2D2
100
AcDbEntity
  8
LAY-2
  6
CONTINUOUS
 62
     3
100
AcDbCircle
 10
218.981658
 20
157.418342
 30
0.0
 40
0.998325
100
AcDbArc
 50
100.484123
 51
169.515877
  0
ARC
  5
2D3
100
AcDbEntity
  8
LAY-2
  6
CONTINUOUS
 62
     3
100
AcDbCircle
 10
218.981658
 20
150.881658
 30
0.0
 40
0.998325
100
AcDbArc
 50
190.484123
 51
259.515877
  0
ARC
  5
2D4
100
AcDbEntity
  8
LAY-2
  6
CONTINUOUS
 62
     3
100
AcDbCircle
 10
213.75
 20
157.35
 30
0.0
 40
0.25
100
AcDbArc
 50
6.588806
 51
177.265678
  0
LINE
  5
2D5
100
AcDbEntity
  8
LAY-2
  6
CONTINUOUS
 62
     3
100
AcDbLine
 10
214.001662
 20
157.35
 30
0.0
 11
214.501662
 21
157.35
 31
0.0
  0
ARC
  5
2D6
100
AcDbEntity
  8
LAY-2
  6
CONTINUOUS
 62
     3
100
AcDbCircle
 10
214.75
 20
157.35
 30
0.0
 40
0.25
100
AcDbArc
 50
6.588806
 51
177.265678
  0
ARC
  5
2D7
100
AcDbEntity
  8
LAY-2
  6
CONTINUOUS
 62
     3
100
AcDbCircle
 10
215.75
 20
157.35
 30
0.0
 40
0.25
100
AcDbArc
 50
6.588806
 51
177.265678
  0
LINE
  5
2D8
100
AcDbEntity
  8
LAY-2
  6
CONTINUOUS
 62
     3
100
AcDbLine
 10
215.001662
 20
157.35
 30
0.0
 11
215.501662
 21
157.35
 31
0.0
  0
LINE
  5
2D9
100
AcDbEntity
  8
LAY-2
  6
CONTINUOUS
 62
     3
100
AcDbLine
 10
216.001662
 20
157.35
 30
0.0
 11
216.501662
 21
157.35
 31
0.0
  0
ARC
  5
2DA
100
AcDbEntity
  8
LAY-2
  6
CONTINUOUS
 62
     3
100
AcDbCircle
 10
216.75
 20
157.35
 30
0.0
 40
0.25
100
AcDbArc
 50
6.588806
 51
177.265678
  0
LINE
  5
2DB
100
AcDbEntity
  8
LAY-2
  6
CONTINUOUS
 62
     3
100
AcDbLine
 10
217.001662
 20
157.35
 30
0.0
 11
217.501662
 21
157.35
 31
0.0
  0
ARC
  5
2DC
100
AcDbEntity
  8
LAY-2
  6
CONTINUOUS
 62
     3
100
AcDbCircle
 10
217.75
 20
157.35
 30
0.0
 40
0.25
100
AcDbArc
 50
6.588806
 51
177.265678
  0
LINE
  5
2DD
100
AcDbEntity
  8
LAY-2
  6
CONTINUOUS
 62
     3
100
AcDbLine
 10
214.5
 20
150.95
 30
0.0
 11
214.998338
 21
150.95
 31
0.0
  0
LINE
  5
2DE
100
AcDbEntity
  8
LAY-2
  6
CONTINUOUS
 62
     3
100
AcDbLine
 10
215.498338
 20
150.95
 30
0.0
 11
216.0
 21
150.95
 31
0.0
  0
LINE
  5
2DF
100
AcDbEntity
  8
LAY-2
  6
CONTINUOUS
 62
     3
100
AcDbLine
 10
216.5
 20
150.95
 30
0.0
 11
216.998338
 21
150.95
 31
0.0
  0
ARC
  5
2E0
100
AcDbEntity
  8
LAY-2
  6
CONTINUOUS
 62
     3
100
AcDbCircle
 10
217.25
 20
150.95
 30
0.0
 40
0.25
100
AcDbArc
 50
186.588806
 51
357.265678
  0
LINE
  5
2E1
100
AcDbEntity
  8
LAY-2
  6
CONTINUOUS
 62
     3
100
AcDbLine
 10
217.498338
 20
150.95
 30
0.0
 11
218.0
 21
150.95
 31
0.0
  0
ARC
  5
2E2
100
AcDbEntity
  8
LAY-2
  6
CONTINUOUS
 62
     3
100
AcDbCircle
 10
214.25
 20
150.95
 30
0.0
 40
0.25
100
AcDbArc
 50
186.588806
 51
352.414522
  0
ARC
  5
2E3
100
AcDbEntity
  8
LAY-2
  6
CONTINUOUS
 62
     3
100
AcDbCircle
 10
215.25
 20
150.95
 30
0.0
 40
0.25
100
AcDbArc
 50
186.588806
 51
357.265678
  0
ARC
  5
2E4
100
AcDbEntity
  8
LAY-2
  6
CONTINUOUS
 62
     3
100
AcDbCircle
 10
216.25
 20
150.95
 30
0.0
 40
0.25
100
AcDbArc
 50
186.588806
 51
352.414522
  0
LINE
  5
2E5
100
AcDbEntity
  8
LAY-2
  6
CONTINUOUS
 62
     3
100
AcDbLine
 10
213.500285
 20
157.361926
 30
0.0
 11
214.001651
 21
150.921314
 31
0.0
  0
LINE
  5
2E6
100
AcDbEntity
  8
LAY-2
  6
CONTINUOUS
 62
     3
100
AcDbLine
 10
214.500285
 20
157.361926
 30
0.0
 11
215.001651
 21
150.921314
 31
0.0
  0
LINE
  5
2E7
100
AcDbEntity
  8
LAY-2
  6
CONTINUOUS
 62
     3
100
AcDbLine
 10
215.500285
 20
157.361926
 30
0.0
 11
216.001651
 21
150.921314
 31
0.0
  0
LINE
  5
2E8
100
AcDbEntity
  8
LAY-2
  6
CONTINUOUS
 62
     3
100
AcDbLine
 10
216.500285
 20
157.361926
 30
0.0
 11
217.001651
 21
150.921314
 31
0.0
  0
LINE
  5
2E9
100
AcDbEntity
  8
LAY-2
  6
CONTINUOUS
 62
     3
100
AcDbLine
 10
216.998349
 20
157.378686
 30
0.0
 11
217.499715
 21
150.938074
 31
0.0
  0
LINE
  5
2EA
100
AcDbEntity
  8
LAY-2
  6
CONTINUOUS
 62
     3
100
AcDbLine
 10
213.998349
 20
157.378686
 30
0.0
 11
214.497812
 21
150.916999
 31
0.0
  0
LINE
  5
2EB
100
AcDbEntity
  8
LAY-2
  6
CONTINUOUS
 62
     3
100
AcDbLine
 10
214.998349
 20
157.378686
 30
0.0
 11
215.499715
 21
150.938074
 31
0.0
  0
LINE
  5
2EC
100
AcDbEntity
  8
LAY-2
  6
CONTINUOUS
 62
     3
100
AcDbLine
 10
215.998349
 20
157.378686
 30
0.0
 11
216.497812
 21
150.916999
 31
0.0
  0
LINE
  5
2ED
100
AcDbEntity
  8
LAY-2
  6
CONTINUOUS
 62
     3
100
AcDbLine
 10
218.0
 20
150.7
 30
0.0
 11
218.0
 21
157.6
 31
0.0
  0
LINE
  5
2EE
100
AcDbEntity
  8
LAY-2
  6
CONTINUOUS
 62
     3
100
AcDbLine
 10
217.500285
 20
157.361926
 30
0.0
 11
218.001651
 21
150.921314
 31
0.0
  0
LINE
  5
2EF
100
AcDbEntity
  8
LAY-2
  6
EXLTYPE3
 62
     1
100
AcDbLine
 10
214.25
 20
150.7
 30
0.0
 11
209.25
 21
150.7
 31
0.0
  0
LINE
  5
2F0
100
AcDbEntity
  8
LAY-2
  6
EXLTYPE3
 62
     1
100
AcDbLine
 10
213.75
 20
157.6
 30
0.0
 11
208.75
 21
157.6
 31
0.0
  0
LINE
  5
2F1
100
AcDbEntity
  8
LAY-2
  6
EXLTYPE3
 62
     1
100
AcDbLine
 10
92.140967
 20
120.5
 30
0.0
 11
87.340967
 21
120.5
 31
0.0
  0
LINE
  5
2F2
100
AcDbEntity
  8
LAY-2
  6
EXLTYPE3
 62
     1
100
AcDbLine
 10
92.940967
 20
111.7
 30
0.0
 11
88.140967
 21
111.7
 31
0.0
  0
LINE
  5
2F3
100
AcDbEntity
  8
LAY-2
  6
EXLTYPE3
 62
     1
100
AcDbLine
 10
74.240967
 20
116.1
 30
0.0
 11
106.240967
 21
116.1
 31
0.0
  0
LINE
  5
2F4
100
AcDbEntity
  8
LAY-2
  6
EXLTYPE4
 62
     6
100
AcDbLine
 10
83.240967
 20
121.069231
 30
0.0
 11
83.240967
 21
111.130769
 31
0.0
  0
LINE
  5
2F5
100
AcDbEntity
  8
LAY-2
  6
CONTINUOUS
 62
     3
100
AcDbLine
 10
75.240967
 20
121.25
 30
0.0
 11
78.740967
 21
121.25
 31
0.0
  0
LINE
  5
2F6
100
AcDbEntity
  8
LAY-2
  6
CONTINUOUS
 62
     3
100
AcDbLine
 10
78.740967
 20
121.35
 30
0.0
 11
79.990967
 21
121.35
 31
0.0
  0
CIRCLE
  5
2F7
100
AcDbEntity
  8
LAY-2
  6
CONTINUOUS
 62
     3
100
AcDbCircle
 10
79.365967
 20
121.975
 30
0.0
 40
0.625
  0
LINE
  5
2F8
100
AcDbEntity
  8
LAY-2
  6
CONTINUOUS
 62
     3
100
AcDbLine
 10
78.753594
 20
121.85
 30
0.0
 11
79.978339
 21
121.85
 31
0.0
  0
LINE
  5
2F9
100
AcDbEntity
  8
LAY-2
  6
CONTINUOUS
 62
     3
100
AcDbLine
 10
78.753594
 20
122.1
 30
0.0
 11
79.978339
 21
122.1
 31
0.0
  0
LINE
  5
2FA
100
AcDbEntity
  8
LAY-2
  6
CONTINUOUS
 62
     3
100
AcDbLine
 10
78.740967
 20
110.85
 30
0.0
 11
79.990967
 21
110.85
 31
0.0
  0
LINE
  5
2FB
100
AcDbEntity
  8
LAY-2
  6
CONTINUOUS
 62
     3
100
AcDbLine
 10
79.990967
 20
121.35
 30
0.0
 11
79.990967
 21
110.85
 31
0.0
  0
LINE
  5
2FC
100
AcDbEntity
  8
LAY-2
  6
CONTINUOUS
 62
     3
100
AcDbLine
 10
78.740967
 20
121.35
 30
0.0
 11
78.740967
 21
110.85
 31
0.0
  0
LINE
  5
2FD
100
AcDbEntity
  8
LAY-2
  6
CONTINUOUS
 62
     3
100
AcDbLine
 10
75.240967
 20
110.95
 30
0.0
 11
78.740967
 21
110.95
 31
0.0
  0
LINE
  5
2FE
100
AcDbEntity
  8
LAY-2
  6
CONTINUOUS
 62
     3
100
AcDbLine
 10
75.240967
 20
121.25
 30
0.0
 11
75.240967
 21
110.95
 31
0.0
  0
LINE
  5
2FF
100
AcDbEntity
  8
LAY-2
  6
CONTINUOUS
 62
     3
100
AcDbLine
 10
79.990967
 20
121.25
 30
0.0
 11
82.840967
 21
121.25
 31
0.0
  0
LINE
  5
300
100
AcDbEntity
  8
LAY-2
  6
CONTINUOUS
 62
     3
100
AcDbLine
 10
79.990967
 20
110.95
 30
0.0
 11
82.840967
 21
110.95
 31
0.0
  0
LINE
  5
301
100
AcDbEntity
  8
LAY-2
  6
CONTINUOUS
 62
     3
100
AcDbLine
 10
105.240967
 20
121.25
 30
0.0
 11
101.740967
 21
121.25
 31
0.0
  0
LINE
  5
302
100
AcDbEntity
  8
LAY-2
  6
CONTINUOUS
 62
     3
100
AcDbLine
 10
101.740967
 20
121.35
 30
0.0
 11
100.490967
 21
121.35
 31
0.0
  0
CIRCLE
  5
303
100
AcDbEntity
  8
LAY-2
  6
CONTINUOUS
 62
     3
100
AcDbCircle
 10
101.115967
 20
121.975
 30
0.0
 40
0.625
  0
LINE
  5
304
100
AcDbEntity
  8
LAY-2
  6
CONTINUOUS
 62
     3
100
AcDbLine
 10
101.728339
 20
121.85
 30
0.0
 11
100.503594
 21
121.85
 31
0.0
  0
LINE
  5
305
100
AcDbEntity
  8
LAY-2
  6
CONTINUOUS
 62
     3
100
AcDbLine
 10
101.728339
 20
122.1
 30
0.0
 11
100.503594
 21
122.1
 31
0.0
  0
LINE
  5
306
100
AcDbEntity
  8
LAY-2
  6
CONTINUOUS
 62
     3
100
AcDbLine
 10
105.240967
 20
110.95
 30
0.0
 11
105.240967
 21
121.25
 31
0.0
  0
LINE
  5
307
100
AcDbEntity
  8
LAY-2
  6
CONTINUOUS
 62
     3
100
AcDbLine
 10
105.240967
 20
110.95
 30
0.0
 11
101.740967
 21
110.95
 31
0.0
  0
LINE
  5
308
100
AcDbEntity
  8
LAY-2
  6
CONTINUOUS
 62
     3
100
AcDbLine
 10
101.740967
 20
110.85
 30
0.0
 11
100.490967
 21
110.85
 31
0.0
  0
LINE
  5
309
100
AcDbEntity
  8
LAY-2
  6
CONTINUOUS
 62
     3
100
AcDbLine
 10
100.490967
 20
121.35
 30
0.0
 11
100.490967
 21
110.85
 31
0.0
  0
LINE
  5
30A
100
AcDbEntity
  8
LAY-2
  6
CONTINUOUS
 62
     3
100
AcDbLine
 10
101.740967
 20
121.35
 30
0.0
 11
101.740967
 21
110.85
 31
0.0
  0
LINE
  5
30B
100
AcDbEntity
  8
LAY-2
  6
CONTINUOUS
 62
     3
100
AcDbLine
 10
100.490967
 20
110.95
 30
0.0
 11
97.640967
 21
110.95
 31
0.0
  0
LINE
  5
30C
100
AcDbEntity
  8
LAY-2
  6
CONTINUOUS
 62
     3
100
AcDbLine
 10
100.490967
 20
121.25
 30
0.0
 11
97.640967
 21
121.25
 31
0.0
  0
ARC
  5
30D
100
AcDbEntity
  8
LAY-2
  6
CONTINUOUS
 62
     3
100
AcDbCircle
 10
97.943632
 20
120.047335
 30
0.0
 40
1.240165
100
AcDbArc
 50
104.12583
 51
165.87417
  0
LINE
  5
30E
100
AcDbEntity
  8
LAY-2
  6
CONTINUOUS
 62
     3
100
AcDbLine
 10
96.740967
 20
111.85
 30
0.0
 11
96.740967
 21
120.35
 31
0.0
  0
ARC
  5
30F
100
AcDbEntity
  8
LAY-2
  6
CONTINUOUS
 62
     3
100
AcDbCircle
 10
97.943632
 20
112.152665
 30
0.0
 40
1.240165
100
AcDbArc
 50
194.12583
 51
255.87417
  0
ARC
  5
310
100
AcDbEntity
  8
LAY-2
  6
CONTINUOUS
 62
     3
100
AcDbCircle
 10
82.538302
 20
120.047335
 30
0.0
 40
1.240165
100
AcDbArc
 50
14.12583
 51
75.87417
  0
ARC
  5
311
100
AcDbEntity
  8
LAY-2
  6
CONTINUOUS
 62
     3
100
AcDbCircle
 10
82.538302
 20
112.152665
 30
0.0
 40
1.240165
100
AcDbArc
 50
284.12583
 51
345.87417
  0
LINE
  5
312
100
AcDbEntity
  8
LAY-2
  6
CONTINUOUS
 62
     3
100
AcDbLine
 10
83.740967
 20
120.35
 30
0.0
 11
83.740967
 21
111.85
 31
0.0
  0
ARC
  5
313
100
AcDbEntity
  8
LAY-2
  6
CONTINUOUS
 62
     3
100
AcDbCircle
 10
84.140967
 20
120.1
 30
0.0
 40
0.4
100
AcDbArc
 50
0.0
 51
193.789941
  0
ARC
  5
314
100
AcDbEntity
  8
LAY-2
  6
CONTINUOUS
 62
     3
100
AcDbCircle
 10
87.340967
 20
120.1
 30
0.0
 40
0.4
100
AcDbArc
 50
0.0
 51
193.789941
  0
ARC
  5
315
100
AcDbEntity
  8
LAY-2
  6
CONTINUOUS
 62
     3
100
AcDbCircle
 10
85.740967
 20
120.1
 30
0.0
 40
0.4
100
AcDbArc
 50
0.0
 51
193.789941
  0
LINE
  5
316
100
AcDbEntity
  8
LAY-2
  6
CONTINUOUS
 62
     3
100
AcDbLine
 10
86.140967
 20
120.1
 30
0.0
 11
86.942962
 21
120.1
 31
0.0
  0
LINE
  5
317
100
AcDbEntity
  8
LAY-2
  6
CONTINUOUS
 62
     3
100
AcDbLine
 10
84.540967
 20
120.1
 30
0.0
 11
85.342962
 21
120.1
 31
0.0
  0
LINE
  5
318
100
AcDbEntity
  8
LAY-2
  6
CONTINUOUS
 62
     3
100
AcDbLine
 10
83.740967
 20
120.1
 30
0.0
 11
83.742962
 21
120.1
 31
0.0
  0
LINE
  5
319
100
AcDbEntity
  8
LAY-2
  6
CONTINUOUS
 62
     3
100
AcDbLine
 10
83.740967
 20
120.1
 30
0.0
 11
83.735925
 21
120.1
 31
0.0
  0
ARC
  5
31A
100
AcDbEntity
  8
LAY-2
  6
CONTINUOUS
 62
     3
100
AcDbCircle
 10
95.340967
 20
120.1
 30
0.0
 40
0.4
100
AcDbArc
 50
0.0
 51
193.789941
  0
ARC
  5
31B
100
AcDbEntity
  8
LAY-2
  6
CONTINUOUS
 62
     3
100
AcDbCircle
 10
93.740967
 20
120.1
 30
0.0
 40
0.4
100
AcDbArc
 50
0.0
 51
193.789941
  0
ARC
  5
31C
100
AcDbEntity
  8
LAY-2
  6
CONTINUOUS
 62
     3
100
AcDbCircle
 10
92.140967
 20
120.1
 30
0.0
 40
0.4
100
AcDbArc
 50
0.0
 51
193.789941
  0
LINE
  5
31D
100
AcDbEntity
  8
LAY-2
  6
CONTINUOUS
 62
     3
100
AcDbLine
 10
94.140967
 20
120.1
 30
0.0
 11
94.942962
 21
120.1
 31
0.0
  0
LINE
  5
31E
100
AcDbEntity
  8
LAY-2
  6
CONTINUOUS
 62
     3
100
AcDbLine
 10
92.540967
 20
120.1
 30
0.0
 11
93.342962
 21
120.1
 31
0.0
  0
LINE
  5
31F
100
AcDbEntity
  8
LAY-2
  6
CONTINUOUS
 62
     3
100
AcDbLine
 10
95.740967
 20
120.1
 30
0.0
 11
96.740967
 21
120.1
 31
0.0
  0
ARC
  5
320
100
AcDbEntity
  8
LAY-2
  6
CONTINUOUS
 62
     3
100
AcDbCircle
 10
92.940967
 20
112.1
 30
0.0
 40
0.4
100
AcDbArc
 50
180.0
 51
5.710593
  0
ARC
  5
321
100
AcDbEntity
  8
LAY-2
  6
CONTINUOUS
 62
     3
100
AcDbCircle
 10
94.540967
 20
112.1
 30
0.0
 40
0.4
100
AcDbArc
 50
180.0
 51
5.710593
  0
ARC
  5
322
100
AcDbEntity
  8
LAY-2
  6
CONTINUOUS
 62
     3
100
AcDbCircle
 10
96.140961
 20
112.097885
 30
0.0
 40
0.4
100
AcDbArc
 50
179.697026
 51
5.709054
  0
LINE
  5
323
100
AcDbEntity
  8
LAY-2
  6
CONTINUOUS
 62
     3
100
AcDbLine
 10
93.340967
 20
112.1
 30
0.0
 11
94.140967
 21
112.1
 31
0.0
  0
LINE
  5
324
100
AcDbEntity
  8
LAY-2
  6
CONTINUOUS
 62
     3
100
AcDbLine
 10
94.940967
 20
112.1
 30
0.0
 11
95.740967
 21
112.1
 31
0.0
  0
LINE
  5
325
100
AcDbEntity
  8
LAY-2
  6
CONTINUOUS
 62
     3
100
AcDbLine
 10
96.540955
 20
112.1
 30
0.0
 11
96.740967
 21
112.1
 31
0.0
  0
ARC
  5
326
100
AcDbEntity
  8
LAY-2
  6
CONTINUOUS
 62
     3
100
AcDbCircle
 10
84.940967
 20
112.1
 30
0.0
 40
0.4
100
AcDbArc
 50
180.0
 51
5.710593
  0
ARC
  5
327
100
AcDbEntity
  8
LAY-2
  6
CONTINUOUS
 62
     3
100
AcDbCircle
 10
86.540967
 20
112.1
 30
0.0
 40
0.4
100
AcDbArc
 50
180.0
 51
5.710593
  0
ARC
  5
328
100
AcDbEntity
  8
LAY-2
  6
CONTINUOUS
 62
     3
100
AcDbCircle
 10
88.140967
 20
112.1
 30
0.0
 40
0.4
100
AcDbArc
 50
180.0
 51
5.710593
  0
LINE
  5
329
100
AcDbEntity
  8
LAY-2
  6
CONTINUOUS
 62
     3
100
AcDbLine
 10
83.740967
 20
112.1
 30
0.0
 11
84.540967
 21
112.1
 31
0.0
  0
LINE
  5
32A
100
AcDbEntity
  8
LAY-2
  6
CONTINUOUS
 62
     3
100
AcDbLine
 10
85.340967
 20
112.1
 30
0.0
 11
86.140967
 21
112.1
 31
0.0
  0
LINE
  5
32B
100
AcDbEntity
  8
LAY-2
  6
CONTINUOUS
 62
     3
100
AcDbLine
 10
86.940967
 20
112.1
 30
0.0
 11
87.740967
 21
112.1
 31
0.0
  0
LINE
  5
32C
100
AcDbEntity
  8
LAY-2
  6
CONTINUOUS
 62
     3
100
AcDbLine
 10
83.740967
 20
112.1
 30
0.0
 11
83.735925
 21
112.1
 31
0.0
  0
LINE
  5
32D
100
AcDbEntity
  8
LAY-2
  6
CONTINUOUS
 62
     3
100
AcDbLine
 10
83.738982
 20
120.139801
 30
0.0
 11
84.538982
 21
112.139801
 31
0.0
  0
LINE
  5
32E
100
AcDbEntity
  8
LAY-2
  6
CONTINUOUS
 62
     3
100
AcDbLine
 10
84.538982
 20
120.139801
 30
0.0
 11
85.338982
 21
112.139801
 31
0.0
  0
LINE
  5
32F
100
AcDbEntity
  8
LAY-2
  6
CONTINUOUS
 62
     3
100
AcDbLine
 10
86.138982
 20
112.139801
 30
0.0
 11
85.338982
 21
120.139801
 31
0.0
  0
LINE
  5
330
100
AcDbEntity
  8
LAY-2
  6
CONTINUOUS
 62
     3
100
AcDbLine
 10
86.138982
 20
120.139801
 30
0.0
 11
86.938982
 21
112.139801
 31
0.0
  0
LINE
  5
331
100
AcDbEntity
  8
LAY-2
  6
CONTINUOUS
 62
     3
100
AcDbLine
 10
87.738982
 20
112.139801
 30
0.0
 11
86.938982
 21
120.139801
 31
0.0
  0
LINE
  5
332
100
AcDbEntity
  8
LAY-2
  6
CONTINUOUS
 62
     3
100
AcDbLine
 10
87.738982
 20
120.139801
 30
0.0
 11
88.538982
 21
112.139801
 31
0.0
  0
LINE
  5
333
100
AcDbEntity
  8
LAY-2
  6
CONTINUOUS
 62
     3
100
AcDbLine
 10
92.538982
 20
112.139801
 30
0.0
 11
91.738982
 21
120.139801
 31
0.0
  0
LINE
  5
334
100
AcDbEntity
  8
LAY-2
  6
CONTINUOUS
 62
     3
100
AcDbLine
 10
92.538982
 20
120.139801
 30
0.0
 11
93.338982
 21
112.139801
 31
0.0
  0
LINE
  5
335
100
AcDbEntity
  8
LAY-2
  6
CONTINUOUS
 62
     3
100
AcDbLine
 10
93.338982
 20
120.139801
 30
0.0
 11
94.138982
 21
112.139801
 31
0.0
  0
LINE
  5
336
100
AcDbEntity
  8
LAY-2
  6
CONTINUOUS
 62
     3
100
AcDbLine
 10
94.138982
 20
120.139801
 30
0.0
 11
94.938982
 21
112.139801
 31
0.0
  0
LINE
  5
337
100
AcDbEntity
  8
LAY-2
  6
CONTINUOUS
 62
     3
100
AcDbLine
 10
94.938982
 20
120.139801
 30
0.0
 11
95.738982
 21
112.139801
 31
0.0
  0
LINE
  5
338
100
AcDbEntity
  8
LAY-2
  6
CONTINUOUS
 62
     3
100
AcDbLine
 10
95.738983
 20
120.139791
 30
0.0
 11
96.538977
 21
112.137676
 31
0.0
  0
LINE
  5
339
100
AcDbEntity
  8
LAY-2
  6
EXLTYPE4
 62
     6
100
AcDbLine
 10
97.240967
 20
111.130769
 30
0.0
 11
97.240967
 21
121.069231
 31
0.0
  0
LINE
  5
33A
100
AcDbEntity
  8
LAY-2
  6
EXLTYPE3
 62
     1
100
AcDbLine
 10
129.81
 20
116.1
 30
0.0
 11
171.81
 21
116.1
 31
0.0
  0
LINE
  5
33B
100
AcDbEntity
  8
LAY-2
  6
EXLTYPE4
 62
     6
100
AcDbLine
 10
140.81
 20
122.36114
 30
0.0
 11
140.81
 21
109.83886
 31
0.0
  0
LINE
  5
33C
100
AcDbEntity
  8
LAY-2
  6
EXLTYPE4
 62
     6
100
AcDbLine
 10
160.81
 20
122.36114
 30
0.0
 11
160.81
 21
109.83886
 31
0.0
  0
LINE
  5
33D
100
AcDbEntity
  8
LAY-2
  6
CONTINUOUS
 62
     3
100
AcDbLine
 10
136.31
 20
109.7
 30
0.0
 11
137.56
 21
109.7
 31
0.0
  0
LINE
  5
33E
100
AcDbEntity
  8
LAY-2
  6
CONTINUOUS
 62
     3
100
AcDbLine
 10
132.81
 20
109.7
 30
0.0
 11
134.06
 21
109.7
 31
0.0
  0
LINE
  5
33F
100
AcDbEntity
  8
LAY-2
  6
CONTINUOUS
 62
     3
100
AcDbLine
 10
130.81
 20
109.8
 30
0.0
 11
132.81
 21
109.8
 31
0.0
  0
LINE
  5
340
100
AcDbEntity
  8
LAY-2
  6
CONTINUOUS
 62
     3
100
AcDbLine
 10
134.06
 20
109.8
 30
0.0
 11
136.31
 21
109.8
 31
0.0
  0
LINE
  5
341
100
AcDbEntity
  8
LAY-2
  6
CONTINUOUS
 62
     3
100
AcDbLine
 10
136.31
 20
122.5
 30
0.0
 11
137.56
 21
122.5
 31
0.0
  0
CIRCLE
  5
342
100
AcDbEntity
  8
LAY-2
  6
CONTINUOUS
 62
     3
100
AcDbCircle
 10
136.935
 20
123.125
 30
0.0
 40
0.625
  0
LINE
  5
343
100
AcDbEntity
  8
LAY-2
  6
CONTINUOUS
 62
     3
100
AcDbLine
 10
136.322628
 20
123.0
 30
0.0
 11
137.547372
 21
123.0
 31
0.0
  0
LINE
  5
344
100
AcDbEntity
  8
LAY-2
  6
CONTINUOUS
 62
     3
100
AcDbLine
 10
136.322628
 20
123.25
 30
0.0
 11
137.547372
 21
123.25
 31
0.0
  0
LINE
  5
345
100
AcDbEntity
  8
LAY-2
  6
CONTINUOUS
 62
     3
100
AcDbLine
 10
132.81
 20
122.5
 30
0.0
 11
134.06
 21
122.5
 31
0.0
  0
CIRCLE
  5
346
100
AcDbEntity
  8
LAY-2
  6
CONTINUOUS
 62
     3
100
AcDbCircle
 10
133.435
 20
123.125
 30
0.0
 40
0.625
  0
LINE
  5
347
100
AcDbEntity
  8
LAY-2
  6
CONTINUOUS
 62
     3
100
AcDbLine
 10
132.822628
 20
123.0
 30
0.0
 11
134.047372
 21
123.0
 31
0.0
  0
LINE
  5
348
100
AcDbEntity
  8
LAY-2
  6
CONTINUOUS
 62
     3
100
AcDbLine
 10
132.822628
 20
123.25
 30
0.0
 11
134.047372
 21
123.25
 31
0.0
  0
LINE
  5
349
100
AcDbEntity
  8
LAY-2
  6
CONTINUOUS
 62
     3
100
AcDbLine
 10
130.81
 20
122.4
 30
0.0
 11
132.81
 21
122.4
 31
0.0
  0
LINE
  5
34A
100
AcDbEntity
  8
LAY-2
  6
CONTINUOUS
 62
     3
100
AcDbLine
 10
134.06
 20
122.4
 30
0.0
 11
136.31
 21
122.4
 31
0.0
  0
LINE
  5
34B
100
AcDbEntity
  8
LAY-2
  6
CONTINUOUS
 62
     3
100
AcDbLine
 10
130.81
 20
122.4
 30
0.0
 11
130.81
 21
109.8
 31
0.0
  0
LINE
  5
34C
100
AcDbEntity
  8
LAY-2
  6
CONTINUOUS
 62
     3
100
AcDbLine
 10
134.06
 20
122.5
 30
0.0
 11
134.06
 21
109.7
 31
0.0
  0
LINE
  5
34D
100
AcDbEntity
  8
LAY-2
  6
CONTINUOUS
 62
     3
100
AcDbLine
 10
132.81
 20
122.5
 30
0.0
 11
132.81
 21
109.7
 31
0.0
  0
LINE
  5
34E
100
AcDbEntity
  8
LAY-2
  6
CONTINUOUS
 62
     3
100
AcDbLine
 10
137.56
 20
122.5
 30
0.0
 11
137.56
 21
109.7
 31
0.0
  0
LINE
  5
34F
100
AcDbEntity
  8
LAY-2
  6
CONTINUOUS
 62
     3
100
AcDbLine
 10
136.31
 20
122.5
 30
0.0
 11
136.31
 21
109.7
 31
0.0
  0
LINE
  5
350
100
AcDbEntity
  8
LAY-2
  6
CONTINUOUS
 62
     3
100
AcDbLine
 10
137.56
 20
109.8
 30
0.0
 11
140.71
 21
109.8
 31
0.0
  0
ARC
  5
351
100
AcDbEntity
  8
LAY-2
  6
CONTINUOUS
 62
     3
100
AcDbCircle
 10
140.104966
 20
111.505034
 30
0.0
 40
1.809201
100
AcDbArc
 50
289.537309
 51
340.462691
  0
LINE
  5
352
100
AcDbEntity
  8
LAY-2
  6
CONTINUOUS
 62
     3
100
AcDbLine
 10
141.81
 20
121.3
 30
0.0
 11
141.81
 21
110.9
 31
0.0
  0
ARC
  5
353
100
AcDbEntity
  8
LAY-2
  6
CONTINUOUS
 62
     3
100
AcDbCircle
 10
140.104966
 20
120.694966
 30
0.0
 40
1.809201
100
AcDbArc
 50
19.537309
 51
70.462691
  0
LINE
  5
354
100
AcDbEntity
  8
LAY-2
  6
CONTINUOUS
 62
     3
100
AcDbLine
 10
137.56
 20
122.4
 30
0.0
 11
140.71
 21
122.4
 31
0.0
  0
LINE
  5
355
100
AcDbEntity
  8
LAY-2
  6
CONTINUOUS
 62
     3
100
AcDbLine
 10
165.31
 20
109.7
 30
0.0
 11
164.06
 21
109.7
 31
0.0
  0
LINE
  5
356
100
AcDbEntity
  8
LAY-2
  6
CONTINUOUS
 62
     3
100
AcDbLine
 10
168.81
 20
109.7
 30
0.0
 11
167.56
 21
109.7
 31
0.0
  0
LINE
  5
357
100
AcDbEntity
  8
LAY-2
  6
CONTINUOUS
 62
     3
100
AcDbLine
 10
170.81
 20
109.8
 30
0.0
 11
168.81
 21
109.8
 31
0.0
  0
LINE
  5
358
100
AcDbEntity
  8
LAY-2
  6
CONTINUOUS
 62
     3
100
AcDbLine
 10
167.56
 20
109.8
 30
0.0
 11
165.31
 21
109.8
 31
0.0
  0
LINE
  5
359
100
AcDbEntity
  8
LAY-2
  6
CONTINUOUS
 62
     3
100
AcDbLine
 10
165.31
 20
122.5
 30
0.0
 11
164.06
 21
122.5
 31
0.0
  0
CIRCLE
  5
35A
100
AcDbEntity
  8
LAY-2
  6
CONTINUOUS
 62
     3
100
AcDbCircle
 10
164.685
 20
123.125
 30
0.0
 40
0.625
  0
LINE
  5
35B
100
AcDbEntity
  8
LAY-2
  6
CONTINUOUS
 62
     3
100
AcDbLine
 10
165.297372
 20
123.0
 30
0.0
 11
164.072628
 21
123.0
 31
0.0
  0
LINE
  5
35C
100
AcDbEntity
  8
LAY-2
  6
CONTINUOUS
 62
     3
100
AcDbLine
 10
165.297372
 20
123.25
 30
0.0
 11
164.072628
 21
123.25
 31
0.0
  0
LINE
  5
35D
100
AcDbEntity
  8
LAY-2
  6
CONTINUOUS
 62
     3
100
AcDbLine
 10
168.81
 20
122.5
 30
0.0
 11
167.56
 21
122.5
 31
0.0
  0
CIRCLE
  5
35E
100
AcDbEntity
  8
LAY-2
  6
CONTINUOUS
 62
     3
100
AcDbCircle
 10
168.185
 20
123.125
 30
0.0
 40
0.625
  0
LINE
  5
35F
100
AcDbEntity
  8
LAY-2
  6
CONTINUOUS
 62
     3
100
AcDbLine
 10
168.797372
 20
123.0
 30
0.0
 11
167.572628
 21
123.0
 31
0.0
  0
LINE
  5
360
100
AcDbEntity
  8
LAY-2
  6
CONTINUOUS
 62
     3
100
AcDbLine
 10
168.797372
 20
123.25
 30
0.0
 11
167.572628
 21
123.25
 31
0.0
  0
LINE
  5
361
100
AcDbEntity
  8
LAY-2
  6
CONTINUOUS
 62
     3
100
AcDbLine
 10
170.81
 20
122.4
 30
0.0
 11
168.81
 21
122.4
 31
0.0
  0
LINE
  5
362
100
AcDbEntity
  8
LAY-2
  6
CONTINUOUS
 62
     3
100
AcDbLine
 10
167.56
 20
122.4
 30
0.0
 11
165.31
 21
122.4
 31
0.0
  0
LINE
  5
363
100
AcDbEntity
  8
LAY-2
  6
CONTINUOUS
 62
     3
100
AcDbLine
 10
164.06
 20
122.5
 30
0.0
 11
164.06
 21
109.7
 31
0.0
  0
LINE
  5
364
100
AcDbEntity
  8
LAY-2
  6
CONTINUOUS
 62
     3
100
AcDbLine
 10
165.31
 20
122.5
 30
0.0
 11
165.31
 21
109.7
 31
0.0
  0
LINE
  5
365
100
AcDbEntity
  8
LAY-2
  6
CONTINUOUS
 62
     3
100
AcDbLine
 10
170.81
 20
109.8
 30
0.0
 11
170.81
 21
122.4
 31
0.0
  0
LINE
  5
366
100
AcDbEntity
  8
LAY-2
  6
CONTINUOUS
 62
     3
100
AcDbLine
 10
167.56
 20
122.5
 30
0.0
 11
167.56
 21
109.7
 31
0.0
  0
LINE
  5
367
100
AcDbEntity
  8
LAY-2
  6
CONTINUOUS
 62
     3
100
AcDbLine
 10
168.81
 20
122.5
 30
0.0
 11
168.81
 21
109.7
 31
0.0
  0
LINE
  5
368
100
AcDbEntity
  8
LAY-2
  6
CONTINUOUS
 62
     3
100
AcDbLine
 10
164.06
 20
122.4
 30
0.0
 11
160.91
 21
122.4
 31
0.0
  0
LINE
  5
369
100
AcDbEntity
  8
LAY-2
  6
CONTINUOUS
 62
     3
100
AcDbLine
 10
164.06
 20
109.8
 30
0.0
 11
160.91
 21
109.8
 31
0.0
  0
ARC
  5
36A
100
AcDbEntity
  8
LAY-2
  6
CONTINUOUS
 62
     3
100
AcDbCircle
 10
161.515034
 20
111.505034
 30
0.0
 40
1.809201
100
AcDbArc
 50
199.537309
 51
250.462691
  0
LINE
  5
36B
100
AcDbEntity
  8
LAY-2
  6
CONTINUOUS
 62
     3
100
AcDbLine
 10
159.81
 20
110.9
 30
0.0
 11
159.81
 21
121.3
 31
0.0
  0
ARC
  5
36C
100
AcDbEntity
  8
LAY-2
  6
CONTINUOUS
 62
     3
100
AcDbCircle
 10
161.515034
 20
120.694966
 30
0.0
 40
1.809201
100
AcDbArc
 50
109.537309
 51
160.462691
  0
ARC
  5
36D
100
AcDbEntity
  8
LAY-2
  6
CONTINUOUS
 62
     3
100
AcDbCircle
 10
142.21
 20
121.05
 30
0.0
 40
0.4
100
AcDbArc
 50
0.0
 51
191.155254
  0
ARC
  5
36E
100
AcDbEntity
  8
LAY-2
  6
CONTINUOUS
 62
     3
100
AcDbCircle
 10
143.81
 20
121.05
 30
0.0
 40
0.4
100
AcDbArc
 50
0.0
 51
191.155254
  0
ARC
  5
36F
100
AcDbEntity
  8
LAY-2
  6
CONTINUOUS
 62
     3
100
AcDbCircle
 10
145.41
 20
121.05
 30
0.0
 40
0.4
100
AcDbArc
 50
0.0
 51
191.155254
  0
ARC
  5
370
100
AcDbEntity
  8
LAY-2
  6
CONTINUOUS
 62
     3
100
AcDbCircle
 10
147.01
 20
121.05
 30
0.0
 40
0.4
100
AcDbArc
 50
0.0
 51
191.155254
  0
LINE
  5
371
100
AcDbEntity
  8
LAY-2
  6
CONTINUOUS
 62
     3
100
AcDbLine
 10
145.81
 20
121.05
 30
0.0
 11
146.611304
 21
121.05
 31
0.0
  0
LINE
  5
372
100
AcDbEntity
  8
LAY-2
  6
CONTINUOUS
 62
     3
100
AcDbLine
 10
144.21
 20
121.05
 30
0.0
 11
145.011304
 21
121.05
 31
0.0
  0
LINE
  5
373
100
AcDbEntity
  8
LAY-2
  6
CONTINUOUS
 62
     3
100
AcDbLine
 10
141.81
 20
121.05
 30
0.0
 11
141.811304
 21
121.05
 31
0.0
  0
LINE
  5
374
100
AcDbEntity
  8
LAY-2
  6
CONTINUOUS
 62
     3
100
AcDbLine
 10
142.61
 20
121.05
 30
0.0
 11
143.411304
 21
121.05
 31
0.0
  0
ARC
  5
375
100
AcDbEntity
  8
LAY-2
  6
CONTINUOUS
 62
     3
100
AcDbCircle
 10
143.01
 20
111.15
 30
0.0
 40
0.4
100
AcDbArc
 50
180.0
 51
4.619923
  0
LINE
  5
376
100
AcDbEntity
  8
LAY-2
  6
CONTINUOUS
 62
     3
100
AcDbLine
 10
141.81
 20
111.15
 30
0.0
 11
142.61
 21
111.15
 31
0.0
  0
LINE
  5
377
100
AcDbEntity
  8
LAY-2
  6
CONTINUOUS
 62
     3
100
AcDbLine
 10
143.41
 20
111.15
 30
0.0
 11
144.21
 21
111.15
 31
0.0
  0
ARC
  5
378
100
AcDbEntity
  8
LAY-2
  6
CONTINUOUS
 62
     3
100
AcDbCircle
 10
144.61
 20
111.15
 30
0.0
 40
0.4
100
AcDbArc
 50
180.0
 51
4.619923
  0
ARC
  5
379
100
AcDbEntity
  8
LAY-2
  6
CONTINUOUS
 62
     3
100
AcDbCircle
 10
146.21
 20
111.15
 30
0.0
 40
0.4
100
AcDbArc
 50
180.0
 51
4.619923
  0
LINE
  5
37A
100
AcDbEntity
  8
LAY-2
  6
CONTINUOUS
 62
     3
100
AcDbLine
 10
145.01
 20
111.15
 30
0.0
 11
145.81
 21
111.15
 31
0.0
  0
LINE
  5
37B
100
AcDbEntity
  8
LAY-2
  6
CONTINUOUS
 62
     3
100
AcDbLine
 10
146.61
 20
111.15
 30
0.0
 11
147.41
 21
111.15
 31
0.0
  0
ARC
  5
37C
100
AcDbEntity
  8
LAY-2
  6
CONTINUOUS
 62
     3
100
AcDbCircle
 10
147.81
 20
111.15
 30
0.0
 40
0.4
100
AcDbArc
 50
180.0
 51
4.619923
  0
LINE
  5
37D
100
AcDbEntity
  8
LAY-2
  6
CONTINUOUS
 62
     3
100
AcDbLine
 10
143.4087
 20
121.082218
 30
0.0
 11
144.2087
 21
111.182218
 31
0.0
  0
LINE
  5
37E
100
AcDbEntity
  8
LAY-2
  6
CONTINUOUS
 62
     3
100
AcDbLine
 10
142.6087
 20
121.082218
 30
0.0
 11
143.4087
 21
111.182218
 31
0.0
  0
LINE
  5
37F
100
AcDbEntity
  8
LAY-2
  6
CONTINUOUS
 62
     3
100
AcDbLine
 10
141.8087
 20
121.082218
 30
0.0
 11
142.6087
 21
111.182218
 31
0.0
  0
LINE
  5
380
100
AcDbEntity
  8
LAY-2
  6
CONTINUOUS
 62
     3
100
AcDbLine
 10
144.2087
 20
121.082218
 30
0.0
 11
145.0087
 21
111.182218
 31
0.0
  0
LINE
  5
381
100
AcDbEntity
  8
LAY-2
  6
CONTINUOUS
 62
     3
100
AcDbLine
 10
145.0087
 20
121.082218
 30
0.0
 11
145.8087
 21
111.182218
 31
0.0
  0
LINE
  5
382
100
AcDbEntity
  8
LAY-2
  6
CONTINUOUS
 62
     3
100
AcDbLine
 10
145.8087
 20
121.082218
 30
0.0
 11
146.6087
 21
111.182218
 31
0.0
  0
LINE
  5
383
100
AcDbEntity
  8
LAY-2
  6
CONTINUOUS
 62
     3
100
AcDbLine
 10
146.6087
 20
121.082218
 30
0.0
 11
147.4087
 21
111.182218
 31
0.0
  0
LINE
  5
384
100
AcDbEntity
  8
LAY-2
  6
CONTINUOUS
 62
     3
100
AcDbLine
 10
147.4087
 20
121.082218
 30
0.0
 11
148.2087
 21
111.182218
 31
0.0
  0
ARC
  5
385
100
AcDbEntity
  8
LAY-2
  6
CONTINUOUS
 62
     3
100
AcDbCircle
 10
159.811304
 20
121.05
 30
0.0
 40
0.4
100
AcDbArc
 50
81.706784
 51
180.0
  0
LINE
  5
386
100
AcDbEntity
  8
LAY-2
  6
CONTINUOUS
 62
     3
100
AcDbLine
 10
159.411304
 20
121.05
 30
0.0
 11
159.81
 21
116.116135
 31
0.0
  0
LINE
  5
387
100
AcDbEntity
  8
LAY-2
  6
CONTINUOUS
 62
     3
100
AcDbLine
 10
159.311662
 20
121.05
 30
0.0
 11
159.411304
 21
121.05
 31
0.0
  0
LINE
  5
388
100
AcDbEntity
  8
LAY-2
  6
CONTINUOUS
 62
     3
100
AcDbLine
 10
158.6087
 20
121.082218
 30
0.0
 11
159.4087
 21
111.182218
 31
0.0
  0
ARC
  5
389
100
AcDbEntity
  8
LAY-2
  6
CONTINUOUS
 62
     3
100
AcDbCircle
 10
158.21
 20
121.05
 30
0.0
 40
0.4
100
AcDbArc
 50
0.0
 51
191.155254
  0
LINE
  5
38A
100
AcDbEntity
  8
LAY-2
  6
CONTINUOUS
 62
     3
100
AcDbLine
 10
157.811295
 20
121.050105
 30
0.0
 11
158.6087
 21
111.182218
 31
0.0
  0
LINE
  5
38B
100
AcDbEntity
  8
LAY-2
  6
CONTINUOUS
 62
     3
100
AcDbLine
 10
157.01
 20
121.05
 30
0.0
 11
157.811304
 21
121.05
 31
0.0
  0
ARC
  5
38C
100
AcDbEntity
  8
LAY-2
  6
CONTINUOUS
 62
     3
100
AcDbCircle
 10
155.81
 20
111.15
 30
0.0
 40
0.4
100
AcDbArc
 50
180.0
 51
4.619923
  0
LINE
  5
38D
100
AcDbEntity
  8
LAY-2
  6
CONTINUOUS
 62
     3
100
AcDbLine
 10
156.21
 20
111.15
 30
0.0
 11
157.01
 21
111.15
 31
0.0
  0
ARC
  5
38E
100
AcDbEntity
  8
LAY-2
  6
CONTINUOUS
 62
     3
100
AcDbCircle
 10
157.41
 20
111.15
 30
0.0
 40
0.4
100
AcDbArc
 50
180.0
 51
4.619923
  0
LINE
  5
38F
100
AcDbEntity
  8
LAY-2
  6
CONTINUOUS
 62
     3
100
AcDbLine
 10
157.81
 20
111.15
 30
0.0
 11
158.61
 21
111.15
 31
0.0
  0
LINE
  5
390
100
AcDbEntity
  8
LAY-2
  6
CONTINUOUS
 62
     3
100
AcDbLine
 10
159.41
 20
111.15
 30
0.0
 11
159.811662
 21
111.15
 31
0.0
  0
ARC
  5
391
100
AcDbEntity
  8
LAY-2
  6
CONTINUOUS
 62
     3
100
AcDbCircle
 10
159.01
 20
111.15
 30
0.0
 40
0.4
100
AcDbArc
 50
180.0
 51
4.619923
  0
LINE
  5
392
100
AcDbEntity
  8
LAY-2
  6
CONTINUOUS
 62
     3
100
AcDbLine
 10
159.411304
 20
111.15
 30
0.0
 11
159.811662
 21
111.15
 31
0.0
  0
ARC
  5
393
100
AcDbEntity
  8
LAY-2
  6
CONTINUOUS
 62
     3
100
AcDbCircle
 10
155.01
 20
121.05
 30
0.0
 40
0.4
100
AcDbArc
 50
0.0
 51
191.155254
  0
ARC
  5
394
100
AcDbEntity
  8
LAY-2
  6
CONTINUOUS
 62
     3
100
AcDbCircle
 10
156.61
 20
121.05
 30
0.0
 40
0.4
100
AcDbArc
 50
0.0
 51
191.155254
  0
LINE
  5
395
100
AcDbEntity
  8
LAY-2
  6
CONTINUOUS
 62
     3
100
AcDbLine
 10
155.41
 20
121.05
 30
0.0
 11
156.211304
 21
121.05
 31
0.0
  0
LINE
  5
396
100
AcDbEntity
  8
LAY-2
  6
CONTINUOUS
 62
     3
100
AcDbLine
 10
158.61
 20
121.05
 30
0.0
 11
159.411304
 21
121.05
 31
0.0
  0
LINE
  5
397
100
AcDbEntity
  8
LAY-2
  6
CONTINUOUS
 62
     3
100
AcDbLine
 10
159.81
 20
121.05
 30
0.0
 11
159.811662
 21
121.05
 31
0.0
  0
LINE
  5
398
100
AcDbEntity
  8
LAY-2
  6
CONTINUOUS
 62
     3
100
AcDbLine
 10
154.6087
 20
121.082218
 30
0.0
 11
155.4087
 21
111.182218
 31
0.0
  0
LINE
  5
399
100
AcDbEntity
  8
LAY-2
  6
CONTINUOUS
 62
     3
100
AcDbLine
 10
155.4087
 20
121.082218
 30
0.0
 11
156.2087
 21
111.182218
 31
0.0
  0
LINE
  5
39A
100
AcDbEntity
  8
LAY-2
  6
CONTINUOUS
 62
     3
100
AcDbLine
 10
156.211304
 20
121.05
 30
0.0
 11
157.0087
 21
111.182218
 31
0.0
  0
LINE
  5
39B
100
AcDbEntity
  8
LAY-2
  6
CONTINUOUS
 62
     3
100
AcDbLine
 10
157.0087
 20
121.082218
 30
0.0
 11
157.8087
 21
111.182218
 31
0.0
  0
LINE
  5
39C
100
AcDbEntity
  8
LAY-2
  6
EXLTYPE3
 62
     1
100
AcDbLine
 10
155.01
 20
121.45
 30
0.0
 11
147.01
 21
121.45
 31
0.0
  0
LINE
  5
39D
100
AcDbEntity
  8
LAY-2
  6
EXLTYPE3
 62
     1
100
AcDbLine
 10
155.81
 20
110.75
 30
0.0
 11
147.81
 21
110.75
 31
0.0
  0
LINE
  5
39E
100
AcDbEntity
  8
LAY-2
  6
EXLTYPE3
 62
     1
100
AcDbLine
 10
215.7
 20
122.75
 30
0.0
 11
207.7
 21
122.75
 31
0.0
  0
LINE
  5
39F
100
AcDbEntity
  8
LAY-2
  6
EXLTYPE3
 62
     1
100
AcDbLine
 10
216.5
 20
109.45
 30
0.0
 11
208.5
 21
109.45
 31
0.0
  0
LINE
  5
3A0
100
AcDbEntity
  8
LAY-2
  6
EXLTYPE3
 62
     1
100
AcDbLine
 10
103.2
 20
78.05
 30
0.0
 11
111.2
 21
78.05
 31
0.0
  0
LINE
  5
3A1
100
AcDbEntity
  8
LAY-2
  6
EXLTYPE3
 62
     1
100
AcDbLine
 10
104.0
 20
61.15
 30
0.0
 11
112.0
 21
61.15
 31
0.0
  0
LINE
  5
3A2
100
AcDbEntity
  8
LAY-2
  6
EXLTYPE3
 62
     1
100
AcDbLine
 10
192.5
 20
80.65
 30
0.0
 11
200.5
 21
80.65
 31
0.0
  0
LINE
  5
3A3
100
AcDbEntity
  8
LAY-2
  6
EXLTYPE3
 62
     1
100
AcDbLine
 10
193.3
 20
58.55
 30
0.0
 11
201.3
 21
58.55
 31
0.0
  0
LINE
  5
3A4
100
AcDbEntity
  8
LAY-2
  6
EXLTYPE3
 62
     1
100
AcDbLine
 10
190.5
 20
116.1
 30
0.0
 11
232.5
 21
116.1
 31
0.0
  0
LINE
  5
3A5
100
AcDbEntity
  8
LAY-2
  6
EXLTYPE4
 62
     6
100
AcDbLine
 10
201.5
 20
123.6
 30
0.0
 11
201.5
 21
108.6
 31
0.0
  0
LINE
  5
3A6
100
AcDbEntity
  8
LAY-2
  6
EXLTYPE4
 62
     6
100
AcDbLine
 10
221.5
 20
123.6
 30
0.0
 11
221.5
 21
108.6
 31
0.0
  0
LINE
  5
3A7
100
AcDbEntity
  8
LAY-2
  6
CONTINUOUS
 62
     3
100
AcDbLine
 10
194.75
 20
123.6
 30
0.0
 11
197.0
 21
123.6
 31
0.0
  0
LINE
  5
3A8
100
AcDbEntity
  8
LAY-2
  6
CONTINUOUS
 62
     3
100
AcDbLine
 10
191.5
 20
123.6
 30
0.0
 11
193.5
 21
123.6
 31
0.0
  0
LINE
  5
3A9
100
AcDbEntity
  8
LAY-2
  6
CONTINUOUS
 62
     3
100
AcDbLine
 10
193.512628
 20
124.45
 30
0.0
 11
194.737372
 21
124.45
 31
0.0
  0
LINE
  5
3AA
100
AcDbEntity
  8
LAY-2
  6
CONTINUOUS
 62
     3
100
AcDbLine
 10
193.512628
 20
124.2
 30
0.0
 11
194.737372
 21
124.2
 31
0.0
  0
CIRCLE
  5
3AB
100
AcDbEntity
  8
LAY-2
  6
CONTINUOUS
 62
     3
100
AcDbCircle
 10
194.125
 20
124.325
 30
0.0
 40
0.625
  0
LINE
  5
3AC
100
AcDbEntity
  8
LAY-2
  6
CONTINUOUS
 62
     3
100
AcDbLine
 10
193.5
 20
123.7
 30
0.0
 11
194.75
 21
123.7
 31
0.0
  0
CIRCLE
  5
3AD
100
AcDbEntity
  8
LAY-2
  6
CONTINUOUS
 62
     3
100
AcDbCircle
 10
197.625
 20
124.325
 30
0.0
 40
0.625
  0
LINE
  5
3AE
100
AcDbEntity
  8
LAY-2
  6
CONTINUOUS
 62
     3
100
AcDbLine
 10
198.25
 20
123.6
 30
0.0
 11
201.5
 21
123.6
 31
0.0
  0
LINE
  5
3AF
100
AcDbEntity
  8
LAY-2
  6
CONTINUOUS
 62
     3
100
AcDbLine
 10
197.0
 20
123.7
 30
0.0
 11
197.0
 21
108.5
 31
0.0
  0
LINE
  5
3B0
100
AcDbEntity
  8
LAY-2
  6
CONTINUOUS
 62
     3
100
AcDbLine
 10
198.25
 20
123.7
 30
0.0
 11
198.25
 21
108.5
 31
0.0
  0
LINE
  5
3B1
100
AcDbEntity
  8
LAY-2
  6
CONTINUOUS
 62
     3
100
AcDbLine
 10
197.012628
 20
124.45
 30
0.0
 11
198.237372
 21
124.45
 31
0.0
  0
LINE
  5
3B2
100
AcDbEntity
  8
LAY-2
  6
CONTINUOUS
 62
     3
100
AcDbLine
 10
197.012628
 20
124.2
 30
0.0
 11
198.237372
 21
124.2
 31
0.0
  0
LINE
  5
3B3
100
AcDbEntity
  8
LAY-2
  6
CONTINUOUS
 62
     3
100
AcDbLine
 10
197.0
 20
123.7
 30
0.0
 11
198.25
 21
123.7
 31
0.0
  0
LINE
  5
3B4
100
AcDbEntity
  8
LAY-2
  6
CONTINUOUS
 62
     3
100
AcDbLine
 10
194.75
 20
108.6
 30
0.0
 11
197.0
 21
108.6
 31
0.0
  0
LINE
  5
3B5
100
AcDbEntity
  8
LAY-2
  6
CONTINUOUS
 62
     3
100
AcDbLine
 10
191.5
 20
108.6
 30
0.0
 11
193.5
 21
108.6
 31
0.0
  0
LINE
  5
3B6
100
AcDbEntity
  8
LAY-2
  6
CONTINUOUS
 62
     3
100
AcDbLine
 10
193.5
 20
108.5
 30
0.0
 11
194.75
 21
108.5
 31
0.0
  0
LINE
  5
3B7
100
AcDbEntity
  8
LAY-2
  6
CONTINUOUS
 62
     3
100
AcDbLine
 10
198.25
 20
108.6
 30
0.0
 11
201.5
 21
108.6
 31
0.0
  0
ARC
  5
3B8
100
AcDbEntity
  8
LAY-2
  6
CONTINUOUS
 62
     3
100
AcDbCircle
 10
201.05621
 20
110.04379
 30
0.0
 40
1.510457
100
AcDbArc
 50
287.08631
 51
342.91369
  0
LINE
  5
3B9
100
AcDbEntity
  8
LAY-2
  6
CONTINUOUS
 62
     3
100
AcDbLine
 10
197.0
 20
108.5
 30
0.0
 11
198.25
 21
108.5
 31
0.0
  0
LINE
  5
3BA
100
AcDbEntity
  8
LAY-2
  6
CONTINUOUS
 62
     3
100
AcDbLine
 10
191.5
 20
123.6
 30
0.0
 11
191.5
 21
108.6
 31
0.0
  0
LINE
  5
3BB
100
AcDbEntity
  8
LAY-2
  6
CONTINUOUS
 62
     3
100
AcDbLine
 10
193.5
 20
123.7
 30
0.0
 11
193.5
 21
108.5
 31
0.0
  0
LINE
  5
3BC
100
AcDbEntity
  8
LAY-2
  6
CONTINUOUS
 62
     3
100
AcDbLine
 10
194.75
 20
123.7
 30
0.0
 11
194.75
 21
108.5
 31
0.0
  0
LINE
  5
3BD
100
AcDbEntity
  8
LAY-2
  6
CONTINUOUS
 62
     3
100
AcDbLine
 10
228.25
 20
108.6
 30
0.0
 11
226.0
 21
108.6
 31
0.0
  0
LINE
  5
3BE
100
AcDbEntity
  8
LAY-2
  6
CONTINUOUS
 62
     3
100
AcDbLine
 10
231.5
 20
108.6
 30
0.0
 11
229.5
 21
108.6
 31
0.0
  0
LINE
  5
3BF
100
AcDbEntity
  8
LAY-2
  6
CONTINUOUS
 62
     3
100
AcDbLine
 10
229.5
 20
108.5
 30
0.0
 11
228.25
 21
108.5
 31
0.0
  0
LINE
  5
3C0
100
AcDbEntity
  8
LAY-2
  6
CONTINUOUS
 62
     3
100
AcDbLine
 10
226.0
 20
108.5
 30
0.0
 11
224.75
 21
108.5
 31
0.0
  0
LINE
  5
3C1
100
AcDbEntity
  8
LAY-2
  6
CONTINUOUS
 62
     3
100
AcDbLine
 10
228.25
 20
123.6
 30
0.0
 11
226.0
 21
123.6
 31
0.0
  0
LINE
  5
3C2
100
AcDbEntity
  8
LAY-2
  6
CONTINUOUS
 62
     3
100
AcDbLine
 10
231.5
 20
123.6
 30
0.0
 11
229.5
 21
123.6
 31
0.0
  0
LINE
  5
3C3
100
AcDbEntity
  8
LAY-2
  6
CONTINUOUS
 62
     3
100
AcDbLine
 10
229.487372
 20
124.45
 30
0.0
 11
228.262628
 21
124.45
 31
0.0
  0
LINE
  5
3C4
100
AcDbEntity
  8
LAY-2
  6
CONTINUOUS
 62
     3
100
AcDbLine
 10
229.487372
 20
124.2
 30
0.0
 11
228.262628
 21
124.2
 31
0.0
  0
CIRCLE
  5
3C5
100
AcDbEntity
  8
LAY-2
  6
CONTINUOUS
 62
     3
100
AcDbCircle
 10
228.875
 20
124.325
 30
0.0
 40
0.625
  0
LINE
  5
3C6
100
AcDbEntity
  8
LAY-2
  6
CONTINUOUS
 62
     3
100
AcDbLine
 10
229.5
 20
123.7
 30
0.0
 11
228.25
 21
123.7
 31
0.0
  0
LINE
  5
3C7
100
AcDbEntity
  8
LAY-2
  6
CONTINUOUS
 62
     3
100
AcDbLine
 10
225.987372
 20
124.45
 30
0.0
 11
224.762628
 21
124.45
 31
0.0
  0
LINE
  5
3C8
100
AcDbEntity
  8
LAY-2
  6
CONTINUOUS
 62
     3
100
AcDbLine
 10
225.987372
 20
124.2
 30
0.0
 11
224.762628
 21
124.2
 31
0.0
  0
CIRCLE
  5
3C9
100
AcDbEntity
  8
LAY-2
  6
CONTINUOUS
 62
     3
100
AcDbCircle
 10
225.375
 20
124.325
 30
0.0
 40
0.625
  0
LINE
  5
3CA
100
AcDbEntity
  8
LAY-2
  6
CONTINUOUS
 62
     3
100
AcDbLine
 10
226.0
 20
123.7
 30
0.0
 11
224.75
 21
123.7
 31
0.0
  0
LINE
  5
3CB
100
AcDbEntity
  8
LAY-2
  6
CONTINUOUS
 62
     3
100
AcDbLine
 10
229.5
 20
123.7
 30
0.0
 11
229.5
 21
108.5
 31
0.0
  0
LINE
  5
3CC
100
AcDbEntity
  8
LAY-2
  6
CONTINUOUS
 62
     3
100
AcDbLine
 10
228.25
 20
123.7
 30
0.0
 11
228.25
 21
108.5
 31
0.0
  0
LINE
  5
3CD
100
AcDbEntity
  8
LAY-2
  6
CONTINUOUS
 62
     3
100
AcDbLine
 10
231.5
 20
108.6
 30
0.0
 11
231.5
 21
123.6
 31
0.0
  0
LINE
  5
3CE
100
AcDbEntity
  8
LAY-2
  6
CONTINUOUS
 62
     3
100
AcDbLine
 10
226.0
 20
123.7
 30
0.0
 11
226.0
 21
108.5
 31
0.0
  0
LINE
  5
3CF
100
AcDbEntity
  8
LAY-2
  6
CONTINUOUS
 62
     3
100
AcDbLine
 10
224.75
 20
123.7
 30
0.0
 11
224.75
 21
108.5
 31
0.0
  0
LINE
  5
3D0
100
AcDbEntity
  8
LAY-2
  6
CONTINUOUS
 62
     3
100
AcDbLine
 10
224.75
 20
123.6
 30
0.0
 11
221.5
 21
123.6
 31
0.0
  0
LINE
  5
3D1
100
AcDbEntity
  8
LAY-2
  6
CONTINUOUS
 62
     3
100
AcDbLine
 10
224.75
 20
108.6
 30
0.0
 11
221.5
 21
108.6
 31
0.0
  0
ARC
  5
3D2
100
AcDbEntity
  8
LAY-2
  6
CONTINUOUS
 62
     3
100
AcDbCircle
 10
221.94379
 20
122.15621
 30
0.0
 40
1.510457
100
AcDbArc
 50
107.08631
 51
162.91369
  0
ARC
  5
3D3
100
AcDbEntity
  8
LAY-2
  6
CONTINUOUS
 62
     3
100
AcDbCircle
 10
215.7
 20
122.35
 30
0.0
 40
0.4
100
AcDbArc
 50
0.0
 51
183.669438
  0
ARC
  5
3D4
100
AcDbEntity
  8
LAY-2
  6
CONTINUOUS
 62
     3
100
AcDbCircle
 10
217.3
 20
122.35
 30
0.0
 40
0.4
100
AcDbArc
 50
0.0
 51
188.841577
  0
ARC
  5
3D5
100
AcDbEntity
  8
LAY-2
  6
CONTINUOUS
 62
     3
100
AcDbCircle
 10
218.9
 20
122.35
 30
0.0
 40
0.4
100
AcDbArc
 50
0.0
 51
188.841577
  0
ARC
  5
3D6
100
AcDbEntity
  8
LAY-2
  6
CONTINUOUS
 62
     3
100
AcDbCircle
 10
220.5
 20
122.35
 30
0.0
 40
0.4
100
AcDbArc
 50
82.325525
 51
188.841577
  0
LINE
  5
3D7
100
AcDbEntity
  8
LAY-2
  6
CONTINUOUS
 62
     3
100
AcDbLine
 10
216.1
 20
122.35
 30
0.0
 11
216.900818
 21
122.35
 31
0.0
  0
LINE
  5
3D8
100
AcDbEntity
  8
LAY-2
  6
CONTINUOUS
 62
     3
100
AcDbLine
 10
217.7
 20
122.35
 30
0.0
 11
218.500818
 21
122.35
 31
0.0
  0
LINE
  5
3D9
100
AcDbEntity
  8
LAY-2
  6
CONTINUOUS
 62
     3
100
AcDbLine
 10
219.3
 20
122.35
 30
0.0
 11
220.100818
 21
122.35
 31
0.0
  0
ARC
  5
3DA
100
AcDbEntity
  8
LAY-2
  6
CONTINUOUS
 62
     3
100
AcDbCircle
 10
207.7
 20
122.35
 30
0.0
 40
0.4
100
AcDbArc
 50
0.0
 51
188.841577
  0
ARC
  5
3DB
100
AcDbEntity
  8
LAY-2
  6
CONTINUOUS
 62
     3
100
AcDbCircle
 10
206.1
 20
122.35
 30
0.0
 40
0.4
100
AcDbArc
 50
0.0
 51
188.841577
  0
LINE
  5
3DC
100
AcDbEntity
  8
LAY-2
  6
CONTINUOUS
 62
     3
100
AcDbLine
 10
206.5
 20
122.35
 30
0.0
 11
207.300818
 21
122.35
 31
0.0
  0
ARC
  5
3DD
100
AcDbEntity
  8
LAY-2
  6
CONTINUOUS
 62
     3
100
AcDbCircle
 10
204.5
 20
122.35
 30
0.0
 40
0.4
100
AcDbArc
 50
0.0
 51
188.841577
  0
LINE
  5
3DE
100
AcDbEntity
  8
LAY-2
  6
CONTINUOUS
 62
     3
100
AcDbLine
 10
204.9
 20
122.35
 30
0.0
 11
205.700818
 21
122.35
 31
0.0
  0
ARC
  5
3DF
100
AcDbEntity
  8
LAY-2
  6
CONTINUOUS
 62
     3
100
AcDbCircle
 10
202.9
 20
122.35
 30
0.0
 40
0.4
100
AcDbArc
 50
0.0
 51
188.841577
  0
LINE
  5
3E0
100
AcDbEntity
  8
LAY-2
  6
CONTINUOUS
 62
     3
100
AcDbLine
 10
202.5
 20
122.35
 30
0.0
 11
202.500818
 21
122.35
 31
0.0
  0
LINE
  5
3E1
100
AcDbEntity
  8
LAY-2
  6
CONTINUOUS
 62
     3
100
AcDbLine
 10
203.3
 20
122.35
 30
0.0
 11
204.100818
 21
122.35
 31
0.0
  0
ARC
  5
3E2
100
AcDbEntity
  8
LAY-2
  6
CONTINUOUS
 62
     3
100
AcDbCircle
 10
203.7
 20
109.85
 30
0.0
 40
0.4
100
AcDbArc
 50
180.0
 51
3.661936
  0
ARC
  5
3E3
100
AcDbEntity
  8
LAY-2
  6
CONTINUOUS
 62
     3
100
AcDbCircle
 10
205.3
 20
109.85
 30
0.0
 40
0.4
100
AcDbArc
 50
180.0
 51
3.661936
  0
LINE
  5
3E4
100
AcDbEntity
  8
LAY-2
  6
CONTINUOUS
 62
     3
100
AcDbLine
 10
204.1
 20
109.85
 30
0.0
 11
204.9
 21
109.85
 31
0.0
  0
ARC
  5
3E5
100
AcDbEntity
  8
LAY-2
  6
CONTINUOUS
 62
     3
100
AcDbCircle
 10
206.9
 20
109.85
 30
0.0
 40
0.4
100
AcDbArc
 50
180.0
 51
3.661936
  0
LINE
  5
3E6
100
AcDbEntity
  8
LAY-2
  6
CONTINUOUS
 62
     3
100
AcDbLine
 10
205.7
 20
109.85
 30
0.0
 11
206.5
 21
109.85
 31
0.0
  0
ARC
  5
3E7
100
AcDbEntity
  8
LAY-2
  6
CONTINUOUS
 62
     3
100
AcDbCircle
 10
208.5
 20
109.85
 30
0.0
 40
0.4
100
AcDbArc
 50
180.0
 51
3.661936
  0
LINE
  5
3E8
100
AcDbEntity
  8
LAY-2
  6
CONTINUOUS
 62
     3
100
AcDbLine
 10
207.3
 20
109.85
 30
0.0
 11
208.1
 21
109.85
 31
0.0
  0
LINE
  5
3E9
100
AcDbEntity
  8
LAY-2
  6
CONTINUOUS
 62
     3
100
AcDbLine
 10
202.5
 20
109.85
 30
0.0
 11
203.3
 21
109.85
 31
0.0
  0
ARC
  5
3EA
100
AcDbEntity
  8
LAY-2
  6
CONTINUOUS
 62
     3
100
AcDbCircle
 10
221.94379
 20
110.04379
 30
0.0
 40
1.510457
100
AcDbArc
 50
197.08631
 51
252.91369
  0
ARC
  5
3EB
100
AcDbEntity
  8
LAY-2
  6
CONTINUOUS
 62
     3
100
AcDbCircle
 10
216.5
 20
109.85
 30
0.0
 40
0.4
100
AcDbArc
 50
180.0
 51
3.661936
  0
ARC
  5
3EC
100
AcDbEntity
  8
LAY-2
  6
CONTINUOUS
 62
     3
100
AcDbCircle
 10
218.1
 20
109.85
 30
0.0
 40
0.4
100
AcDbArc
 50
180.0
 51
3.661936
  0
LINE
  5
3ED
100
AcDbEntity
  8
LAY-2
  6
CONTINUOUS
 62
     3
100
AcDbLine
 10
216.9
 20
109.85
 30
0.0
 11
217.7
 21
109.85
 31
0.0
  0
ARC
  5
3EE
100
AcDbEntity
  8
LAY-2
  6
CONTINUOUS
 62
     3
100
AcDbCircle
 10
219.7
 20
109.85
 30
0.0
 40
0.4
100
AcDbArc
 50
180.0
 51
3.661936
  0
LINE
  5
3EF
100
AcDbEntity
  8
LAY-2
  6
CONTINUOUS
 62
     3
100
AcDbLine
 10
218.5
 20
109.85
 30
0.0
 11
219.3
 21
109.85
 31
0.0
  0
LINE
  5
3F0
100
AcDbEntity
  8
LAY-2
  6
CONTINUOUS
 62
     3
100
AcDbLine
 10
220.1
 20
109.85
 30
0.0
 11
220.5
 21
109.85
 31
0.0
  0
LINE
  5
3F1
100
AcDbEntity
  8
LAY-2
  6
CONTINUOUS
 62
     3
100
AcDbLine
 10
202.5
 20
122.6
 30
0.0
 11
202.5
 21
109.6
 31
0.0
  0
LINE
  5
3F2
100
AcDbEntity
  8
LAY-2
  6
CONTINUOUS
 62
     3
100
AcDbLine
 10
202.499183
 20
122.375548
 30
0.0
 11
203.299183
 21
109.875548
 31
0.0
  0
LINE
  5
3F3
100
AcDbEntity
  8
LAY-2
  6
CONTINUOUS
 62
     3
100
AcDbLine
 10
203.299183
 20
122.375548
 30
0.0
 11
204.099183
 21
109.875548
 31
0.0
  0
LINE
  5
3F4
100
AcDbEntity
  8
LAY-2
  6
CONTINUOUS
 62
     3
100
AcDbLine
 10
204.099183
 20
122.375548
 30
0.0
 11
204.899183
 21
109.875548
 31
0.0
  0
LINE
  5
3F5
100
AcDbEntity
  8
LAY-2
  6
CONTINUOUS
 62
     3
100
AcDbLine
 10
205.699183
 20
109.875548
 30
0.0
 11
204.899183
 21
122.375548
 31
0.0
  0
ARC
  5
3F6
100
AcDbEntity
  8
LAY-2
  6
CONTINUOUS
 62
     3
100
AcDbCircle
 10
201.05621
 20
122.15621
 30
0.0
 40
1.510457
100
AcDbArc
 50
17.08631
 51
72.91369
  0
LINE
  5
3F7
100
AcDbEntity
  8
LAY-2
  6
CONTINUOUS
 62
     3
100
AcDbLine
 10
205.699183
 20
122.375548
 30
0.0
 11
206.499183
 21
109.875548
 31
0.0
  0
LINE
  5
3F8
100
AcDbEntity
  8
LAY-2
  6
CONTINUOUS
 62
     3
100
AcDbLine
 10
207.299183
 20
109.875548
 30
0.0
 11
206.499183
 21
122.375548
 31
0.0
  0
LINE
  5
3F9
100
AcDbEntity
  8
LAY-2
  6
CONTINUOUS
 62
     3
100
AcDbLine
 10
207.299183
 20
122.375548
 30
0.0
 11
208.099183
 21
109.875548
 31
0.0
  0
LINE
  5
3FA
100
AcDbEntity
  8
LAY-2
  6
CONTINUOUS
 62
     3
100
AcDbLine
 10
208.899183
 20
109.875548
 30
0.0
 11
208.099183
 21
122.375548
 31
0.0
  0
LINE
  5
3FB
100
AcDbEntity
  8
LAY-2
  6
CONTINUOUS
 62
     3
100
AcDbLine
 10
215.30082
 20
122.3244
 30
0.0
 11
216.09918
 21
109.8756
 31
0.0
  0
LINE
  5
3FC
100
AcDbEntity
  8
LAY-2
  6
CONTINUOUS
 62
     3
100
AcDbLine
 10
216.099183
 20
122.375548
 30
0.0
 11
216.899183
 21
109.875548
 31
0.0
  0
LINE
  5
3FD
100
AcDbEntity
  8
LAY-2
  6
CONTINUOUS
 62
     3
100
AcDbLine
 10
217.699183
 20
109.875548
 30
0.0
 11
216.899183
 21
122.375548
 31
0.0
  0
LINE
  5
3FE
100
AcDbEntity
  8
LAY-2
  6
CONTINUOUS
 62
     3
100
AcDbLine
 10
217.699183
 20
122.375548
 30
0.0
 11
218.499183
 21
109.875548
 31
0.0
  0
LINE
  5
3FF
100
AcDbEntity
  8
LAY-2
  6
CONTINUOUS
 62
     3
100
AcDbLine
 10
219.299183
 20
109.875548
 30
0.0
 11
218.499183
 21
122.375548
 31
0.0
  0
LINE
  5
400
100
AcDbEntity
  8
LAY-2
  6
CONTINUOUS
 62
     3
100
AcDbLine
 10
219.299183
 20
122.375548
 30
0.0
 11
220.099183
 21
109.875548
 31
0.0
  0
LINE
  5
401
100
AcDbEntity
  8
LAY-2
  6
CONTINUOUS
 62
     3
100
AcDbLine
 10
220.099183
 20
122.375548
 30
0.0
 11
220.5
 21
116.112787
 31
0.0
  0
LINE
  5
402
100
AcDbEntity
  8
LAY-2
  6
CONTINUOUS
 62
     3
100
AcDbLine
 10
220.5
 20
109.6
 30
0.0
 11
220.5
 21
122.6
 31
0.0
  0
LINE
  5
403
100
AcDbEntity
  8
LAY-2
  6
EXLTYPE4
 62
     6
100
AcDbLine
 10
97.0
 20
78.5
 30
0.0
 11
97.0
 21
60.7
 31
0.0
  0
LINE
  5
404
100
AcDbEntity
  8
LAY-2
  6
EXLTYPE3
 62
     1
100
AcDbLine
 10
81.0
 20
69.6
 30
0.0
 11
133.0
 21
69.6
 31
0.0
  0
LINE
  5
405
100
AcDbEntity
  8
LAY-2
  6
EXLTYPE4
 62
     6
100
AcDbLine
 10
117.0
 20
78.5
 30
0.0
 11
117.0
 21
60.7
 31
0.0
  0
LINE
  5
406
100
AcDbEntity
  8
LAY-2
  6
EXLTYPE3
 62
     1
100
AcDbLine
 10
165.3
 20
69.6
 30
0.0
 11
227.3
 21
69.6
 31
0.0
  0
LINE
  5
407
100
AcDbEntity
  8
LAY-2
  6
EXLTYPE4
 62
     6
100
AcDbLine
 10
186.3
 20
81.1
 30
0.0
 11
186.3
 21
58.1
 31
0.0
  0
LINE
  5
408
100
AcDbEntity
  8
LAY-2
  6
EXLTYPE4
 62
     6
100
AcDbLine
 10
206.3
 20
81.1
 30
0.0
 11
206.3
 21
58.1
 31
0.0
  0
LINE
  5
409
100
AcDbEntity
  8
LAY-2
  6
CONTINUOUS
 62
     3
100
AcDbLine
 10
177.8
 20
58.0
 30
0.0
 11
179.05
 21
58.0
 31
0.0
  0
LINE
  5
40A
100
AcDbEntity
  8
LAY-2
  6
CONTINUOUS
 62
     3
100
AcDbLine
 10
172.3
 20
58.0
 30
0.0
 11
173.55
 21
58.0
 31
0.0
  0
LINE
  5
40B
100
AcDbEntity
  8
LAY-2
  6
CONTINUOUS
 62
     3
100
AcDbLine
 10
173.55
 20
58.1
 30
0.0
 11
177.8
 21
58.1
 31
0.0
  0
LINE
  5
40C
100
AcDbEntity
  8
LAY-2
  6
CONTINUOUS
 62
     3
100
AcDbLine
 10
166.3
 20
58.1
 30
0.0
 11
172.3
 21
58.1
 31
0.0
  0
LINE
  5
40D
100
AcDbEntity
  8
LAY-2
  6
CONTINUOUS
 62
     3
100
AcDbLine
 10
177.812628
 20
81.95
 30
0.0
 11
179.037372
 21
81.95
 31
0.0
  0
LINE
  5
40E
100
AcDbEntity
  8
LAY-2
  6
CONTINUOUS
 62
     3
100
AcDbLine
 10
177.812628
 20
81.7
 30
0.0
 11
179.037372
 21
81.7
 31
0.0
  0
CIRCLE
  5
40F
100
AcDbEntity
  8
LAY-2
  6
CONTINUOUS
 62
     3
100
AcDbCircle
 10
178.425
 20
81.825
 30
0.0
 40
0.625
  0
LINE
  5
410
100
AcDbEntity
  8
LAY-2
  6
CONTINUOUS
 62
     3
100
AcDbLine
 10
177.8
 20
81.2
 30
0.0
 11
179.05
 21
81.2
 31
0.0
  0
LINE
  5
411
100
AcDbEntity
  8
LAY-2
  6
CONTINUOUS
 62
     3
100
AcDbLine
 10
172.3
 20
81.2
 30
0.0
 11
173.55
 21
81.2
 31
0.0
  0
CIRCLE
  5
412
100
AcDbEntity
  8
LAY-2
  6
CONTINUOUS
 62
     3
100
AcDbCircle
 10
172.925
 20
81.825
 30
0.0
 40
0.625
  0
LINE
  5
413
100
AcDbEntity
  8
LAY-2
  6
CONTINUOUS
 62
     3
100
AcDbLine
 10
172.312628
 20
81.7
 30
0.0
 11
173.537372
 21
81.7
 31
0.0
  0
LINE
  5
414
100
AcDbEntity
  8
LAY-2
  6
CONTINUOUS
 62
     3
100
AcDbLine
 10
172.312628
 20
81.95
 30
0.0
 11
173.537372
 21
81.95
 31
0.0
  0
LINE
  5
415
100
AcDbEntity
  8
LAY-2
  6
CONTINUOUS
 62
     3
100
AcDbLine
 10
173.55
 20
81.1
 30
0.0
 11
177.8
 21
81.1
 31
0.0
  0
LINE
  5
416
100
AcDbEntity
  8
LAY-2
  6
CONTINUOUS
 62
     3
100
AcDbLine
 10
166.3
 20
81.1
 30
0.0
 11
172.3
 21
81.1
 31
0.0
  0
LINE
  5
417
100
AcDbEntity
  8
LAY-2
  6
CONTINUOUS
 62
     3
100
AcDbLine
 10
177.8
 20
81.2
 30
0.0
 11
177.8
 21
58.0
 31
0.0
  0
LINE
  5
418
100
AcDbEntity
  8
LAY-2
  6
CONTINUOUS
 62
     3
100
AcDbLine
 10
179.05
 20
81.2
 30
0.0
 11
179.05
 21
58.0
 31
0.0
  0
LINE
  5
419
100
AcDbEntity
  8
LAY-2
  6
CONTINUOUS
 62
     3
100
AcDbLine
 10
173.55
 20
81.2
 30
0.0
 11
173.55
 21
58.0
 31
0.0
  0
LINE
  5
41A
100
AcDbEntity
  8
LAY-2
  6
CONTINUOUS
 62
     3
100
AcDbLine
 10
172.3
 20
81.2
 30
0.0
 11
172.3
 21
58.0
 31
0.0
  0
LINE
  5
41B
100
AcDbEntity
  8
LAY-2
  6
CONTINUOUS
 62
     3
100
AcDbLine
 10
166.3
 20
81.1
 30
0.0
 11
166.3
 21
58.1
 31
0.0
  0
LINE
  5
41C
100
AcDbEntity
  8
LAY-2
  6
CONTINUOUS
 62
     3
100
AcDbLine
 10
214.8
 20
58.0
 30
0.0
 11
213.55
 21
58.0
 31
0.0
  0
LINE
  5
41D
100
AcDbEntity
  8
LAY-2
  6
CONTINUOUS
 62
     3
100
AcDbLine
 10
219.05
 20
58.1
 30
0.0
 11
214.8
 21
58.1
 31
0.0
  0
LINE
  5
41E
100
AcDbEntity
  8
LAY-2
  6
CONTINUOUS
 62
     3
100
AcDbLine
 10
220.3
 20
58.0
 30
0.0
 11
219.05
 21
58.0
 31
0.0
  0
LINE
  5
41F
100
AcDbEntity
  8
LAY-2
  6
CONTINUOUS
 62
     3
100
AcDbLine
 10
226.3
 20
58.1
 30
0.0
 11
220.3
 21
58.1
 31
0.0
  0
LINE
  5
420
100
AcDbEntity
  8
LAY-2
  6
CONTINUOUS
 62
     3
100
AcDbLine
 10
214.787372
 20
81.95
 30
0.0
 11
213.562628
 21
81.95
 31
0.0
  0
LINE
  5
421
100
AcDbEntity
  8
LAY-2
  6
CONTINUOUS
 62
     3
100
AcDbLine
 10
214.787372
 20
81.7
 30
0.0
 11
213.562628
 21
81.7
 31
0.0
  0
CIRCLE
  5
422
100
AcDbEntity
  8
LAY-2
  6
CONTINUOUS
 62
     3
100
AcDbCircle
 10
214.175
 20
81.825
 30
0.0
 40
0.625
  0
LINE
  5
423
100
AcDbEntity
  8
LAY-2
  6
CONTINUOUS
 62
     3
100
AcDbLine
 10
214.8
 20
81.2
 30
0.0
 11
213.55
 21
81.2
 31
0.0
  0
LINE
  5
424
100
AcDbEntity
  8
LAY-2
  6
CONTINUOUS
 62
     3
100
AcDbLine
 10
219.05
 20
81.1
 30
0.0
 11
214.8
 21
81.1
 31
0.0
  0
LINE
  5
425
100
AcDbEntity
  8
LAY-2
  6
CONTINUOUS
 62
     3
100
AcDbLine
 10
220.287372
 20
81.95
 30
0.0
 11
219.062628
 21
81.95
 31
0.0
  0
LINE
  5
426
100
AcDbEntity
  8
LAY-2
  6
CONTINUOUS
 62
     3
100
AcDbLine
 10
220.287372
 20
81.7
 30
0.0
 11
219.062628
 21
81.7
 31
0.0
  0
CIRCLE
  5
427
100
AcDbEntity
  8
LAY-2
  6
CONTINUOUS
 62
     3
100
AcDbCircle
 10
219.675
 20
81.825
 30
0.0
 40
0.625
  0
LINE
  5
428
100
AcDbEntity
  8
LAY-2
  6
CONTINUOUS
 62
     3
100
AcDbLine
 10
220.3
 20
81.2
 30
0.0
 11
219.05
 21
81.2
 31
0.0
  0
LINE
  5
429
100
AcDbEntity
  8
LAY-2
  6
CONTINUOUS
 62
     3
100
AcDbLine
 10
226.3
 20
81.1
 30
0.0
 11
220.3
 21
81.1
 31
0.0
  0
LINE
  5
42A
100
AcDbEntity
  8
LAY-2
  6
CONTINUOUS
 62
     3
100
AcDbLine
 10
214.8
 20
81.2
 30
0.0
 11
214.8
 21
58.0
 31
0.0
  0
LINE
  5
42B
100
AcDbEntity
  8
LAY-2
  6
CONTINUOUS
 62
     3
100
AcDbLine
 10
213.55
 20
81.2
 30
0.0
 11
213.55
 21
58.0
 31
0.0
  0
LINE
  5
42C
100
AcDbEntity
  8
LAY-2
  6
CONTINUOUS
 62
     3
100
AcDbLine
 10
220.3
 20
81.2
 30
0.0
 11
220.3
 21
58.0
 31
0.0
  0
LINE
  5
42D
100
AcDbEntity
  8
LAY-2
  6
CONTINUOUS
 62
     3
100
AcDbLine
 10
219.05
 20
81.2
 30
0.0
 11
219.05
 21
58.0
 31
0.0
  0
LINE
  5
42E
100
AcDbEntity
  8
LAY-2
  6
CONTINUOUS
 62
     3
100
AcDbLine
 10
226.3
 20
58.1
 30
0.0
 11
226.3
 21
81.1
 31
0.0
  0
LINE
  5
42F
100
AcDbEntity
  8
LAY-2
  6
CONTINUOUS
 62
     3
100
AcDbLine
 10
213.55
 20
81.1
 30
0.0
 11
205.9
 21
81.1
 31
0.0
  0
LINE
  5
430
100
AcDbEntity
  8
LAY-2
  6
CONTINUOUS
 62
     3
100
AcDbLine
 10
213.55
 20
58.1
 30
0.0
 11
205.9
 21
58.1
 31
0.0
  0
LINE
  5
431
100
AcDbEntity
  8
LAY-2
  6
CONTINUOUS
 62
     3
100
AcDbLine
 10
179.05
 20
58.1
 30
0.0
 11
186.7
 21
58.1
 31
0.0
  0
LINE
  5
432
100
AcDbEntity
  8
LAY-2
  6
CONTINUOUS
 62
     3
100
AcDbLine
 10
179.05
 20
81.1
 30
0.0
 11
186.7
 21
81.1
 31
0.0
  0
ARC
  5
433
100
AcDbEntity
  8
LAY-2
  6
CONTINUOUS
 62
     3
100
AcDbCircle
 10
186.7
 20
80.5
 30
0.0
 40
0.6
100
AcDbArc
 50
0.0
 51
90.0
  0
LINE
  5
434
100
AcDbEntity
  8
LAY-2
  6
CONTINUOUS
 62
     3
100
AcDbLine
 10
191.3
 20
80.25
 30
0.0
 11
192.101127
 21
80.25
 31
0.0
  0
LINE
  5
435
100
AcDbEntity
  8
LAY-2
  6
CONTINUOUS
 62
     3
100
AcDbLine
 10
189.7
 20
80.25
 30
0.0
 11
190.501127
 21
80.25
 31
0.0
  0
LINE
  5
436
100
AcDbEntity
  8
LAY-2
  6
CONTINUOUS
 62
     3
100
AcDbLine
 10
187.3
 20
80.25
 30
0.0
 11
187.301127
 21
80.25
 31
0.0
  0
LINE
  5
437
100
AcDbEntity
  8
LAY-2
  6
CONTINUOUS
 62
     3
100
AcDbLine
 10
188.1
 20
80.25
 30
0.0
 11
188.901127
 21
80.25
 31
0.0
  0
ARC
  5
438
100
AcDbEntity
  8
LAY-2
  6
CONTINUOUS
 62
     3
100
AcDbCircle
 10
192.5
 20
80.25
 30
0.0
 40
0.4
100
AcDbArc
 50
0.0
 51
185.193015
  0
ARC
  5
439
100
AcDbEntity
  8
LAY-2
  6
CONTINUOUS
 62
     3
100
AcDbCircle
 10
190.9
 20
80.25
 30
0.0
 40
0.4
100
AcDbArc
 50
0.0
 51
185.193015
  0
ARC
  5
43A
100
AcDbEntity
  8
LAY-2
  6
CONTINUOUS
 62
     3
100
AcDbCircle
 10
189.3
 20
80.25
 30
0.0
 40
0.4
100
AcDbArc
 50
0.0
 51
185.193015
  0
ARC
  5
43B
100
AcDbEntity
  8
LAY-2
  6
CONTINUOUS
 62
     3
100
AcDbCircle
 10
187.7
 20
80.25
 30
0.0
 40
0.4
100
AcDbArc
 50
0.0
 51
185.193015
  0
ARC
  5
43C
100
AcDbEntity
  8
LAY-2
  6
CONTINUOUS
 62
     3
100
AcDbCircle
 10
205.9
 20
80.5
 30
0.0
 40
0.6
100
AcDbArc
 50
90.0
 51
180.0
  0
ARC
  5
43D
100
AcDbEntity
  8
LAY-2
  6
CONTINUOUS
 62
     3
100
AcDbCircle
 10
205.3
 20
80.25
 30
0.0
 40
0.4
100
AcDbArc
 50
87.286478
 51
180.0
  0
LINE
  5
43E
100
AcDbEntity
  8
LAY-2
  6
CONTINUOUS
 62
     3
100
AcDbLine
 10
204.801662
 20
80.25
 30
0.0
 11
204.901127
 21
80.25
 31
0.0
  0
LINE
  5
43F
100
AcDbEntity
  8
LAY-2
  6
CONTINUOUS
 62
     3
100
AcDbLine
 10
205.3
 20
80.25
 30
0.0
 11
205.301662
 21
80.25
 31
0.0
  0
LINE
  5
440
100
AcDbEntity
  8
LAY-2
  6
CONTINUOUS
 62
     3
100
AcDbLine
 10
202.5
 20
80.25
 30
0.0
 11
203.301127
 21
80.25
 31
0.0
  0
LINE
  5
441
100
AcDbEntity
  8
LAY-2
  6
CONTINUOUS
 62
     3
100
AcDbLine
 10
200.9
 20
80.25
 30
0.0
 11
201.701127
 21
80.25
 31
0.0
  0
LINE
  5
442
100
AcDbEntity
  8
LAY-2
  6
CONTINUOUS
 62
     3
100
AcDbLine
 10
204.1
 20
80.25
 30
0.0
 11
204.900282
 21
80.25
 31
0.0
  0
LINE
  5
443
100
AcDbEntity
  8
LAY-2
  6
CONTINUOUS
 62
     3
100
AcDbLine
 10
205.3
 20
80.25
 30
0.0
 11
205.301662
 21
80.25
 31
0.0
  0
ARC
  5
444
100
AcDbEntity
  8
LAY-2
  6
CONTINUOUS
 62
     3
100
AcDbCircle
 10
203.7
 20
80.25
 30
0.0
 40
0.4
100
AcDbArc
 50
0.0
 51
185.193015
  0
ARC
  5
445
100
AcDbEntity
  8
LAY-2
  6
CONTINUOUS
 62
     3
100
AcDbCircle
 10
202.1
 20
80.25
 30
0.0
 40
0.4
100
AcDbArc
 50
0.0
 51
185.193015
  0
ARC
  5
446
100
AcDbEntity
  8
LAY-2
  6
CONTINUOUS
 62
     3
100
AcDbCircle
 10
200.5
 20
80.25
 30
0.0
 40
0.4
100
AcDbArc
 50
0.0
 51
185.193015
  0
LINE
  5
447
100
AcDbEntity
  8
LAY-2
  6
CONTINUOUS
 62
     3
100
AcDbLine
 10
205.3
 20
58.7
 30
0.0
 11
205.3
 21
80.5
 31
0.0
  0
LINE
  5
448
100
AcDbEntity
  8
LAY-2
  6
CONTINUOUS
 62
     3
100
AcDbLine
 10
204.899718
 20
80.265013
 30
0.0
 11
205.3
 21
69.607509
 31
0.0
  0
LINE
  5
449
100
AcDbEntity
  8
LAY-2
  6
CONTINUOUS
 62
     3
100
AcDbLine
 10
204.099718
 20
80.265013
 30
0.0
 11
204.899718
 21
58.965013
 31
0.0
  0
LINE
  5
44A
100
AcDbEntity
  8
LAY-2
  6
CONTINUOUS
 62
     3
100
AcDbLine
 10
203.299718
 20
80.265013
 30
0.0
 11
204.099718
 21
58.965013
 31
0.0
  0
LINE
  5
44B
100
AcDbEntity
  8
LAY-2
  6
CONTINUOUS
 62
     3
100
AcDbLine
 10
202.499718
 20
80.265013
 30
0.0
 11
203.299718
 21
58.965013
 31
0.0
  0
LINE
  5
44C
100
AcDbEntity
  8
LAY-2
  6
CONTINUOUS
 62
     3
100
AcDbLine
 10
201.699718
 20
80.265013
 30
0.0
 11
202.499718
 21
58.965013
 31
0.0
  0
LINE
  5
44D
100
AcDbEntity
  8
LAY-2
  6
CONTINUOUS
 62
     3
100
AcDbLine
 10
200.899718
 20
80.265013
 30
0.0
 11
201.699718
 21
58.965013
 31
0.0
  0
LINE
  5
44E
100
AcDbEntity
  8
LAY-2
  6
CONTINUOUS
 62
     3
100
AcDbLine
 10
200.099718
 20
80.265013
 30
0.0
 11
200.899718
 21
58.965013
 31
0.0
  0
LINE
  5
44F
100
AcDbEntity
  8
LAY-2
  6
CONTINUOUS
 62
     3
100
AcDbLine
 10
204.9
 20
58.95
 30
0.0
 11
205.301662
 21
58.95
 31
0.0
  0
ARC
  5
450
100
AcDbEntity
  8
LAY-2
  6
CONTINUOUS
 62
     3
100
AcDbCircle
 10
204.5
 20
58.95
 30
0.0
 40
0.4
100
AcDbArc
 50
180.0
 51
2.150943
  0
ARC
  5
451
100
AcDbEntity
  8
LAY-2
  6
CONTINUOUS
 62
     3
100
AcDbCircle
 10
202.9
 20
58.95
 30
0.0
 40
0.4
100
AcDbArc
 50
180.0
 51
2.150943
  0
LINE
  5
452
100
AcDbEntity
  8
LAY-2
  6
CONTINUOUS
 62
     3
100
AcDbLine
 10
203.3
 20
58.95
 30
0.0
 11
204.1
 21
58.95
 31
0.0
  0
LINE
  5
453
100
AcDbEntity
  8
LAY-2
  6
CONTINUOUS
 62
     3
100
AcDbLine
 10
201.7
 20
58.95
 30
0.0
 11
202.5
 21
58.95
 31
0.0
  0
ARC
  5
454
100
AcDbEntity
  8
LAY-2
  6
CONTINUOUS
 62
     3
100
AcDbCircle
 10
201.3
 20
58.95
 30
0.0
 40
0.4
100
AcDbArc
 50
180.0
 51
2.150943
  0
ARC
  5
455
100
AcDbEntity
  8
LAY-2
  6
CONTINUOUS
 62
     3
100
AcDbCircle
 10
205.9
 20
58.7
 30
0.0
 40
0.6
100
AcDbArc
 50
180.0
 51
270.0
  0
ARC
  5
456
100
AcDbEntity
  8
LAY-2
  6
CONTINUOUS
 62
     3
100
AcDbCircle
 10
186.7
 20
58.7
 30
0.0
 40
0.6
100
AcDbArc
 50
270.0
 51
0.0
  0
ARC
  5
457
100
AcDbEntity
  8
LAY-2
  6
CONTINUOUS
 62
     3
100
AcDbCircle
 10
186.7
 20
58.7
 30
0.0
 40
0.6
100
AcDbArc
 50
270.0
 51
0.0
  0
ARC
  5
458
100
AcDbEntity
  8
LAY-2
  6
CONTINUOUS
 62
     3
100
AcDbCircle
 10
193.3
 20
58.95
 30
0.0
 40
0.4
100
AcDbArc
 50
180.0
 51
2.150943
  0
LINE
  5
459
100
AcDbEntity
  8
LAY-2
  6
CONTINUOUS
 62
     3
100
AcDbLine
 10
192.1
 20
58.95
 30
0.0
 11
192.9
 21
58.95
 31
0.0
  0
ARC
  5
45A
100
AcDbEntity
  8
LAY-2
  6
CONTINUOUS
 62
     3
100
AcDbCircle
 10
191.7
 20
58.95
 30
0.0
 40
0.4
100
AcDbArc
 50
180.0
 51
2.150943
  0
LINE
  5
45B
100
AcDbEntity
  8
LAY-2
  6
CONTINUOUS
 62
     3
100
AcDbLine
 10
190.5
 20
58.95
 30
0.0
 11
191.3
 21
58.95
 31
0.0
  0
ARC
  5
45C
100
AcDbEntity
  8
LAY-2
  6
CONTINUOUS
 62
     3
100
AcDbCircle
 10
190.1
 20
58.95
 30
0.0
 40
0.4
100
AcDbArc
 50
180.0
 51
2.150943
  0
LINE
  5
45D
100
AcDbEntity
  8
LAY-2
  6
CONTINUOUS
 62
     3
100
AcDbLine
 10
187.3
 20
58.95
 30
0.0
 11
188.1
 21
58.95
 31
0.0
  0
LINE
  5
45E
100
AcDbEntity
  8
LAY-2
  6
CONTINUOUS
 62
     3
100
AcDbLine
 10
188.9
 20
58.95
 30
0.0
 11
189.7
 21
58.95
 31
0.0
  0
ARC
  5
45F
100
AcDbEntity
  8
LAY-2
  6
CONTINUOUS
 62
     3
100
AcDbCircle
 10
188.5
 20
58.95
 30
0.0
 40
0.4
100
AcDbArc
 50
180.0
 51
2.150943
  0
LINE
  5
460
100
AcDbEntity
  8
LAY-2
  6
CONTINUOUS
 62
     3
100
AcDbLine
 10
187.3
 20
80.5
 30
0.0
 11
187.3
 21
58.7
 31
0.0
  0
LINE
  5
461
100
AcDbEntity
  8
LAY-2
  6
CONTINUOUS
 62
     3
100
AcDbLine
 10
187.299718
 20
80.265013
 30
0.0
 11
188.099718
 21
58.965013
 31
0.0
  0
LINE
  5
462
100
AcDbEntity
  8
LAY-2
  6
CONTINUOUS
 62
     3
100
AcDbLine
 10
188.099718
 20
80.265013
 30
0.0
 11
188.899718
 21
58.965013
 31
0.0
  0
LINE
  5
463
100
AcDbEntity
  8
LAY-2
  6
CONTINUOUS
 62
     3
100
AcDbLine
 10
188.899718
 20
80.265013
 30
0.0
 11
189.699718
 21
58.965013
 31
0.0
  0
LINE
  5
464
100
AcDbEntity
  8
LAY-2
  6
CONTINUOUS
 62
     3
100
AcDbLine
 10
189.699718
 20
80.265013
 30
0.0
 11
190.499718
 21
58.965013
 31
0.0
  0
LINE
  5
465
100
AcDbEntity
  8
LAY-2
  6
CONTINUOUS
 62
     3
100
AcDbLine
 10
190.499718
 20
80.265013
 30
0.0
 11
191.299718
 21
58.965013
 31
0.0
  0
LINE
  5
466
100
AcDbEntity
  8
LAY-2
  6
CONTINUOUS
 62
     3
100
AcDbLine
 10
191.299718
 20
80.265013
 30
0.0
 11
192.099718
 21
58.965013
 31
0.0
  0
LINE
  5
467
100
AcDbEntity
  8
LAY-2
  6
CONTINUOUS
 62
     3
100
AcDbLine
 10
192.099718
 20
80.265013
 30
0.0
 11
192.899718
 21
58.965013
 31
0.0
  0
LINE
  5
468
100
AcDbEntity
  8
LAY-2
  6
CONTINUOUS
 62
     3
100
AcDbLine
 10
192.899718
 20
80.265013
 30
0.0
 11
193.699718
 21
58.965013
 31
0.0
  0
LINE
  5
469
100
AcDbEntity
  8
LAY-2
  6
CONTINUOUS
 62
     3
100
AcDbLine
 10
90.512628
 20
79.35
 30
0.0
 11
91.737372
 21
79.35
 31
0.0
  0
LINE
  5
46A
100
AcDbEntity
  8
LAY-2
  6
CONTINUOUS
 62
     3
100
AcDbLine
 10
90.512628
 20
79.1
 30
0.0
 11
91.737372
 21
79.1
 31
0.0
  0
CIRCLE
  5
46B
100
AcDbEntity
  8
LAY-2
  6
CONTINUOUS
 62
     3
100
AcDbCircle
 10
91.125
 20
79.225
 30
0.0
 40
0.625
  0
LINE
  5
46C
100
AcDbEntity
  8
LAY-2
  6
CONTINUOUS
 62
     3
100
AcDbLine
 10
90.5
 20
78.6
 30
0.0
 11
91.75
 21
78.6
 31
0.0
  0
LINE
  5
46D
100
AcDbEntity
  8
LAY-2
  6
CONTINUOUS
 62
     3
100
AcDbLine
 10
87.25
 20
78.5
 30
0.0
 11
90.5
 21
78.5
 31
0.0
  0
LINE
  5
46E
100
AcDbEntity
  8
LAY-2
  6
CONTINUOUS
 62
     3
100
AcDbLine
 10
86.012628
 20
79.35
 30
0.0
 11
87.237372
 21
79.35
 31
0.0
  0
LINE
  5
46F
100
AcDbEntity
  8
LAY-2
  6
CONTINUOUS
 62
     3
100
AcDbLine
 10
86.012628
 20
79.1
 30
0.0
 11
87.237372
 21
79.1
 31
0.0
  0
CIRCLE
  5
470
100
AcDbEntity
  8
LAY-2
  6
CONTINUOUS
 62
     3
100
AcDbCircle
 10
86.625
 20
79.225
 30
0.0
 40
0.625
  0
LINE
  5
471
100
AcDbEntity
  8
LAY-2
  6
CONTINUOUS
 62
     3
100
AcDbLine
 10
86.0
 20
78.6
 30
0.0
 11
87.25
 21
78.6
 31
0.0
  0
LINE
  5
472
100
AcDbEntity
  8
LAY-2
  6
CONTINUOUS
 62
     3
100
AcDbLine
 10
82.0
 20
78.5
 30
0.0
 11
86.0
 21
78.5
 31
0.0
  0
LINE
  5
473
100
AcDbEntity
  8
LAY-2
  6
CONTINUOUS
 62
     3
100
AcDbLine
 10
90.5
 20
60.6
 30
0.0
 11
91.75
 21
60.6
 31
0.0
  0
LINE
  5
474
100
AcDbEntity
  8
LAY-2
  6
CONTINUOUS
 62
     3
100
AcDbLine
 10
90.5
 20
78.6
 30
0.0
 11
90.5
 21
60.6
 31
0.0
  0
LINE
  5
475
100
AcDbEntity
  8
LAY-2
  6
CONTINUOUS
 62
     3
100
AcDbLine
 10
91.75
 20
78.6
 30
0.0
 11
91.75
 21
60.6
 31
0.0
  0
LINE
  5
476
100
AcDbEntity
  8
LAY-2
  6
CONTINUOUS
 62
     3
100
AcDbLine
 10
87.25
 20
60.7
 30
0.0
 11
90.5
 21
60.7
 31
0.0
  0
LINE
  5
477
100
AcDbEntity
  8
LAY-2
  6
CONTINUOUS
 62
     3
100
AcDbLine
 10
86.0
 20
60.6
 30
0.0
 11
87.25
 21
60.6
 31
0.0
  0
LINE
  5
478
100
AcDbEntity
  8
LAY-2
  6
CONTINUOUS
 62
     3
100
AcDbLine
 10
86.0
 20
78.6
 30
0.0
 11
86.0
 21
60.6
 31
0.0
  0
LINE
  5
479
100
AcDbEntity
  8
LAY-2
  6
CONTINUOUS
 62
     3
100
AcDbLine
 10
87.25
 20
78.6
 30
0.0
 11
87.25
 21
60.6
 31
0.0
  0
LINE
  5
47A
100
AcDbEntity
  8
LAY-2
  6
CONTINUOUS
 62
     3
100
AcDbLine
 10
82.0
 20
60.7
 30
0.0
 11
86.0
 21
60.7
 31
0.0
  0
LINE
  5
47B
100
AcDbEntity
  8
LAY-2
  6
CONTINUOUS
 62
     3
100
AcDbLine
 10
82.0
 20
78.5
 30
0.0
 11
82.0
 21
60.7
 31
0.0
  0
LINE
  5
47C
100
AcDbEntity
  8
LAY-2
  6
CONTINUOUS
 62
     3
100
AcDbLine
 10
91.75
 20
78.5
 30
0.0
 11
97.4
 21
78.5
 31
0.0
  0
LINE
  5
47D
100
AcDbEntity
  8
LAY-2
  6
CONTINUOUS
 62
     3
100
AcDbLine
 10
91.75
 20
60.7
 30
0.0
 11
97.4
 21
60.7
 31
0.0
  0
ARC
  5
47E
100
AcDbEntity
  8
LAY-2
  6
CONTINUOUS
 62
     3
100
AcDbCircle
 10
97.4
 20
61.3
 30
0.0
 40
0.6
100
AcDbArc
 50
270.0
 51
0.0
  0
LINE
  5
47F
100
AcDbEntity
  8
LAY-2
  6
CONTINUOUS
 62
     3
100
AcDbLine
 10
98.0
 20
77.9
 30
0.0
 11
98.0
 21
61.3
 31
0.0
  0
ARC
  5
480
100
AcDbEntity
  8
LAY-2
  6
CONTINUOUS
 62
     3
100
AcDbCircle
 10
97.4
 20
77.9
 30
0.0
 40
0.6
100
AcDbArc
 50
0.0
 51
90.0
  0
ARC
  5
481
100
AcDbEntity
  8
LAY-2
  6
CONTINUOUS
 62
     3
100
AcDbCircle
 10
103.2
 20
77.65
 30
0.0
 40
0.4
100
AcDbArc
 50
0.0
 51
186.86802
  0
ARC
  5
482
100
AcDbEntity
  8
LAY-2
  6
CONTINUOUS
 62
     3
100
AcDbCircle
 10
101.6
 20
77.65
 30
0.0
 40
0.4
100
AcDbArc
 50
0.0
 51
186.86802
  0
LINE
  5
483
100
AcDbEntity
  8
LAY-2
  6
CONTINUOUS
 62
     3
100
AcDbLine
 10
102.0
 20
77.65
 30
0.0
 11
102.800494
 21
77.65
 31
0.0
  0
ARC
  5
484
100
AcDbEntity
  8
LAY-2
  6
CONTINUOUS
 62
     3
100
AcDbCircle
 10
100.0
 20
77.65
 30
0.0
 40
0.4
100
AcDbArc
 50
0.0
 51
186.86802
  0
LINE
  5
485
100
AcDbEntity
  8
LAY-2
  6
CONTINUOUS
 62
     3
100
AcDbLine
 10
100.4
 20
77.65
 30
0.0
 11
101.200494
 21
77.65
 31
0.0
  0
ARC
  5
486
100
AcDbEntity
  8
LAY-2
  6
CONTINUOUS
 62
     3
100
AcDbCircle
 10
98.4
 20
77.65
 30
0.0
 40
0.4
100
AcDbArc
 50
0.0
 51
186.86802
  0
LINE
  5
487
100
AcDbEntity
  8
LAY-2
  6
CONTINUOUS
 62
     3
100
AcDbLine
 10
97.99541
 20
77.65
 30
0.0
 11
98.000494
 21
77.65
 31
0.0
  0
LINE
  5
488
100
AcDbEntity
  8
LAY-2
  6
CONTINUOUS
 62
     3
100
AcDbLine
 10
98.8
 20
77.65
 30
0.0
 11
99.600494
 21
77.65
 31
0.0
  0
ARC
  5
489
100
AcDbEntity
  8
LAY-2
  6
CONTINUOUS
 62
     3
100
AcDbCircle
 10
99.2
 20
61.55
 30
0.0
 40
0.4
100
AcDbArc
 50
180.0
 51
2.844656
  0
LINE
  5
48A
100
AcDbEntity
  8
LAY-2
  6
CONTINUOUS
 62
     3
100
AcDbLine
 10
97.99541
 20
61.55
 30
0.0
 11
98.8
 21
61.55
 31
0.0
  0
ARC
  5
48B
100
AcDbEntity
  8
LAY-2
  6
CONTINUOUS
 62
     3
100
AcDbCircle
 10
100.8
 20
61.55
 30
0.0
 40
0.4
100
AcDbArc
 50
180.0
 51
2.844656
  0
LINE
  5
48C
100
AcDbEntity
  8
LAY-2
  6
CONTINUOUS
 62
     3
100
AcDbLine
 10
99.6
 20
61.55
 30
0.0
 11
100.4
 21
61.55
 31
0.0
  0
ARC
  5
48D
100
AcDbEntity
  8
LAY-2
  6
CONTINUOUS
 62
     3
100
AcDbCircle
 10
102.4
 20
61.55
 30
0.0
 40
0.4
100
AcDbArc
 50
180.0
 51
2.844656
  0
LINE
  5
48E
100
AcDbEntity
  8
LAY-2
  6
CONTINUOUS
 62
     3
100
AcDbLine
 10
101.2
 20
61.55
 30
0.0
 11
102.0
 21
61.55
 31
0.0
  0
ARC
  5
48F
100
AcDbEntity
  8
LAY-2
  6
CONTINUOUS
 62
     3
100
AcDbCircle
 10
104.0
 20
61.55
 30
0.0
 40
0.4
100
AcDbArc
 50
180.0
 51
2.844656
  0
LINE
  5
490
100
AcDbEntity
  8
LAY-2
  6
CONTINUOUS
 62
     3
100
AcDbLine
 10
102.8
 20
61.55
 30
0.0
 11
103.6
 21
61.55
 31
0.0
  0
LINE
  5
491
100
AcDbEntity
  8
LAY-2
  6
CONTINUOUS
 62
     3
100
AcDbLine
 10
97.999507
 20
77.669851
 30
0.0
 11
98.799507
 21
61.569851
 31
0.0
  0
LINE
  5
492
100
AcDbEntity
  8
LAY-2
  6
CONTINUOUS
 62
     3
100
AcDbLine
 10
98.799507
 20
77.669851
 30
0.0
 11
99.599507
 21
61.569851
 31
0.0
  0
LINE
  5
493
100
AcDbEntity
  8
LAY-2
  6
CONTINUOUS
 62
     3
100
AcDbLine
 10
99.599507
 20
77.669851
 30
0.0
 11
100.399507
 21
61.569851
 31
0.0
  0
LINE
  5
494
100
AcDbEntity
  8
LAY-2
  6
CONTINUOUS
 62
     3
100
AcDbLine
 10
100.399507
 20
77.669851
 30
0.0
 11
101.199507
 21
61.569851
 31
0.0
  0
LINE
  5
495
100
AcDbEntity
  8
LAY-2
  6
CONTINUOUS
 62
     3
100
AcDbLine
 10
101.199507
 20
77.669851
 30
0.0
 11
101.999507
 21
61.569851
 31
0.0
  0
LINE
  5
496
100
AcDbEntity
  8
LAY-2
  6
CONTINUOUS
 62
     3
100
AcDbLine
 10
101.999507
 20
77.669851
 30
0.0
 11
102.799507
 21
61.569851
 31
0.0
  0
LINE
  5
497
100
AcDbEntity
  8
LAY-2
  6
CONTINUOUS
 62
     3
100
AcDbLine
 10
102.799507
 20
77.669851
 30
0.0
 11
103.599507
 21
61.569851
 31
0.0
  0
LINE
  5
498
100
AcDbEntity
  8
LAY-2
  6
CONTINUOUS
 62
     3
100
AcDbLine
 10
103.599507
 20
77.669851
 30
0.0
 11
104.399507
 21
61.569851
 31
0.0
  0
ARC
  5
499
100
AcDbEntity
  8
LAY-2
  6
CONTINUOUS
 62
     3
100
AcDbCircle
 10
116.0
 20
77.65
 30
0.0
 40
0.4
100
AcDbArc
 50
87.286478
 51
180.0
  0
ARC
  5
49A
100
AcDbEntity
  8
LAY-2
  6
CONTINUOUS
 62
     3
100
AcDbCircle
 10
116.6
 20
77.9
 30
0.0
 40
0.6
100
AcDbArc
 50
90.0
 51
180.0
  0
LINE
  5
49B
100
AcDbEntity
  8
LAY-2
  6
CONTINUOUS
 62
     3
100
AcDbLine
 10
116.0
 20
61.3
 30
0.0
 11
116.0
 21
77.9
 31
0.0
  0
LINE
  5
49C
100
AcDbEntity
  8
LAY-2
  6
CONTINUOUS
 62
     3
100
AcDbLine
 10
115.599507
 20
77.669851
 30
0.0
 11
116.0
 21
69.609932
 31
0.0
  0
LINE
  5
49D
100
AcDbEntity
  8
LAY-2
  6
CONTINUOUS
 62
     3
100
AcDbLine
 10
114.8
 20
77.65
 30
0.0
 11
115.60287
 21
77.65
 31
0.0
  0
ARC
  5
49E
100
AcDbEntity
  8
LAY-2
  6
CONTINUOUS
 62
     3
100
AcDbCircle
 10
114.4
 20
77.65
 30
0.0
 40
0.4
100
AcDbArc
 50
0.0
 51
186.86802
  0
LINE
  5
49F
100
AcDbEntity
  8
LAY-2
  6
CONTINUOUS
 62
     3
100
AcDbLine
 10
113.2
 20
77.65
 30
0.0
 11
114.000494
 21
77.65
 31
0.0
  0
ARC
  5
4A0
100
AcDbEntity
  8
LAY-2
  6
CONTINUOUS
 62
     3
100
AcDbCircle
 10
112.8
 20
77.65
 30
0.0
 40
0.4
100
AcDbArc
 50
0.0
 51
186.86802
  0
ARC
  5
4A1
100
AcDbEntity
  8
LAY-2
  6
CONTINUOUS
 62
     3
100
AcDbCircle
 10
111.2
 20
77.65
 30
0.0
 40
0.4
100
AcDbArc
 50
0.0
 51
186.86802
  0
LINE
  5
4A2
100
AcDbEntity
  8
LAY-2
  6
CONTINUOUS
 62
     3
100
AcDbLine
 10
111.6
 20
77.65
 30
0.0
 11
112.400494
 21
77.65
 31
0.0
  0
ARC
  5
4A3
100
AcDbEntity
  8
LAY-2
  6
CONTINUOUS
 62
     3
100
AcDbCircle
 10
116.6
 20
61.3
 30
0.0
 40
0.6
100
AcDbArc
 50
180.0
 51
270.0
  0
ARC
  5
4A4
100
AcDbEntity
  8
LAY-2
  6
CONTINUOUS
 62
     3
100
AcDbCircle
 10
112.0
 20
61.55
 30
0.0
 40
0.4
100
AcDbArc
 50
180.0
 51
2.844656
  0
ARC
  5
4A5
100
AcDbEntity
  8
LAY-2
  6
CONTINUOUS
 62
     3
100
AcDbCircle
 10
113.6
 20
61.55
 30
0.0
 40
0.4
100
AcDbArc
 50
180.0
 51
2.844656
  0
LINE
  5
4A6
100
AcDbEntity
  8
LAY-2
  6
CONTINUOUS
 62
     3
100
AcDbLine
 10
112.4
 20
61.55
 30
0.0
 11
113.2
 21
61.55
 31
0.0
  0
LINE
  5
4A7
100
AcDbEntity
  8
LAY-2
  6
CONTINUOUS
 62
     3
100
AcDbLine
 10
114.0
 20
61.55
 30
0.0
 11
114.8
 21
61.55
 31
0.0
  0
LINE
  5
4A8
100
AcDbEntity
  8
LAY-2
  6
CONTINUOUS
 62
     3
100
AcDbLine
 10
115.6
 20
61.55
 30
0.0
 11
116.0
 21
61.55
 31
0.0
  0
ARC
  5
4A9
100
AcDbEntity
  8
LAY-2
  6
CONTINUOUS
 62
     3
100
AcDbCircle
 10
115.2
 20
61.55
 30
0.0
 40
0.4
100
AcDbArc
 50
180.0
 51
2.844656
  0
LINE
  5
4AA
100
AcDbEntity
  8
LAY-2
  6
CONTINUOUS
 62
     3
100
AcDbLine
 10
110.799507
 20
77.669851
 30
0.0
 11
111.599507
 21
61.569851
 31
0.0
  0
LINE
  5
4AB
100
AcDbEntity
  8
LAY-2
  6
CONTINUOUS
 62
     3
100
AcDbLine
 10
111.599507
 20
77.669851
 30
0.0
 11
112.399507
 21
61.569851
 31
0.0
  0
LINE
  5
4AC
100
AcDbEntity
  8
LAY-2
  6
CONTINUOUS
 62
     3
100
AcDbLine
 10
112.399507
 20
77.669851
 30
0.0
 11
113.199507
 21
61.569851
 31
0.0
  0
LINE
  5
4AD
100
AcDbEntity
  8
LAY-2
  6
CONTINUOUS
 62
     3
100
AcDbLine
 10
113.199507
 20
77.669851
 30
0.0
 11
113.999507
 21
61.569851
 31
0.0
  0
LINE
  5
4AE
100
AcDbEntity
  8
LAY-2
  6
CONTINUOUS
 62
     3
100
AcDbLine
 10
113.999507
 20
77.669851
 30
0.0
 11
114.799507
 21
61.569851
 31
0.0
  0
LINE
  5
4AF
100
AcDbEntity
  8
LAY-2
  6
CONTINUOUS
 62
     3
100
AcDbLine
 10
114.799507
 20
77.669851
 30
0.0
 11
115.599507
 21
61.569851
 31
0.0
  0
LINE
  5
4B0
100
AcDbEntity
  8
LAY-2
  6
CONTINUOUS
 62
     3
100
AcDbLine
 10
122.25
 20
60.7
 30
0.0
 11
116.6
 21
60.7
 31
0.0
  0
LINE
  5
4B1
100
AcDbEntity
  8
LAY-2
  6
CONTINUOUS
 62
     3
100
AcDbLine
 10
122.25
 20
78.5
 30
0.0
 11
116.6
 21
78.5
 31
0.0
  0
LINE
  5
4B2
100
AcDbEntity
  8
LAY-2
  6
CONTINUOUS
 62
     3
100
AcDbLine
 10
123.487372
 20
79.35
 30
0.0
 11
122.262628
 21
79.35
 31
0.0
  0
LINE
  5
4B3
100
AcDbEntity
  8
LAY-2
  6
CONTINUOUS
 62
     3
100
AcDbLine
 10
123.487372
 20
79.1
 30
0.0
 11
122.262628
 21
79.1
 31
0.0
  0
CIRCLE
  5
4B4
100
AcDbEntity
  8
LAY-2
  6
CONTINUOUS
 62
     3
100
AcDbCircle
 10
122.875
 20
79.225
 30
0.0
 40
0.625
  0
LINE
  5
4B5
100
AcDbEntity
  8
LAY-2
  6
CONTINUOUS
 62
     3
100
AcDbLine
 10
123.5
 20
78.6
 30
0.0
 11
122.25
 21
78.6
 31
0.0
  0
LINE
  5
4B6
100
AcDbEntity
  8
LAY-2
  6
CONTINUOUS
 62
     3
100
AcDbLine
 10
126.75
 20
78.5
 30
0.0
 11
123.5
 21
78.5
 31
0.0
  0
LINE
  5
4B7
100
AcDbEntity
  8
LAY-2
  6
CONTINUOUS
 62
     3
100
AcDbLine
 10
127.987372
 20
79.35
 30
0.0
 11
126.762628
 21
79.35
 31
0.0
  0
LINE
  5
4B8
100
AcDbEntity
  8
LAY-2
  6
CONTINUOUS
 62
     3
100
AcDbLine
 10
127.987372
 20
79.1
 30
0.0
 11
126.762628
 21
79.1
 31
0.0
  0
CIRCLE
  5
4B9
100
AcDbEntity
  8
LAY-2
  6
CONTINUOUS
 62
     3
100
AcDbCircle
 10
127.375
 20
79.225
 30
0.0
 40
0.625
  0
LINE
  5
4BA
100
AcDbEntity
  8
LAY-2
  6
CONTINUOUS
 62
     3
100
AcDbLine
 10
128.0
 20
78.6
 30
0.0
 11
126.75
 21
78.6
 31
0.0
  0
LINE
  5
4BB
100
AcDbEntity
  8
LAY-2
  6
CONTINUOUS
 62
     3
100
AcDbLine
 10
132.0
 20
78.5
 30
0.0
 11
128.0
 21
78.5
 31
0.0
  0
LINE
  5
4BC
100
AcDbEntity
  8
LAY-2
  6
CONTINUOUS
 62
     3
100
AcDbLine
 10
123.5
 20
60.6
 30
0.0
 11
122.25
 21
60.6
 31
0.0
  0
LINE
  5
4BD
100
AcDbEntity
  8
LAY-2
  6
CONTINUOUS
 62
     3
100
AcDbLine
 10
123.5
 20
78.6
 30
0.0
 11
123.5
 21
60.6
 31
0.0
  0
LINE
  5
4BE
100
AcDbEntity
  8
LAY-2
  6
CONTINUOUS
 62
     3
100
AcDbLine
 10
122.25
 20
78.6
 30
0.0
 11
122.25
 21
60.6
 31
0.0
  0
LINE
  5
4BF
100
AcDbEntity
  8
LAY-2
  6
CONTINUOUS
 62
     3
100
AcDbLine
 10
126.75
 20
60.7
 30
0.0
 11
123.5
 21
60.7
 31
0.0
  0
LINE
  5
4C0
100
AcDbEntity
  8
LAY-2
  6
CONTINUOUS
 62
     3
100
AcDbLine
 10
128.0
 20
60.6
 30
0.0
 11
126.75
 21
60.6
 31
0.0
  0
LINE
  5
4C1
100
AcDbEntity
  8
LAY-2
  6
CONTINUOUS
 62
     3
100
AcDbLine
 10
128.0
 20
78.6
 30
0.0
 11
128.0
 21
60.6
 31
0.0
  0
LINE
  5
4C2
100
AcDbEntity
  8
LAY-2
  6
CONTINUOUS
 62
     3
100
AcDbLine
 10
126.75
 20
78.6
 30
0.0
 11
126.75
 21
60.6
 31
0.0
  0
LINE
  5
4C3
100
AcDbEntity
  8
LAY-2
  6
CONTINUOUS
 62
     3
100
AcDbLine
 10
132.0
 20
60.7
 30
0.0
 11
128.0
 21
60.7
 31
0.0
  0
LINE
  5
4C4
100
AcDbEntity
  8
LAY-2
  6
CONTINUOUS
 62
     3
100
AcDbLine
 10
132.0
 20
60.7
 30
0.0
 11
132.0
 21
78.5
 31
0.0
  0
ENDSEC
  0
SECTION
  2
OBJECTS
  0
DICTIONARY
  5
19
100
AcDbDictionary
  3
ACAD_GROUP
350
1A
  3
ACAD_MLINESTYLE
350
1B
  0
DICTIONARY
  5
1A
102
{ACAD_REACTORS
330
19
102
}
100
AcDbDictionary
  0
DICTIONARY
  5
1B
102
{ACAD_REACTORS
330
19
102
}
100
AcDbDictionary
  3
STANDARD
350
1C
  0
MLINESTYLE
  5
1C
102
{ACAD_REACTORS
330
1B
102
}
100
AcDbMlineStyle
  2
Standard
 70
     0
  3

 62
     0
 51
90.0
 52
90.0
 71
     2
 49
0.5
 62
   256
  6
ByLayer
 49
-0.5
 62
   256
  6
ByLayer
  0
ENDSEC
  0
EOF
