  0
SECTION
  2
HEADER
  9
$ACADVER
  1
AC1014
  9
$ACADMAINTVER
 70
     0
  9
$DWGCODEPAGE
  3
DOS932
  9
$INSBASE
 10
0.0
 20
0.0
 30
0.0
  9
$EXTMIN
 10
13.0
 20
16.0
 30
0.0
  9
$EXTMAX
 10
407.0
 20
285.86
 30
0.0
  9
$LIMMIN
 10
0.0
 20
0.0
  9
$LIMMAX
 10
420.0
 20
297.0
  9
$ORTHOMODE
 70
     0
  9
$REGENMODE
 70
     1
  9
$FILLMODE
 70
     1
  9
$QTEXTMODE
 70
     0
  9
$MIRRTEXT
 70
     1
  9
$DRAGMODE
 70
     2
  9
$LTSCALE
 40
1.0
  9
$OSMODE
 70
     0
  9
$ATTMODE
 70
     1
  9
$TEXTSIZE
 40
0.2
  9
$TRACEWID
 40
0.05
  9
$TEXTSTYLE
  7
STANDARD
  9
$CLAYER
  8
LAY-1
  9
$CELTYPE
  6
CONTINUOUS
  9
$CECOLOR
 62
   256
  9
$CELTSCALE
 40
1.0
  9
$DELOBJ
 70
     1
  9
$DISPSILH
 70
     0
  9
$DIMSCALE
 40
1.0
  9
$DIMASZ
 40
0.18
  9
$DIMEXO
 40
0.0625
  9
$DIMDLI
 40
0.38
  9
$DIMRND
 40
0.0
  9
$DIMDLE
 40
0.0
  9
$DIMEXE
 40
0.18
  9
$DIMTP
 40
0.0
  9
$DIMTM
 40
0.0
  9
$DIMTXT
 40
0.18
  9
$DIMCEN
 40
0.09
  9
$DIMTSZ
 40
0.0
  9
$DIMTOL
 70
     0
  9
$DIMLIM
 70
     0
  9
$DIMTIH
 70
     1
  9
$DIMTOH
 70
     1
  9
$DIMSE1
 70
     0
  9
$DIMSE2
 70
     0
  9
$DIMTAD
 70
     0
  9
$DIMZIN
 70
     0
  9
$DIMBLK
  1

  9
$DIMASO
 70
     1
  9
$DIMSHO
 70
     1
  9
$DIMPOST
  1

  9
$DIMAPOST
  1

  9
$DIMALT
 70
     0
  9
$DIMALTD
 70
     2
  9
$DIMALTF
 40
25.4
  9
$DIMLFAC
 40
1.0
  9
$DIMTOFL
 70
     0
  9
$DIMTVP
 40
0.0
  9
$DIMTIX
 70
     0
  9
$DIMSOXD
 70
     0
  9
$DIMSAH
 70
     0
  9
$DIMBLK1
  1

  9
$DIMBLK2
  1

  9
$DIMSTYLE
  2
STANDARD
  9
$DIMCLRD
 70
     0
  9
$DIMCLRE
 70
     0
  9
$DIMCLRT
 70
     0
  9
$DIMTFAC
 40
1.0
  9
$DIMGAP
 40
0.09
  9
$DIMJUST
 70
     0
  9
$DIMSD1
 70
     0
  9
$DIMSD2
 70
     0
  9
$DIMTOLJ
 70
     1
  9
$DIMTZIN
 70
     0
  9
$DIMALTZ
 70
     0
  9
$DIMALTTZ
 70
     0
  9
$DIMFIT
 70
     3
  9
$DIMUPT
 70
     0
  9
$DIMUNIT
 70
     2
  9
$DIMDEC
 70
     4
  9
$DIMTDEC
 70
     4
  9
$DIMALTU
 70
     2
  9
$DIMALTTD
 70
     2
  9
$DIMTXSTY
  7
STANDARD
  9
$DIMAUNIT
 70
     0
  9
$LUNITS
 70
     2
  9
$LUPREC
 70
     4
  9
$SKETCHINC
 40
0.1
  9
$FILLETRAD
 40
0.0
  9
$AUNITS
 70
     0
  9
$AUPREC
 70
     0
  9
$MENU
  1
acad
  9
$ELEVATION
 40
0.0
  9
$PELEVATION
 40
0.0
  9
$THICKNESS
 40
0.0
  9
$LIMCHECK
 70
     0
  9
$BLIPMODE
 70
     1
  9
$CHAMFERA
 40
0.0
  9
$CHAMFERB
 40
0.0
  9
$CHAMFERC
 40
0.0
  9
$CHAMFERD
 40
0.0
  9
$SKPOLY
 70
     0
  9
$TDCREATE
 40
2455995.879521261
  9
$TDUPDATE
 40
2455995.879521261
  9
$TDINDWG
 40
0.0000000000
  9
$TDUSRTIMER
 40
0.0000000000
  9
$USRTIMER
 70
     1
  9
$ANGBASE
 50
0.0
  9
$ANGDIR
 70
     0
  9
$PDMODE
 70
     0
  9
$PDSIZE
 40
0.0
  9
$PLINEWID
 40
0.0
  9
$COORDS
 70
     1
  9
$SPLFRAME
 70
     0
  9
$SPLINETYPE
 70
     6
  9
$SPLINESEGS
 70
     8
  9
$ATTDIA
 70
     0
  9
$ATTREQ
 70
     1
  9
$HANDLING
 70
     1
  9
$HANDSEED
  5
45A
  9
$SURFTAB1
 70
     6
  9
$SURFTAB2
 70
     6
  9
$SURFTYPE
 70
     6
  9
$SURFU
 70
     6
  9
$SURFV
 70
     6
  9
$UCSNAME
  2

  9
$UCSORG
 10
0.0
 20
0.0
 30
0.0
  9
$UCSXDIR
 10
1.0
 20
0.0
 30
0.0
  9
$UCSYDIR
 10
0.0
 20
1.0
 30
0.0
  9
$PUCSNAME
  2

  9
$PUCSORG
 10
0.0
 20
0.0
 30
0.0
  9
$PUCSXDIR
 10
1.0
 20
0.0
 30
0.0
  9
$PUCSYDIR
 10
0.0
 20
1.0
 30
0.0
  9
$USERI1
 70
     0
  9
$USERI2
 70
     0
  9
$USERI3
 70
     0
  9
$USERI4
 70
     0
  9
$USERI5
 70
     0
  9
$USERR1
 40
0.0
  9
$USERR2
 40
0.0
  9
$USERR3
 40
0.0
  9
$USERR4
 40
0.0
  9
$USERR5
 40
0.0
  9
$WORLDVIEW
 70
     1
  9
$SHADEDGE
 70
     3
  9
$SHADEDIF
 70
    70
  9
$TILEMODE
 70
     1
  9
$MAXACTVP
 70
    16
  9
$PINSBASE
 10
0.0
 20
0.0
 30
0.0
  9
$PLIMCHECK
 70
     0
  9
$PEXTMIN
 10
1.000000E+20
 20
1.000000E+20
 30
1.000000E+20
  9
$PEXTMAX
 10
-1.000000E+20
 20
-1.000000E+20
 30
-1.000000E+20
  9
$PLIMMIN
 10
0.0
 20
0.0
  9
$PLIMMAX
 10
12.0
 20
9.0
  9
$UNITMODE
 70
     0
  9
$VISRETAIN
 70
     0
  9
$PLINEGEN
 70
     1
  9
$PSLTSCALE
 70
     0
  9
$TREEDEPTH
 70
  3020
  9
$PICKSTYLE
 70
     1
  9
$CMLSTYLE
  2
Standard
  9
$CMLJUST
 70
     0
  9
$CMLSCALE
 40
1.0
  9
$PROXYGRAPHICS
 70
     0
  9
$MEASUREMENT
 70
     0
  0
ENDSEC
  0
SECTION
  2
CLASSES
  0
CLASS
  1
LWPOLYLINE
  2
AcDbPolyline
  3
"AutoCAD"
 90
        0
280
     0
281
     1
  0
CLASS
  1
IMAGE
  2
AcDbRasterImage
  3
ISM
 90
      127
280
     0
281
     1
  0
CLASS
  1
OLE2FRAME
  2
AcDbOle2Frame
  3
""
 90
        0
280
     0
281
     1
  0
CLASS
  1
HATCH
  2
AcDbHatch
  3
"ACAD_SEDONA"
 90
        0
280
     0
281
     1
  0
CLASS
  1
DICTIONARYVAR
  2
AcDbDictionaryVar
  3
"AutoCAD"
 90
        0
280
     0
281
     0
  0
CLASS
  1
RASTERVARIABLES
  2
AcDbRasterVariables
  3
ISM
 90
        0
280
     0
281
     0
  0
CLASS
  1
IMAGEDEF
  2
AcDbRasterImageDef
  3
ISM
 90
        0
280
     0
281
     0
  0
CLASS
  1
IMAGEDEF_REACTOR
  2
AcDbRasterImageDefReactor
  3
ISM
 90
        1
280
     0
281
     0
  0
CLASS
  1
IDBUFFER
  2
AcDbIdBuffer
  3
"Acad"
 90
        0
280
     0
281
     0
  0
CLASS
  1
SPATIAL_FILTER
  2
AcDbSpatialFilter
  3
"Acad"
 90
        0
280
     0
281
     0
  0
CLASS
  1
XRECORD
  2
AcDbXrecord
  3
"<Built In>"
 90
        0
280
     0
281
     0
  0
CLASS
  1
SORTENTSTABLE
  2
AcDbSortentsTable
  3
"AutoCAD"
 90
        0
280
     0
281
     0
  0
CLASS
  1
LAYER_INDEX
  2
AcDbLayerIndex
  3
"Acad"
 90
        0
280
     0
281
     0
  0
CLASS
  1
SPATIAL_INDEX
  2
AcDbSpatialIndex
  3
"Acad"
 90
        0
280
     0
281
     0
  0
CLASS
  1
OBJECT_PTR
  2
CAseDLPNTableRecord
  3
"ASE-LPNTableRecord"
 90
        1
280
     0
281
     0
  0
CLASS
  1
LAYOUT
  2
AcDbLayout
  3
"AutoCAD 2000"
 90
        1
280
     0
281
     0
  0
CLASS
  1
PLOTSETTINGS
  2
AcDbPlotSettings
  3
"AutoCAD 2000"
 90
        1
280
     0
281
     0
  0
CLASS
  1
ACDBDICTIONARYWDFLT
  2
AcDbDictionaryWithDefault
  3
"AutoCAD 2000"
 90
        1
280
     0
281
     0
  0
CLASS
  1
ACDBPLACEHOLDER
  2
AcDbPlaceHolder
  3
"AutoCAD 2000"
 90
        1
280
     0
281
     0
  0
CLASS
  1
VBA_PROJECT
  2
AcDbVbaProject
  3
"acadvba"
 90
        1
280
     0
281
     0
  0
CLASS
  1
WIPEOUT
  2
AcDbWipeout
  3
WipeOut|AutoCAD Express Tool|expresstools@autodesk.com
 90
      127
280
     0
281
     1
  0
CLASS
  1
WIPEOUTVARIABLES
  2
AcDbWipeoutVariables
  3
WipeOut|AutoCAD Express Tool|expresstools@autodesk.com
 90
        0
280
     0
281
     0
  0
CLASS
  1
RTEXT
  2
RText
  3
RText|AutoCAD Express Tool|expresstools@autodesk.com
 90
        0
280
     0
281
     1
  0
CLASS
  1
ARCALIGNEDTEXT
  2
AcDbArcAlignedText
  3
ATEXT|AutoCAD Express Tool|expresstools@autodesk.com
 90
        0
280
     0
281
     1
  0
ENDSEC
  0
SECTION
  2
TABLES
  0
TABLE
  2
VPORT
  5
7
100
AcDbSymbolTable
 70
     1
  0
VPORT
  5
15
100
AcDbSymbolTableRecord
100
AcDbViewportTableRecord
  2
*ACTIVE
 70
     0
 10
0.0
 20
0.0
 11
1.0
 21
1.0
 12
210.0
 22
150.93
 13
0.0
 23
0.0
 14
1.0
 24
1.0
 15
0.0
 25
0.0
 16
0.0
 26
0.0
 36
1.0
 17
0.0
 27
0.0
 37
0.0
 40
269.86
 41
1.722533
 42
50.0
 43
0.0
 44
0.0
 50
0.0
 51
0.0
 71
     0
 72
   100
 73
     1
 74
     1
 75
     0
 76
     0
 77
     0
 78
     0
  0
ENDTAB
  0
TABLE
  2
LTYPE
  5
4
100
AcDbSymbolTable
 70
     6
  0
LTYPE
  5
11
100
AcDbSymbolTableRecord
100
AcDbLinetypeTableRecord
  2
BYBLOCK
 70
    64
  3

 72
    65
 73
     0
 40
0.0
  0
LTYPE
  5
12
100
AcDbSymbolTableRecord
100
AcDbLinetypeTableRecord
  2
BYLAYER
 70
    64
  3

 72
    65
 73
     0
 40
0.0
  0
LTYPE
  5
13
100
AcDbSymbolTableRecord
100
AcDbLinetypeTableRecord
  2
CONTINUOUS
 70
    64
  3
実線
 72
    65
 73
     0
 40
0.0
  0
LTYPE
  5
1D
100
AcDbSymbolTableRecord
100
AcDbLinetypeTableRecord
  2
EXLTYPE1
 70
    64
  3
一点鎖線
 72
    65
 73
     4
 40
13.28
 49
9.98
 74
     0
 49
-1.1
 74
     0
 49
1.1
 74
     0
 49
-1.1
 74
     0
  0
LTYPE
  5
1E
100
AcDbSymbolTableRecord
100
AcDbLinetypeTableRecord
  2
EXLTYPE2
 70
    64
  3
破線
 72
    65
 73
     2
 40
2.0
 49
1.0
 74
     0
 49
-1.0
 74
     0
  0
LTYPE
  5
1F
100
AcDbSymbolTableRecord
100
AcDbLinetypeTableRecord
  2
EXLTYPE3
 70
    64
  3
点線
 72
    65
 73
     2
 40
2.0
 49
1.0
 74
     0
 49
-1.0
 74
     0
  0
ENDTAB
  0
TABLE
  2
LAYER
  5
2
100
AcDbSymbolTable
 70
     3
  0
LAYER
  5
14
100
AcDbSymbolTableRecord
100
AcDbLayerTableRecord
  2
0
 70
     0
 62
     7
  6
CONTINUOUS
  0
LAYER
  5
22
100
AcDbSymbolTableRecord
100
AcDbLayerTableRecord
  2
LAY-1
 70
    64
 62
     7
  6
CONTINUOUS
  0
LAYER
  5
23
100
AcDbSymbolTableRecord
100
AcDbLayerTableRecord
  2
LAY-2
 70
    64
 62
     7
  6
CONTINUOUS
  0
ENDTAB
  0
TABLE
  2
STYLE
  5
3
100
AcDbSymbolTable
 70
     4
  0
STYLE
  5
17
100
AcDbSymbolTableRecord
100
AcDbTextStyleTableRecord
  2
STANDARD
 70
     0
 40
0.0
 41
1.0
 50
0.0
 71
     0
 42
0.0
  3
monotxt
  4
extfont
  0
STYLE
  5
20
100
AcDbSymbolTableRecord
100
AcDbTextStyleTableRecord
  2
EXCADSTD
 70
    64
 40
0.0
 41
1.0
 50
0.0
 71
     0
 42
0.2
  3
monotxt
  4
extfont
  0
STYLE
  5
21
100
AcDbSymbolTableRecord
100
AcDbTextStyleTableRecord
  2
EXCADVERT
 70
    68
 40
0.0
 41
1.0
 50
0.0
 71
     0
 42
0.286885
  3
monotxt
  4
extfont
  0
STYLE
  5
3AA
100
AcDbSymbolTableRecord
100
AcDbTextStyleTableRecord
  2
EXCADTTF1
 70
    64
 40
0.0
 41
1.0
 50
0.0
 71
     0
 42
0.2
  3
MS Gothic.ttf
  4

1001
ACAD
1000
MS Gothic
1071
    32817
  0
ENDTAB
  0
TABLE
  2
VIEW
  5
5
100
AcDbSymbolTable
 70
     0
  0
ENDTAB
  0
TABLE
  2
UCS
  5
6
100
AcDbSymbolTable
 70
     0
  0
ENDTAB
  0
TABLE
  2
APPID
  5
8
100
AcDbSymbolTable
 70
     1
  0
APPID
  5
16
100
AcDbSymbolTableRecord
100
AcDbRegAppTableRecord
  2
ACAD
 70
     0
  0
ENDTAB
  0
TABLE
  2
DIMSTYLE
  5
9
100
AcDbSymbolTable
 70
     1
  0
DIMSTYLE
105
18
100
AcDbSymbolTableRecord
100
AcDbDimStyleTableRecord
  2
STANDARD
 70
     0
  3

  4

  5

  6

  7

 40
1.0
 41
0.18
 42
0.0625
 43
0.38
 44
0.18
 45
0.0
 46
0.0
 47
0.0
 48
0.0
 71
     0
 72
     0
 73
     1
 74
     1
 75
     0
 76
     0
 77
     0
 78
     0
140
0.18
141
0.09
142
0.0
143
25.4
144
1.0
145
0.0
146
1.0
147
0.09
170
     0
171
     2
172
     0
173
     0
174
     0
175
     0
176
     0
177
     0
178
     0
270
     2
271
     4
272
     4
273
     2
274
     2
275
     0
280
     0
281
     0
282
     0
283
     1
284
     0
285
     0
286
     0
287
     0
288
     0
340
17
  0
ENDTAB
  0
TABLE
  2
BLOCK_RECORD
  5
1
100
AcDbSymbolTable
 70
    14
  0
BLOCK_RECORD
  5
A
100
AcDbSymbolTableRecord
100
AcDbBlockTableRecord
  2
*MODEL_SPACE
  0
BLOCK_RECORD
  5
B
100
AcDbSymbolTableRecord
100
AcDbBlockTableRecord
  2
*PAPER_SPACE
  0
BLOCK_RECORD
  5
24
100
AcDbSymbolTableRecord
100
AcDbBlockTableRecord
  2
_EX_NORM
  0
BLOCK_RECORD
  5
25
100
AcDbSymbolTableRecord
100
AcDbBlockTableRecord
  2
_EX_BNORM
  0
BLOCK_RECORD
  5
26
100
AcDbSymbolTableRecord
100
AcDbBlockTableRecord
  2
_EX_BCIR
  0
BLOCK_RECORD
  5
27
100
AcDbSymbolTableRecord
100
AcDbBlockTableRecord
  2
_EX_RCIVIL
  0
BLOCK_RECORD
  5
28
100
AcDbSymbolTableRecord
100
AcDbBlockTableRecord
  2
_EX_SLANT
  0
BLOCK_RECORD
  5
29
100
AcDbSymbolTableRecord
100
AcDbBlockTableRecord
  2
_EX_NONE
  0
BLOCK_RECORD
  5
2A
100
AcDbSymbolTableRecord
100
AcDbBlockTableRecord
  2
_EX_CIVIL
  0
BLOCK_RECORD
  5
2B
100
AcDbSymbolTableRecord
100
AcDbBlockTableRecord
  2
_EX_WCIR
  0
BLOCK_RECORD
  5
2C
100
AcDbSymbolTableRecord
100
AcDbBlockTableRecord
  2
_EX_WCIR2
  0
BLOCK_RECORD
  5
2D
100
AcDbSymbolTableRecord
100
AcDbBlockTableRecord
  2
_EX_WNORM
  0
BLOCK_RECORD
  5
2E
100
AcDbSymbolTableRecord
100
AcDbBlockTableRecord
  2
_EX_NNORM
  0
BLOCK_RECORD
  5
2F
100
AcDbSymbolTableRecord
100
AcDbBlockTableRecord
  2
_EX_BBOX
  0
BLOCK_RECORD
  5
30
100
AcDbSymbolTableRecord
100
AcDbBlockTableRecord
  2
_EX_WBOX
  0
BLOCK_RECORD
  5
31
100
AcDbSymbolTableRecord
100
AcDbBlockTableRecord
  2
_EX_INTEGRAL
  0
ENDTAB
  0
ENDSEC
  0
SECTION
  2
BLOCKS
  0
BLOCK
  5
D
100
AcDbEntity
  8
0
100
AcDbBlockBegin
  2
*MODEL_SPACE
 70
     0
 10
0.0
 20
0.0
 30
0.0
  3
*MODEL_SPACE
  1

  0
ENDBLK
  5
E
100
AcDbEntity
  8
0
100
AcDbBlockEnd
  0
BLOCK
  5
F
100
AcDbEntity
 67
     1
  8
0
100
AcDbBlockBegin
  2
*PAPER_SPACE
 70
     0
 10
0.0
 20
0.0
 30
0.0
  3
*PAPER_SPACE
  1

  0
ENDBLK
  5
10
100
AcDbEntity
 67
     1
  8
0
100
AcDbBlockEnd
  0
BLOCK
  5
32
100
AcDbEntity
  8
0
100
AcDbBlockBegin
  2
_EX_NORM
 70
     0
 10
0.0
 20
0.0
 30
0.0
  3
_EX_NORM
  1

  0
LINE
  5
33
100
AcDbEntity
  8
0
  6
CONTINUOUS
 62
     0
100
AcDbLine
 10
0.0
 20
0.0
 30
0.0
 11
-1.0
 21
0.0
 31
0.0
  0
LINE
  5
34
100
AcDbEntity
  8
0
  6
CONTINUOUS
 62
     0
100
AcDbLine
 10
0.0
 20
0.0
 30
0.0
 11
-1.0
 21
0.166667
 31
0.0
  0
LINE
  5
35
100
AcDbEntity
  8
0
  6
CONTINUOUS
 62
     0
100
AcDbLine
 10
0.0
 20
0.0
 30
0.0
 11
-1.0
 21
-0.166667
 31
0.0
  0
ENDBLK
  5
36
100
AcDbEntity
  8
0
100
AcDbBlockEnd
  0
BLOCK
  5
37
100
AcDbEntity
  8
0
100
AcDbBlockBegin
  2
_EX_BNORM
 70
     0
 10
0.0
 20
0.0
 30
0.0
  3
_EX_BNORM
  1

  0
LINE
  5
38
100
AcDbEntity
  8
0
  6
CONTINUOUS
 62
     0
100
AcDbLine
 10
0.0
 20
0.0
 30
0.0
 11
-1.0
 21
0.0
 31
0.0
  0
LINE
  5
39
100
AcDbEntity
  8
0
  6
CONTINUOUS
 62
     0
100
AcDbLine
 10
0.0
 20
0.0
 30
0.0
 11
-1.0
 21
0.166667
 31
0.0
  0
LINE
  5
3A
100
AcDbEntity
  8
0
  6
CONTINUOUS
 62
     0
100
AcDbLine
 10
0.0
 20
0.0
 30
0.0
 11
-1.0
 21
-0.166667
 31
0.0
  0
LINE
  5
3B
100
AcDbEntity
  8
0
  6
CONTINUOUS
 62
     0
100
AcDbLine
 10
0.0
 20
0.0
 30
0.0
 11
-1.0
 21
0.083333
 31
0.0
  0
LINE
  5
3C
100
AcDbEntity
  8
0
  6
CONTINUOUS
 62
     0
100
AcDbLine
 10
0.0
 20
0.0
 30
0.0
 11
-1.0
 21
-0.083333
 31
0.0
  0
LINE
  5
3D
100
AcDbEntity
  8
0
  6
CONTINUOUS
 62
     0
100
AcDbLine
 10
-1.0
 20
0.166667
 30
0.0
 11
-1.0
 21
-0.166667
 31
0.0
  0
ENDBLK
  5
3E
100
AcDbEntity
  8
0
100
AcDbBlockEnd
  0
BLOCK
  5
3F
100
AcDbEntity
  8
0
100
AcDbBlockBegin
  2
_EX_BCIR
 70
     0
 10
0.0
 20
0.0
 30
0.0
  3
_EX_BCIR
  1

  0
LINE
  5
40
100
AcDbEntity
  8
0
  6
CONTINUOUS
 62
     0
100
AcDbLine
 10
0.0
 20
0.0
 30
0.0
 11
-1.0
 21
0.0
 31
0.0
  0
CIRCLE
  5
41
100
AcDbEntity
  8
0
  6
CONTINUOUS
 62
     0
100
AcDbCircle
 10
0.0
 20
0.0
 30
0.0
 40
0.5
  0
CIRCLE
  5
42
100
AcDbEntity
  8
0
  6
CONTINUOUS
 62
     0
100
AcDbCircle
 10
0.0
 20
0.0
 30
0.0
 40
0.25
  0
ENDBLK
  5
43
100
AcDbEntity
  8
0
100
AcDbBlockEnd
  0
BLOCK
  5
44
100
AcDbEntity
  8
0
100
AcDbBlockBegin
  2
_EX_RCIVIL
 70
     0
 10
0.0
 20
0.0
 30
0.0
  3
_EX_RCIVIL
  1

  0
LINE
  5
45
100
AcDbEntity
  8
0
  6
CONTINUOUS
 62
     0
100
AcDbLine
 10
0.0
 20
0.0
 30
0.0
 11
-1.0
 21
0.0
 31
0.0
  0
LINE
  5
46
100
AcDbEntity
  8
0
  6
CONTINUOUS
 62
     0
100
AcDbLine
 10
-1.0
 20
-0.25
 30
0.0
 11
0.0
 21
-0.25
 31
0.0
  0
LINE
  5
47
100
AcDbEntity
  8
0
  6
CONTINUOUS
 62
     0
100
AcDbLine
 10
-1.0
 20
-0.125
 30
0.0
 11
0.0
 21
-0.125
 31
0.0
  0
ENDBLK
  5
48
100
AcDbEntity
  8
0
100
AcDbBlockEnd
  0
BLOCK
  5
49
100
AcDbEntity
  8
0
100
AcDbBlockBegin
  2
_EX_SLANT
 70
     0
 10
0.0
 20
0.0
 30
0.0
  3
_EX_SLANT
  1

  0
LINE
  5
4A
100
AcDbEntity
  8
0
  6
CONTINUOUS
 62
     0
100
AcDbLine
 10
0.0
 20
0.0
 30
0.0
 11
-1.0
 21
0.0
 31
0.0
  0
LINE
  5
4B
100
AcDbEntity
  8
0
  6
CONTINUOUS
 62
     0
100
AcDbLine
 10
0.707107
 20
0.707107
 30
0.0
 11
-0.707107
 21
-0.707107
 31
0.0
  0
ENDBLK
  5
4C
100
AcDbEntity
  8
0
100
AcDbBlockEnd
  0
BLOCK
  5
4D
100
AcDbEntity
  8
0
100
AcDbBlockBegin
  2
_EX_NONE
 70
     0
 10
0.0
 20
0.0
 30
0.0
  3
_EX_NONE
  1

  0
LINE
  5
4E
100
AcDbEntity
  8
0
  6
CONTINUOUS
 62
     0
100
AcDbLine
 10
0.0
 20
0.0
 30
0.0
 11
-1.0
 21
0.0
 31
0.0
  0
ENDBLK
  5
4F
100
AcDbEntity
  8
0
100
AcDbBlockEnd
  0
BLOCK
  5
50
100
AcDbEntity
  8
0
100
AcDbBlockBegin
  2
_EX_CIVIL
 70
     0
 10
0.0
 20
0.0
 30
0.0
  3
_EX_CIVIL
  1

  0
LINE
  5
51
100
AcDbEntity
  8
0
  6
CONTINUOUS
 62
     0
100
AcDbLine
 10
0.0
 20
0.0
 30
0.0
 11
-1.0
 21
0.0
 31
0.0
  0
LINE
  5
52
100
AcDbEntity
  8
0
  6
CONTINUOUS
 62
     0
100
AcDbLine
 10
-1.0
 20
0.25
 30
0.0
 11
0.0
 21
0.25
 31
0.0
  0
LINE
  5
53
100
AcDbEntity
  8
0
  6
CONTINUOUS
 62
     0
100
AcDbLine
 10
-1.0
 20
0.125
 30
0.0
 11
0.0
 21
0.125
 31
0.0
  0
ENDBLK
  5
54
100
AcDbEntity
  8
0
100
AcDbBlockEnd
  0
BLOCK
  5
55
100
AcDbEntity
  8
0
100
AcDbBlockBegin
  2
_EX_WCIR
 70
     0
 10
0.0
 20
0.0
 30
0.0
  3
_EX_WCIR
  1

  0
LINE
  5
56
100
AcDbEntity
  8
0
  6
CONTINUOUS
 62
     0
100
AcDbLine
 10
0.0
 20
0.0
 30
0.0
 11
-1.0
 21
0.0
 31
0.0
  0
CIRCLE
  5
57
100
AcDbEntity
  8
0
  6
CONTINUOUS
 62
     0
100
AcDbCircle
 10
0.0
 20
0.0
 30
0.0
 40
0.5
  0
ENDBLK
  5
58
100
AcDbEntity
  8
0
100
AcDbBlockEnd
  0
BLOCK
  5
59
100
AcDbEntity
  8
0
100
AcDbBlockBegin
  2
_EX_WCIR2
 70
     0
 10
0.0
 20
0.0
 30
0.0
  3
_EX_WCIR2
  1

  0
LINE
  5
5A
100
AcDbEntity
  8
0
  6
CONTINUOUS
 62
     0
100
AcDbLine
 10
-0.5
 20
0.0
 30
0.0
 11
-1.0
 21
0.0
 31
0.0
  0
CIRCLE
  5
5B
100
AcDbEntity
  8
0
  6
CONTINUOUS
 62
     0
100
AcDbCircle
 10
0.0
 20
0.0
 30
0.0
 40
0.5
  0
ENDBLK
  5
5C
100
AcDbEntity
  8
0
100
AcDbBlockEnd
  0
BLOCK
  5
5D
100
AcDbEntity
  8
0
100
AcDbBlockBegin
  2
_EX_WNORM
 70
     0
 10
0.0
 20
0.0
 30
0.0
  3
_EX_WNORM
  1

  0
LINE
  5
5E
100
AcDbEntity
  8
0
  6
CONTINUOUS
 62
     0
100
AcDbLine
 10
-1.0
 20
0.0
 30
0.0
 11
-1.0
 21
0.0
 31
0.0
  0
LINE
  5
5F
100
AcDbEntity
  8
0
  6
CONTINUOUS
 62
     0
100
AcDbLine
 10
0.0
 20
0.0
 30
0.0
 11
-1.0
 21
0.166667
 31
0.0
  0
LINE
  5
60
100
AcDbEntity
  8
0
  6
CONTINUOUS
 62
     0
100
AcDbLine
 10
0.0
 20
0.0
 30
0.0
 11
-1.0
 21
-0.166667
 31
0.0
  0
LINE
  5
61
100
AcDbEntity
  8
0
  6
CONTINUOUS
 62
     0
100
AcDbLine
 10
-1.0
 20
0.166667
 30
0.0
 11
-1.0
 21
-0.166667
 31
0.0
  0
ENDBLK
  5
62
100
AcDbEntity
  8
0
100
AcDbBlockEnd
  0
BLOCK
  5
63
100
AcDbEntity
  8
0
100
AcDbBlockBegin
  2
_EX_NNORM
 70
     0
 10
0.0
 20
0.0
 30
0.0
  3
_EX_NNORM
  1

  0
LINE
  5
64
100
AcDbEntity
  8
0
  6
CONTINUOUS
 62
     0
100
AcDbLine
 10
0.0
 20
0.0
 30
0.0
 11
-1.0
 21
0.0
 31
0.0
  0
LINE
  5
65
100
AcDbEntity
  8
0
  6
CONTINUOUS
 62
     0
100
AcDbLine
 10
0.0
 20
0.0
 30
0.0
 11
-1.0
 21
0.166667
 31
0.0
  0
LINE
  5
66
100
AcDbEntity
  8
0
  6
CONTINUOUS
 62
     0
100
AcDbLine
 10
0.0
 20
0.0
 30
0.0
 11
-1.0
 21
-0.166667
 31
0.0
  0
LINE
  5
67
100
AcDbEntity
  8
0
  6
CONTINUOUS
 62
     0
100
AcDbLine
 10
-1.0
 20
0.166667
 30
0.0
 11
-1.0
 21
-0.166667
 31
0.0
  0
ENDBLK
  5
68
100
AcDbEntity
  8
0
100
AcDbBlockEnd
  0
BLOCK
  5
69
100
AcDbEntity
  8
0
100
AcDbBlockBegin
  2
_EX_BBOX
 70
     0
 10
0.0
 20
0.0
 30
0.0
  3
_EX_BBOX
  1

  0
LINE
  5
6A
100
AcDbEntity
  8
0
  6
CONTINUOUS
 62
     0
100
AcDbLine
 10
0.0
 20
0.0
 30
0.0
 11
-1.0
 21
0.0
 31
0.0
  0
LINE
  5
6B
100
AcDbEntity
  8
0
  6
CONTINUOUS
 62
     0
100
AcDbLine
 10
-0.5
 20
0.5
 30
0.0
 11
0.5
 21
0.5
 31
0.0
  0
LINE
  5
6C
100
AcDbEntity
  8
0
  6
CONTINUOUS
 62
     0
100
AcDbLine
 10
0.5
 20
0.5
 30
0.0
 11
0.5
 21
-0.5
 31
0.0
  0
LINE
  5
6D
100
AcDbEntity
  8
0
  6
CONTINUOUS
 62
     0
100
AcDbLine
 10
0.5
 20
-0.5
 30
0.0
 11
-0.5
 21
-0.5
 31
0.0
  0
LINE
  5
6E
100
AcDbEntity
  8
0
  6
CONTINUOUS
 62
     0
100
AcDbLine
 10
-0.5
 20
-0.5
 30
0.0
 11
-0.5
 21
0.5
 31
0.0
  0
LINE
  5
6F
100
AcDbEntity
  8
0
  6
CONTINUOUS
 62
     0
100
AcDbLine
 10
-0.25
 20
0.25
 30
0.0
 11
0.25
 21
0.25
 31
0.0
  0
LINE
  5
70
100
AcDbEntity
  8
0
  6
CONTINUOUS
 62
     0
100
AcDbLine
 10
0.25
 20
0.25
 30
0.0
 11
0.25
 21
-0.25
 31
0.0
  0
LINE
  5
71
100
AcDbEntity
  8
0
  6
CONTINUOUS
 62
     0
100
AcDbLine
 10
0.25
 20
-0.25
 30
0.0
 11
-0.25
 21
-0.25
 31
0.0
  0
LINE
  5
72
100
AcDbEntity
  8
0
  6
CONTINUOUS
 62
     0
100
AcDbLine
 10
-0.25
 20
-0.25
 30
0.0
 11
-0.25
 21
0.25
 31
0.0
  0
ENDBLK
  5
73
100
AcDbEntity
  8
0
100
AcDbBlockEnd
  0
BLOCK
  5
74
100
AcDbEntity
  8
0
100
AcDbBlockBegin
  2
_EX_WBOX
 70
     0
 10
0.0
 20
0.0
 30
0.0
  3
_EX_WBOX
  1

  0
LINE
  5
75
100
AcDbEntity
  8
0
  6
CONTINUOUS
 62
     0
100
AcDbLine
 10
-0.5
 20
0.0
 30
0.0
 11
-1.0
 21
0.0
 31
0.0
  0
LINE
  5
76
100
AcDbEntity
  8
0
  6
CONTINUOUS
 62
     0
100
AcDbLine
 10
-0.5
 20
0.5
 30
0.0
 11
0.5
 21
0.5
 31
0.0
  0
LINE
  5
77
100
AcDbEntity
  8
0
  6
CONTINUOUS
 62
     0
100
AcDbLine
 10
0.5
 20
0.5
 30
0.0
 11
0.5
 21
-0.5
 31
0.0
  0
LINE
  5
78
100
AcDbEntity
  8
0
  6
CONTINUOUS
 62
     0
100
AcDbLine
 10
0.5
 20
-0.5
 30
0.0
 11
-0.5
 21
-0.5
 31
0.0
  0
LINE
  5
79
100
AcDbEntity
  8
0
  6
CONTINUOUS
 62
     0
100
AcDbLine
 10
-0.5
 20
-0.5
 30
0.0
 11
-0.5
 21
0.5
 31
0.0
  0
ENDBLK
  5
7A
100
AcDbEntity
  8
0
100
AcDbBlockEnd
  0
BLOCK
  5
7B
100
AcDbEntity
  8
0
100
AcDbBlockBegin
  2
_EX_INTEGRAL
 70
     0
 10
0.0
 20
0.0
 30
0.0
  3
_EX_INTEGRAL
  1

  0
LINE
  5
7C
100
AcDbEntity
  8
0
  6
CONTINUOUS
 62
     0
100
AcDbLine
 10
0.0
 20
0.0
 30
0.0
 11
-1.0
 21
0.0
 31
0.0
  0
ARC
  5
7D
100
AcDbEntity
  8
0
  6
CONTINUOUS
 62
     0
100
AcDbCircle
 10
0.0
 20
0.0
 30
0.0
 40
0.707107
100
AcDbArc
 50
90.0
 51
180.0
  0
ARC
  5
7E
100
AcDbEntity
  8
0
  6
CONTINUOUS
 62
     0
100
AcDbCircle
 10
0.0
 20
0.0
 30
0.0
 40
0.707107
100
AcDbArc
 50
270.0
 51
0.0
  0
ENDBLK
  5
7F
100
AcDbEntity
  8
0
100
AcDbBlockEnd
  0
ENDSEC
  0
SECTION
  2
ENTITIES
  0
LINE
  5
80
100
AcDbEntity
  8
LAY-1
  6
CONTINUOUS
 62
     2
100
AcDbLine
 10
-13.227183
 20
278.57
 30
0.0
 11
-17.479683
 21
278.57
 31
0.0
  0
LINE
  5
81
100
AcDbEntity
  8
LAY-1
  6
CONTINUOUS
 62
     2
100
AcDbLine
 10
-13.227183
 20
283.43
 30
0.0
 11
-17.479683
 21
278.57
 31
0.0
  0
LINE
  5
82
100
AcDbEntity
  8
LAY-1
  6
CONTINUOUS
 62
     2
100
AcDbLine
 10
-13.227183
 20
277.355
 30
0.0
 11
-19.302183
 21
277.355
 31
0.0
  0
LINE
  5
83
100
AcDbEntity
  8
LAY-1
  6
CONTINUOUS
 62
     2
100
AcDbLine
 10
-13.227183
 20
284.645
 30
0.0
 11
-19.302183
 21
284.645
 31
0.0
  0
LINE
  5
84
100
AcDbEntity
  8
LAY-1
  6
CONTINUOUS
 62
     2
100
AcDbLine
 10
-10.918683
 20
283.43
 30
0.0
 11
-6.058683
 21
283.43
 31
0.0
  0
LINE
  5
85
100
AcDbEntity
  8
LAY-1
  6
CONTINUOUS
 62
     2
100
AcDbLine
 10
-10.918683
 20
280.3925
 30
0.0
 11
-6.301683
 21
280.3925
 31
0.0
  0
LINE
  5
86
100
AcDbEntity
  8
LAY-1
  6
CONTINUOUS
 62
     2
100
AcDbLine
 10
-10.918683
 20
281.6075
 30
0.0
 11
-6.301683
 21
281.6075
 31
0.0
  0
LINE
  5
87
100
AcDbEntity
  8
LAY-1
  6
CONTINUOUS
 62
     2
100
AcDbLine
 10
-12.376683
 20
284.645
 30
0.0
 11
-6.058683
 21
284.645
 31
0.0
  0
LINE
  5
88
100
AcDbEntity
  8
LAY-1
  6
CONTINUOUS
 62
     2
100
AcDbLine
 10
-10.918683
 20
278.57
 30
0.0
 11
-6.058683
 21
278.57
 31
0.0
  0
LINE
  5
89
100
AcDbEntity
  8
LAY-1
  6
CONTINUOUS
 62
     2
100
AcDbLine
 10
-12.376683
 20
277.355
 30
0.0
 11
-6.058683
 21
277.355
 31
0.0
  0
LINE
  5
8A
100
AcDbEntity
  8
LAY-1
  6
CONTINUOUS
 62
     2
100
AcDbLine
 10
-13.227183
 20
284.645
 30
0.0
 11
-13.227183
 21
283.43
 31
0.0
  0
LINE
  5
8B
100
AcDbEntity
  8
LAY-1
  6
CONTINUOUS
 62
     2
100
AcDbLine
 10
-10.918683
 20
283.43
 30
0.0
 11
-10.918683
 21
281.6075
 31
0.0
  0
LINE
  5
8C
100
AcDbEntity
  8
LAY-1
  6
CONTINUOUS
 62
     2
100
AcDbLine
 10
-13.227183
 20
278.57
 30
0.0
 11
-13.227183
 21
277.355
 31
0.0
  0
LINE
  5
8D
100
AcDbEntity
  8
LAY-1
  6
CONTINUOUS
 62
     2
100
AcDbLine
 10
-10.918683
 20
280.3925
 30
0.0
 11
-10.918683
 21
278.57
 31
0.0
  0
LINE
  5
8E
100
AcDbEntity
  8
LAY-1
  6
CONTINUOUS
 62
     2
100
AcDbLine
 10
-12.376683
 20
284.645
 30
0.0
 11
-12.376683
 21
277.355
 31
0.0
  0
LINE
  5
8F
100
AcDbEntity
  8
LAY-1
  6
CONTINUOUS
 62
     2
100
AcDbLine
 10
-3.993183
 20
284.645
 30
0.0
 11
-0.348183
 21
279.785
 31
0.0
  0
LINE
  5
90
100
AcDbEntity
  8
LAY-1
  6
CONTINUOUS
 62
     2
100
AcDbLine
 10
-0.348183
 20
284.645
 30
0.0
 11
-0.348183
 21
279.785
 31
0.0
  0
LINE
  5
91
100
AcDbEntity
  8
LAY-1
  6
CONTINUOUS
 62
     2
100
AcDbLine
 10
-0.348183
 20
284.645
 30
0.0
 11
0.866817
 21
284.645
 31
0.0
  0
LINE
  5
92
100
AcDbEntity
  8
LAY-1
  6
CONTINUOUS
 62
     2
100
AcDbLine
 10
-0.348183
 20
277.355
 30
0.0
 11
0.866817
 21
277.355
 31
0.0
  0
LINE
  5
93
100
AcDbEntity
  8
LAY-1
  6
CONTINUOUS
 62
     2
100
AcDbLine
 10
-3.993183
 20
282.215
 30
0.0
 11
-0.348183
 21
277.355
 31
0.0
  0
LINE
  5
94
100
AcDbEntity
  8
LAY-1
  6
CONTINUOUS
 62
     2
100
AcDbLine
 10
-3.993183
 20
282.215
 30
0.0
 11
-3.993183
 21
277.355
 31
0.0
  0
LINE
  5
95
100
AcDbEntity
  8
LAY-1
  6
CONTINUOUS
 62
     2
100
AcDbLine
 10
0.866817
 20
284.645
 30
0.0
 11
0.866817
 21
277.355
 31
0.0
  0
LINE
  5
96
100
AcDbEntity
  8
LAY-1
  6
CONTINUOUS
 62
     2
100
AcDbLine
 10
-6.058683
 20
284.645
 30
0.0
 11
-6.058683
 21
283.43
 31
0.0
  0
LINE
  5
97
100
AcDbEntity
  8
LAY-1
  6
CONTINUOUS
 62
     2
100
AcDbLine
 10
-6.301683
 20
281.6075
 30
0.0
 11
-6.301683
 21
280.3925
 31
0.0
  0
LINE
  5
98
100
AcDbEntity
  8
LAY-1
  6
CONTINUOUS
 62
     2
100
AcDbLine
 10
-6.058683
 20
278.57
 30
0.0
 11
-6.058683
 21
277.355
 31
0.0
  0
LINE
  5
99
100
AcDbEntity
  8
LAY-1
  6
CONTINUOUS
 62
     2
100
AcDbLine
 10
-5.208183
 20
284.645
 30
0.0
 11
-5.208183
 21
277.355
 31
0.0
  0
LINE
  5
9A
100
AcDbEntity
  8
LAY-1
  6
CONTINUOUS
 62
     2
100
AcDbLine
 10
-5.208183
 20
284.645
 30
0.0
 11
-3.993183
 21
284.645
 31
0.0
  0
LINE
  5
9B
100
AcDbEntity
  8
LAY-1
  6
CONTINUOUS
 62
     2
100
AcDbLine
 10
-5.208183
 20
277.355
 30
0.0
 11
-3.993183
 21
277.355
 31
0.0
  0
LINE
  5
9C
100
AcDbEntity
  8
LAY-1
  6
CONTINUOUS
 62
     2
100
AcDbLine
 10
-27.576817
 20
284.645
 30
0.0
 11
-27.96863
 21
284.189375
 31
0.0
  0
LINE
  5
9D
100
AcDbEntity
  8
LAY-1
  6
CONTINUOUS
 62
     2
100
AcDbLine
 10
-19.289548
 20
284.645
 30
0.0
 11
-18.897735
 21
284.189375
 31
0.0
  0
LINE
  5
9E
100
AcDbEntity
  8
LAY-1
  6
CONTINUOUS
 62
     2
100
AcDbLine
 10
-27.96863
 20
284.189375
 30
0.0
 11
-28.070813
 21
284.070551
 31
0.0
  0
LINE
  5
9F
100
AcDbEntity
  8
LAY-1
  6
CONTINUOUS
 62
     2
100
AcDbLine
 10
-18.897735
 20
284.189375
 30
0.0
 11
-18.795553
 21
284.070551
 31
0.0
  0
LINE
  5
A0
100
AcDbEntity
  8
LAY-1
  6
CONTINUOUS
 62
     2
100
AcDbLine
 10
-28.070813
 20
284.070551
 30
0.0
 11
-28.265666
 21
283.76208
 31
0.0
  0
LINE
  5
A1
100
AcDbEntity
  8
LAY-1
  6
CONTINUOUS
 62
     2
100
AcDbLine
 10
-18.795553
 20
284.070551
 30
0.0
 11
-18.600699
 21
283.76208
 31
0.0
  0
LINE
  5
A2
100
AcDbEntity
  8
LAY-1
  6
CONTINUOUS
 62
     2
100
AcDbLine
 10
-28.265666
 20
283.76208
 30
0.0
 11
-28.475433
 21
283.43
 31
0.0
  0
LINE
  5
A3
100
AcDbEntity
  8
LAY-1
  6
CONTINUOUS
 62
     2
100
AcDbLine
 10
-18.600699
 20
283.76208
 30
0.0
 11
-18.390933
 21
283.43
 31
0.0
  0
LINE
  5
A4
100
AcDbEntity
  8
LAY-1
  6
CONTINUOUS
 62
     2
100
AcDbLine
 10
-17.839408
 20
280.241742
 30
0.0
 11
-17.983929
 21
279.785
 31
0.0
  0
LINE
  5
A5
100
AcDbEntity
  8
LAY-1
  6
CONTINUOUS
 62
     2
100
AcDbLine
 10
-18.082007
 20
279.475036
 30
0.0
 11
-18.104068
 21
279.405312
 31
0.0
  0
LINE
  5
A6
100
AcDbEntity
  8
LAY-1
  6
CONTINUOUS
 62
     2
100
AcDbLine
 10
-18.104068
 20
279.405312
 30
0.0
 11
-18.281874
 21
278.843375
 31
0.0
  0
LINE
  5
A7
100
AcDbEntity
  8
LAY-1
  6
CONTINUOUS
 62
     2
100
AcDbLine
 10
-18.281874
 20
278.843375
 30
0.0
 11
-18.33292
 21
278.682049
 31
0.0
  0
LINE
  5
A8
100
AcDbEntity
  8
LAY-1
  6
CONTINUOUS
 62
     2
100
AcDbLine
 10
-18.33292
 20
278.682049
 30
0.0
 11
-18.413693
 21
278.57
 31
0.0
  0
LINE
  5
A9
100
AcDbEntity
  8
LAY-1
  6
CONTINUOUS
 62
     2
100
AcDbLine
 10
-18.413693
 20
278.57
 30
0.0
 11
-18.653079
 21
278.23792
 31
0.0
  0
LINE
  5
AA
100
AcDbEntity
  8
LAY-1
  6
CONTINUOUS
 62
     2
100
AcDbLine
 10
-18.653079
 20
278.23792
 30
0.0
 11
-18.961103
 21
277.810625
 31
0.0
  0
LINE
  5
AB
100
AcDbEntity
  8
LAY-1
  6
CONTINUOUS
 62
     2
100
AcDbLine
 10
-18.961103
 20
277.810625
 30
0.0
 11
-19.289548
 21
277.355
 31
0.0
  0
LINE
  5
AC
100
AcDbEntity
  8
LAY-1
  6
CONTINUOUS
 62
     2
100
AcDbLine
 10
-15.049683
 20
283.43
 30
0.0
 11
-18.390933
 21
283.43
 31
0.0
  0
LINE
  5
AD
100
AcDbEntity
  8
LAY-1
  6
CONTINUOUS
 62
     2
100
AcDbLine
 10
-15.049683
 20
283.43
 30
0.0
 11
-17.839408
 21
280.241742
 31
0.0
  0
LINE
  5
AE
100
AcDbEntity
  8
LAY-1
  6
CONTINUOUS
 62
     2
100
AcDbLine
 10
-28.475433
 20
283.43
 30
0.0
 11
-30.614317
 21
283.43
 31
0.0
  0
ARC
  5
AF
100
AcDbEntity
  8
LAY-1
  6
CONTINUOUS
 62
     2
100
AcDbCircle
 10
-23.919183
 20
281.0
 30
0.0
 40
5.16375
100
AcDbArc
 50
135.099128
 51
151.927513
  0
LINE
  5
B0
100
AcDbEntity
  8
LAY-1
  6
CONTINUOUS
 62
     2
100
AcDbLine
 10
-30.614317
 20
283.43
 30
0.0
 11
-30.614317
 21
277.355
 31
0.0
  0
LINE
  5
B1
100
AcDbEntity
  8
LAY-1
  6
CONTINUOUS
 62
     2
100
AcDbLine
 10
-34.866817
 20
284.645
 30
0.0
 11
-34.866817
 21
283.43
 31
0.0
  0
LINE
  5
B2
100
AcDbEntity
  8
LAY-1
  6
CONTINUOUS
 62
     2
100
AcDbLine
 10
-31.829317
 20
283.43
 30
0.0
 11
-34.866817
 21
283.43
 31
0.0
  0
LINE
  5
B3
100
AcDbEntity
  8
LAY-1
  6
CONTINUOUS
 62
     2
100
AcDbLine
 10
-31.829317
 20
283.43
 30
0.0
 11
-31.829317
 21
277.355
 31
0.0
  0
LINE
  5
B4
100
AcDbEntity
  8
LAY-1
  6
CONTINUOUS
 62
     2
100
AcDbLine
 10
-27.576817
 20
284.645
 30
0.0
 11
-34.866817
 21
284.645
 31
0.0
  0
LINE
  5
B5
100
AcDbEntity
  8
LAY-1
  6
CONTINUOUS
 62
     2
100
AcDbLine
 10
-30.614317
 20
277.355
 30
0.0
 11
-31.829317
 21
277.355
 31
0.0
  0
ARC
  5
B6
100
AcDbEntity
  8
LAY-1
  6
CONTINUOUS
 62
     2
100
AcDbCircle
 10
-22.947183
 20
281.0
 30
0.0
 40
5.16375
100
AcDbArc
 50
28.072487
 51
44.900872
  0
CIRCLE
  5
B7
100
AcDbEntity
  8
LAY-1
  6
CONTINUOUS
 62
     2
100
AcDbCircle
 10
-23.433183
 20
281.0
 30
0.0
 40
4.86
  0
CIRCLE
  5
B8
100
AcDbEntity
  8
LAY-1
  6
CONTINUOUS
 62
     2
100
AcDbCircle
 10
-23.433183
 20
281.0
 30
0.0
 40
3.189375
  0
LINE
  5
B9
100
AcDbEntity
  8
LAY-1
  6
CONTINUOUS
 62
     2
100
AcDbLine
 10
-17.983929
 20
279.785
 30
0.0
 11
-18.082007
 21
279.475036
 31
0.0
  0
LINE
  5
BA
100
AcDbEntity
  8
LAY-1
  6
CONTINUOUS
 62
     6
100
AcDbLine
 10
-34.866817
 20
284.55763
 30
0.0
 11
-34.779447
 21
284.645
 31
0.0
  0
LINE
  5
BB
100
AcDbEntity
  8
LAY-1
  6
CONTINUOUS
 62
     6
100
AcDbLine
 10
-34.866817
 20
284.416208
 30
0.0
 11
-34.638026
 21
284.645
 31
0.0
  0
LINE
  5
BC
100
AcDbEntity
  8
LAY-1
  6
CONTINUOUS
 62
     6
100
AcDbLine
 10
-34.866817
 20
284.274787
 30
0.0
 11
-34.496604
 21
284.645
 31
0.0
  0
LINE
  5
BD
100
AcDbEntity
  8
LAY-1
  6
CONTINUOUS
 62
     6
100
AcDbLine
 10
-34.866817
 20
284.133366
 30
0.0
 11
-34.355183
 21
284.645
 31
0.0
  0
LINE
  5
BE
100
AcDbEntity
  8
LAY-1
  6
CONTINUOUS
 62
     6
100
AcDbLine
 10
-34.866817
 20
283.991944
 30
0.0
 11
-34.213762
 21
284.645
 31
0.0
  0
LINE
  5
BF
100
AcDbEntity
  8
LAY-1
  6
CONTINUOUS
 62
     6
100
AcDbLine
 10
-34.866817
 20
283.850523
 30
0.0
 11
-34.07234
 21
284.645
 31
0.0
  0
LINE
  5
C0
100
AcDbEntity
  8
LAY-1
  6
CONTINUOUS
 62
     6
100
AcDbLine
 10
-34.866817
 20
283.709102
 30
0.0
 11
-33.930919
 21
284.645
 31
0.0
  0
LINE
  5
C1
100
AcDbEntity
  8
LAY-1
  6
CONTINUOUS
 62
     6
100
AcDbLine
 10
-34.866817
 20
283.56768
 30
0.0
 11
-33.789498
 21
284.645
 31
0.0
  0
LINE
  5
C2
100
AcDbEntity
  8
LAY-1
  6
CONTINUOUS
 62
     6
100
AcDbLine
 10
-34.863076
 20
283.43
 30
0.0
 11
-33.648076
 21
284.645
 31
0.0
  0
LINE
  5
C3
100
AcDbEntity
  8
LAY-1
  6
CONTINUOUS
 62
     6
100
AcDbLine
 10
-34.721655
 20
283.43
 30
0.0
 11
-33.506655
 21
284.645
 31
0.0
  0
LINE
  5
C4
100
AcDbEntity
  8
LAY-1
  6
CONTINUOUS
 62
     6
100
AcDbLine
 10
-34.580233
 20
283.43
 30
0.0
 11
-33.365233
 21
284.645
 31
0.0
  0
LINE
  5
C5
100
AcDbEntity
  8
LAY-1
  6
CONTINUOUS
 62
     6
100
AcDbLine
 10
-34.438812
 20
283.43
 30
0.0
 11
-33.223812
 21
284.645
 31
0.0
  0
LINE
  5
C6
100
AcDbEntity
  8
LAY-1
  6
CONTINUOUS
 62
     6
100
AcDbLine
 10
-34.297391
 20
283.43
 30
0.0
 11
-33.082391
 21
284.645
 31
0.0
  0
LINE
  5
C7
100
AcDbEntity
  8
LAY-1
  6
CONTINUOUS
 62
     6
100
AcDbLine
 10
-34.155969
 20
283.43
 30
0.0
 11
-32.940969
 21
284.645
 31
0.0
  0
LINE
  5
C8
100
AcDbEntity
  8
LAY-1
  6
CONTINUOUS
 62
     6
100
AcDbLine
 10
-34.014548
 20
283.43
 30
0.0
 11
-32.799548
 21
284.645
 31
0.0
  0
LINE
  5
C9
100
AcDbEntity
  8
LAY-1
  6
CONTINUOUS
 62
     6
100
AcDbLine
 10
-33.873127
 20
283.43
 30
0.0
 11
-32.658127
 21
284.645
 31
0.0
  0
LINE
  5
CA
100
AcDbEntity
  8
LAY-1
  6
CONTINUOUS
 62
     6
100
AcDbLine
 10
-33.731705
 20
283.43
 30
0.0
 11
-32.516705
 21
284.645
 31
0.0
  0
LINE
  5
CB
100
AcDbEntity
  8
LAY-1
  6
CONTINUOUS
 62
     6
100
AcDbLine
 10
-33.590284
 20
283.43
 30
0.0
 11
-32.375284
 21
284.645
 31
0.0
  0
LINE
  5
CC
100
AcDbEntity
  8
LAY-1
  6
CONTINUOUS
 62
     6
100
AcDbLine
 10
-33.448863
 20
283.43
 30
0.0
 11
-32.233863
 21
284.645
 31
0.0
  0
LINE
  5
CD
100
AcDbEntity
  8
LAY-1
  6
CONTINUOUS
 62
     6
100
AcDbLine
 10
-33.307441
 20
283.43
 30
0.0
 11
-32.092441
 21
284.645
 31
0.0
  0
LINE
  5
CE
100
AcDbEntity
  8
LAY-1
  6
CONTINUOUS
 62
     6
100
AcDbLine
 10
-33.16602
 20
283.43
 30
0.0
 11
-31.95102
 21
284.645
 31
0.0
  0
LINE
  5
CF
100
AcDbEntity
  8
LAY-1
  6
CONTINUOUS
 62
     6
100
AcDbLine
 10
-33.024599
 20
283.43
 30
0.0
 11
-31.809599
 21
284.645
 31
0.0
  0
LINE
  5
D0
100
AcDbEntity
  8
LAY-1
  6
CONTINUOUS
 62
     6
100
AcDbLine
 10
-32.883177
 20
283.43
 30
0.0
 11
-31.668177
 21
284.645
 31
0.0
  0
LINE
  5
D1
100
AcDbEntity
  8
LAY-1
  6
CONTINUOUS
 62
     6
100
AcDbLine
 10
-32.741756
 20
283.43
 30
0.0
 11
-31.526756
 21
284.645
 31
0.0
  0
LINE
  5
D2
100
AcDbEntity
  8
LAY-1
  6
CONTINUOUS
 62
     6
100
AcDbLine
 10
-32.600334
 20
283.43
 30
0.0
 11
-31.385334
 21
284.645
 31
0.0
  0
LINE
  5
D3
100
AcDbEntity
  8
LAY-1
  6
CONTINUOUS
 62
     6
100
AcDbLine
 10
-32.458913
 20
283.43
 30
0.0
 11
-31.243913
 21
284.645
 31
0.0
  0
LINE
  5
D4
100
AcDbEntity
  8
LAY-1
  6
CONTINUOUS
 62
     6
100
AcDbLine
 10
-32.317492
 20
283.43
 30
0.0
 11
-31.102492
 21
284.645
 31
0.0
  0
LINE
  5
D5
100
AcDbEntity
  8
LAY-1
  6
CONTINUOUS
 62
     6
100
AcDbLine
 10
-32.17607
 20
283.43
 30
0.0
 11
-30.96107
 21
284.645
 31
0.0
  0
LINE
  5
D6
100
AcDbEntity
  8
LAY-1
  6
CONTINUOUS
 62
     6
100
AcDbLine
 10
-32.034649
 20
283.43
 30
0.0
 11
-30.819649
 21
284.645
 31
0.0
  0
LINE
  5
D7
100
AcDbEntity
  8
LAY-1
  6
CONTINUOUS
 62
     6
100
AcDbLine
 10
-31.893228
 20
283.43
 30
0.0
 11
-30.678228
 21
284.645
 31
0.0
  0
LINE
  5
D8
100
AcDbEntity
  8
LAY-1
  6
CONTINUOUS
 62
     6
100
AcDbLine
 10
-31.829317
 20
283.352489
 30
0.0
 11
-30.536806
 21
284.645
 31
0.0
  0
LINE
  5
D9
100
AcDbEntity
  8
LAY-1
  6
CONTINUOUS
 62
     6
100
AcDbLine
 10
-31.829317
 20
283.211068
 30
0.0
 11
-30.395385
 21
284.645
 31
0.0
  0
LINE
  5
DA
100
AcDbEntity
  8
LAY-1
  6
CONTINUOUS
 62
     6
100
AcDbLine
 10
-31.829317
 20
283.069646
 30
0.0
 11
-30.253964
 21
284.645
 31
0.0
  0
LINE
  5
DB
100
AcDbEntity
  8
LAY-1
  6
CONTINUOUS
 62
     6
100
AcDbLine
 10
-31.829317
 20
282.928225
 30
0.0
 11
-30.112542
 21
284.645
 31
0.0
  0
LINE
  5
DC
100
AcDbEntity
  8
LAY-1
  6
CONTINUOUS
 62
     6
100
AcDbLine
 10
-31.829317
 20
282.786804
 30
0.0
 11
-29.971121
 21
284.645
 31
0.0
  0
LINE
  5
DD
100
AcDbEntity
  8
LAY-1
  6
CONTINUOUS
 62
     6
100
AcDbLine
 10
-31.829317
 20
282.645382
 30
0.0
 11
-29.8297
 21
284.645
 31
0.0
  0
LINE
  5
DE
100
AcDbEntity
  8
LAY-1
  6
CONTINUOUS
 62
     6
100
AcDbLine
 10
-31.829317
 20
282.503961
 30
0.0
 11
-29.688278
 21
284.645
 31
0.0
  0
LINE
  5
DF
100
AcDbEntity
  8
LAY-1
  6
CONTINUOUS
 62
     6
100
AcDbLine
 10
-31.829317
 20
282.36254
 30
0.0
 11
-29.546857
 21
284.645
 31
0.0
  0
LINE
  5
E0
100
AcDbEntity
  8
LAY-1
  6
CONTINUOUS
 62
     6
100
AcDbLine
 10
-31.829317
 20
282.221118
 30
0.0
 11
-29.405435
 21
284.645
 31
0.0
  0
LINE
  5
E1
100
AcDbEntity
  8
LAY-1
  6
CONTINUOUS
 62
     6
100
AcDbLine
 10
-31.829317
 20
282.079697
 30
0.0
 11
-30.614317
 21
283.294697
 31
0.0
  0
LINE
  5
E2
100
AcDbEntity
  8
LAY-1
  6
CONTINUOUS
 62
     6
100
AcDbLine
 10
-30.479014
 20
283.43
 30
0.0
 11
-29.264014
 21
284.645
 31
0.0
  0
LINE
  5
E3
100
AcDbEntity
  8
LAY-1
  6
CONTINUOUS
 62
     6
100
AcDbLine
 10
-31.829317
 20
281.938276
 30
0.0
 11
-30.614317
 21
283.153276
 31
0.0
  0
LINE
  5
E4
100
AcDbEntity
  8
LAY-1
  6
CONTINUOUS
 62
     6
100
AcDbLine
 10
-30.337593
 20
283.43
 30
0.0
 11
-29.122593
 21
284.645
 31
0.0
  0
LINE
  5
E5
100
AcDbEntity
  8
LAY-1
  6
CONTINUOUS
 62
     6
100
AcDbLine
 10
-31.829317
 20
281.796854
 30
0.0
 11
-30.614317
 21
283.011854
 31
0.0
  0
LINE
  5
E6
100
AcDbEntity
  8
LAY-1
  6
CONTINUOUS
 62
     6
100
AcDbLine
 10
-30.196171
 20
283.43
 30
0.0
 11
-28.981171
 21
284.645
 31
0.0
  0
LINE
  5
E7
100
AcDbEntity
  8
LAY-1
  6
CONTINUOUS
 62
     6
100
AcDbLine
 10
-31.829317
 20
281.655433
 30
0.0
 11
-30.614317
 21
282.870433
 31
0.0
  0
LINE
  5
E8
100
AcDbEntity
  8
LAY-1
  6
CONTINUOUS
 62
     6
100
AcDbLine
 10
-30.05475
 20
283.43
 30
0.0
 11
-28.83975
 21
284.645
 31
0.0
  0
LINE
  5
E9
100
AcDbEntity
  8
LAY-1
  6
CONTINUOUS
 62
     6
100
AcDbLine
 10
-31.829317
 20
281.514012
 30
0.0
 11
-30.614317
 21
282.729012
 31
0.0
  0
LINE
  5
EA
100
AcDbEntity
  8
LAY-1
  6
CONTINUOUS
 62
     6
100
AcDbLine
 10
-29.913329
 20
283.43
 30
0.0
 11
-28.698329
 21
284.645
 31
0.0
  0
LINE
  5
EB
100
AcDbEntity
  8
LAY-1
  6
CONTINUOUS
 62
     6
100
AcDbLine
 10
-31.829317
 20
281.37259
 30
0.0
 11
-30.614317
 21
282.58759
 31
0.0
  0
LINE
  5
EC
100
AcDbEntity
  8
LAY-1
  6
CONTINUOUS
 62
     6
100
AcDbLine
 10
-29.771907
 20
283.43
 30
0.0
 11
-28.556907
 21
284.645
 31
0.0
  0
LINE
  5
ED
100
AcDbEntity
  8
LAY-1
  6
CONTINUOUS
 62
     6
100
AcDbLine
 10
-31.829317
 20
281.231169
 30
0.0
 11
-30.614317
 21
282.446169
 31
0.0
  0
LINE
  5
EE
100
AcDbEntity
  8
LAY-1
  6
CONTINUOUS
 62
     6
100
AcDbLine
 10
-29.630486
 20
283.43
 30
0.0
 11
-28.415486
 21
284.645
 31
0.0
  0
LINE
  5
EF
100
AcDbEntity
  8
LAY-1
  6
CONTINUOUS
 62
     6
100
AcDbLine
 10
-31.829317
 20
281.089747
 30
0.0
 11
-30.614317
 21
282.304747
 31
0.0
  0
LINE
  5
F0
100
AcDbEntity
  8
LAY-1
  6
CONTINUOUS
 62
     6
100
AcDbLine
 10
-29.489065
 20
283.43
 30
0.0
 11
-28.274065
 21
284.645
 31
0.0
  0
LINE
  5
F1
100
AcDbEntity
  8
LAY-1
  6
CONTINUOUS
 62
     6
100
AcDbLine
 10
-31.829317
 20
280.948326
 30
0.0
 11
-30.614317
 21
282.163326
 31
0.0
  0
LINE
  5
F2
100
AcDbEntity
  8
LAY-1
  6
CONTINUOUS
 62
     6
100
AcDbLine
 10
-29.347643
 20
283.43
 30
0.0
 11
-28.132643
 21
284.645
 31
0.0
  0
LINE
  5
F3
100
AcDbEntity
  8
LAY-1
  6
CONTINUOUS
 62
     6
100
AcDbLine
 10
-31.829317
 20
280.806905
 30
0.0
 11
-30.614317
 21
282.021905
 31
0.0
  0
LINE
  5
F4
100
AcDbEntity
  8
LAY-1
  6
CONTINUOUS
 62
     6
100
AcDbLine
 10
-29.206222
 20
283.43
 30
0.0
 11
-27.991222
 21
284.645
 31
0.0
  0
LINE
  5
F5
100
AcDbEntity
  8
LAY-1
  6
CONTINUOUS
 62
     6
100
AcDbLine
 10
-31.829317
 20
280.665483
 30
0.0
 11
-30.614317
 21
281.880483
 31
0.0
  0
LINE
  5
F6
100
AcDbEntity
  8
LAY-1
  6
CONTINUOUS
 62
     6
100
AcDbLine
 10
-29.064801
 20
283.43
 30
0.0
 11
-27.849801
 21
284.645
 31
0.0
  0
LINE
  5
F7
100
AcDbEntity
  8
LAY-1
  6
CONTINUOUS
 62
     6
100
AcDbLine
 10
-31.829317
 20
280.524062
 30
0.0
 11
-30.614317
 21
281.739062
 31
0.0
  0
LINE
  5
F8
100
AcDbEntity
  8
LAY-1
  6
CONTINUOUS
 62
     6
100
AcDbLine
 10
-28.923379
 20
283.43
 30
0.0
 11
-27.708379
 21
284.645
 31
0.0
  0
LINE
  5
F9
100
AcDbEntity
  8
LAY-1
  6
CONTINUOUS
 62
     6
100
AcDbLine
 10
-31.829317
 20
280.382641
 30
0.0
 11
-30.614317
 21
281.597641
 31
0.0
  0
LINE
  5
FA
100
AcDbEntity
  8
LAY-1
  6
CONTINUOUS
 62
     6
100
AcDbLine
 10
-28.781958
 20
283.43
 30
0.0
 11
-27.755347
 21
284.456611
 31
0.0
  0
LINE
  5
FB
100
AcDbEntity
  8
LAY-1
  6
CONTINUOUS
 62
     6
100
AcDbLine
 10
-31.829317
 20
280.241219
 30
0.0
 11
-30.614317
 21
281.456219
 31
0.0
  0
LINE
  5
FC
100
AcDbEntity
  8
LAY-1
  6
CONTINUOUS
 62
     6
100
AcDbLine
 10
-28.640537
 20
283.43
 30
0.0
 11
-28.234246
 21
283.836291
 31
0.0
  0
LINE
  5
FD
100
AcDbEntity
  8
LAY-1
  6
CONTINUOUS
 62
     6
100
AcDbLine
 10
-31.829317
 20
280.099798
 30
0.0
 11
-30.614317
 21
281.314798
 31
0.0
  0
LINE
  5
FE
100
AcDbEntity
  8
LAY-1
  6
CONTINUOUS
 62
     6
100
AcDbLine
 10
-28.499115
 20
283.43
 30
0.0
 11
-28.44756
 21
283.481556
 31
0.0
  0
LINE
  5
FF
100
AcDbEntity
  8
LAY-1
  6
CONTINUOUS
 62
     6
100
AcDbLine
 10
-31.829317
 20
279.958377
 30
0.0
 11
-30.614317
 21
281.173377
 31
0.0
  0
LINE
  5
100
100
AcDbEntity
  8
LAY-1
  6
CONTINUOUS
 62
     6
100
AcDbLine
 10
-31.829317
 20
279.816955
 30
0.0
 11
-30.614317
 21
281.031955
 31
0.0
  0
LINE
  5
101
100
AcDbEntity
  8
LAY-1
  6
CONTINUOUS
 62
     6
100
AcDbLine
 10
-31.829317
 20
279.675534
 30
0.0
 11
-30.614317
 21
280.890534
 31
0.0
  0
LINE
  5
102
100
AcDbEntity
  8
LAY-1
  6
CONTINUOUS
 62
     6
100
AcDbLine
 10
-31.829317
 20
279.534113
 30
0.0
 11
-30.614317
 21
280.749113
 31
0.0
  0
LINE
  5
103
100
AcDbEntity
  8
LAY-1
  6
CONTINUOUS
 62
     6
100
AcDbLine
 10
-31.829317
 20
279.392691
 30
0.0
 11
-30.614317
 21
280.607691
 31
0.0
  0
LINE
  5
104
100
AcDbEntity
  8
LAY-1
  6
CONTINUOUS
 62
     6
100
AcDbLine
 10
-31.829317
 20
279.25127
 30
0.0
 11
-30.614317
 21
280.46627
 31
0.0
  0
LINE
  5
105
100
AcDbEntity
  8
LAY-1
  6
CONTINUOUS
 62
     6
100
AcDbLine
 10
-31.829317
 20
279.109848
 30
0.0
 11
-30.614317
 21
280.324848
 31
0.0
  0
LINE
  5
106
100
AcDbEntity
  8
LAY-1
  6
CONTINUOUS
 62
     6
100
AcDbLine
 10
-31.829317
 20
278.968427
 30
0.0
 11
-30.614317
 21
280.183427
 31
0.0
  0
LINE
  5
107
100
AcDbEntity
  8
LAY-1
  6
CONTINUOUS
 62
     6
100
AcDbLine
 10
-31.829317
 20
278.827006
 30
0.0
 11
-30.614317
 21
280.042006
 31
0.0
  0
LINE
  5
108
100
AcDbEntity
  8
LAY-1
  6
CONTINUOUS
 62
     6
100
AcDbLine
 10
-31.829317
 20
278.685584
 30
0.0
 11
-30.614317
 21
279.900584
 31
0.0
  0
LINE
  5
109
100
AcDbEntity
  8
LAY-1
  6
CONTINUOUS
 62
     6
100
AcDbLine
 10
-31.829317
 20
278.544163
 30
0.0
 11
-30.614317
 21
279.759163
 31
0.0
  0
LINE
  5
10A
100
AcDbEntity
  8
LAY-1
  6
CONTINUOUS
 62
     6
100
AcDbLine
 10
-31.829317
 20
278.402742
 30
0.0
 11
-30.614317
 21
279.617742
 31
0.0
  0
LINE
  5
10B
100
AcDbEntity
  8
LAY-1
  6
CONTINUOUS
 62
     6
100
AcDbLine
 10
-31.829317
 20
278.26132
 30
0.0
 11
-30.614317
 21
279.47632
 31
0.0
  0
LINE
  5
10C
100
AcDbEntity
  8
LAY-1
  6
CONTINUOUS
 62
     6
100
AcDbLine
 10
-31.829317
 20
278.119899
 30
0.0
 11
-30.614317
 21
279.334899
 31
0.0
  0
LINE
  5
10D
100
AcDbEntity
  8
LAY-1
  6
CONTINUOUS
 62
     6
100
AcDbLine
 10
-31.829317
 20
277.978478
 30
0.0
 11
-30.614317
 21
279.193478
 31
0.0
  0
LINE
  5
10E
100
AcDbEntity
  8
LAY-1
  6
CONTINUOUS
 62
     6
100
AcDbLine
 10
-31.829317
 20
277.837056
 30
0.0
 11
-30.614317
 21
279.052056
 31
0.0
  0
LINE
  5
10F
100
AcDbEntity
  8
LAY-1
  6
CONTINUOUS
 62
     6
100
AcDbLine
 10
-31.829317
 20
277.695635
 30
0.0
 11
-30.614317
 21
278.910635
 31
0.0
  0
LINE
  5
110
100
AcDbEntity
  8
LAY-1
  6
CONTINUOUS
 62
     6
100
AcDbLine
 10
-31.829317
 20
277.554214
 30
0.0
 11
-30.614317
 21
278.769214
 31
0.0
  0
LINE
  5
111
100
AcDbEntity
  8
LAY-1
  6
CONTINUOUS
 62
     6
100
AcDbLine
 10
-31.829317
 20
277.412792
 30
0.0
 11
-30.614317
 21
278.627792
 31
0.0
  0
LINE
  5
112
100
AcDbEntity
  8
LAY-1
  6
CONTINUOUS
 62
     6
100
AcDbLine
 10
-31.745688
 20
277.355
 30
0.0
 11
-30.614317
 21
278.486371
 31
0.0
  0
LINE
  5
113
100
AcDbEntity
  8
LAY-1
  6
CONTINUOUS
 62
     6
100
AcDbLine
 10
-31.604267
 20
277.355
 30
0.0
 11
-30.614317
 21
278.344949
 31
0.0
  0
LINE
  5
114
100
AcDbEntity
  8
LAY-1
  6
CONTINUOUS
 62
     6
100
AcDbLine
 10
-31.462845
 20
277.355
 30
0.0
 11
-30.614317
 21
278.203528
 31
0.0
  0
LINE
  5
115
100
AcDbEntity
  8
LAY-1
  6
CONTINUOUS
 62
     6
100
AcDbLine
 10
-31.321424
 20
277.355
 30
0.0
 11
-30.614317
 21
278.062107
 31
0.0
  0
LINE
  5
116
100
AcDbEntity
  8
LAY-1
  6
CONTINUOUS
 62
     6
100
AcDbLine
 10
-31.180003
 20
277.355
 30
0.0
 11
-30.614317
 21
277.920685
 31
0.0
  0
LINE
  5
117
100
AcDbEntity
  8
LAY-1
  6
CONTINUOUS
 62
     6
100
AcDbLine
 10
-31.038581
 20
277.355
 30
0.0
 11
-30.614317
 21
277.779264
 31
0.0
  0
LINE
  5
118
100
AcDbEntity
  8
LAY-1
  6
CONTINUOUS
 62
     6
100
AcDbLine
 10
-30.89716
 20
277.355
 30
0.0
 11
-30.614317
 21
277.637843
 31
0.0
  0
LINE
  5
119
100
AcDbEntity
  8
LAY-1
  6
CONTINUOUS
 62
     6
100
AcDbLine
 10
-30.755739
 20
277.355
 30
0.0
 11
-30.614317
 21
277.496421
 31
0.0
  0
LINE
  5
11A
100
AcDbEntity
  8
LAY-1
  6
CONTINUOUS
 62
     6
100
AcDbLine
 10
-27.000372
 20
284.300721
 30
0.0
 11
-26.733904
 21
284.567189
 31
0.0
  0
LINE
  5
11B
100
AcDbEntity
  8
LAY-1
  6
CONTINUOUS
 62
     6
100
AcDbLine
 10
-27.502392
 20
283.65728
 30
0.0
 11
-26.090463
 21
285.069209
 31
0.0
  0
LINE
  5
11C
100
AcDbEntity
  8
LAY-1
  6
CONTINUOUS
 62
     6
100
AcDbLine
 10
-27.710105
 20
283.308146
 30
0.0
 11
-25.741328
 21
285.276922
 31
0.0
  0
LINE
  5
11D
100
AcDbEntity
  8
LAY-1
  6
CONTINUOUS
 62
     6
100
AcDbLine
 10
-27.850688
 20
283.026141
 30
0.0
 11
-25.459324
 21
285.417505
 31
0.0
  0
LINE
  5
11E
100
AcDbEntity
  8
LAY-1
  6
CONTINUOUS
 62
     6
100
AcDbLine
 10
-27.955532
 20
282.779876
 30
0.0
 11
-25.213059
 21
285.522349
 31
0.0
  0
LINE
  5
11F
100
AcDbEntity
  8
LAY-1
  6
CONTINUOUS
 62
     6
100
AcDbLine
 10
-28.037043
 20
282.556944
 30
0.0
 11
-24.990127
 21
285.60386
 31
0.0
  0
LINE
  5
120
100
AcDbEntity
  8
LAY-1
  6
CONTINUOUS
 62
     6
100
AcDbLine
 10
-28.101656
 20
282.350909
 30
0.0
 11
-24.784092
 21
285.668474
 31
0.0
  0
LINE
  5
121
100
AcDbEntity
  8
LAY-1
  6
CONTINUOUS
 62
     6
100
AcDbLine
 10
-28.153229
 20
282.157915
 30
0.0
 11
-24.591098
 21
285.720046
 31
0.0
  0
LINE
  5
122
100
AcDbEntity
  8
LAY-1
  6
CONTINUOUS
 62
     6
100
AcDbLine
 10
-28.194289
 20
281.975434
 30
0.0
 11
-24.408617
 21
285.761106
 31
0.0
  0
LINE
  5
123
100
AcDbEntity
  8
LAY-1
  6
CONTINUOUS
 62
     6
100
AcDbLine
 10
-28.226603
 20
281.801698
 30
0.0
 11
-24.234881
 21
285.793421
 31
0.0
  0
LINE
  5
124
100
AcDbEntity
  8
LAY-1
  6
CONTINUOUS
 62
     6
100
AcDbLine
 10
-28.251466
 20
281.635414
 30
0.0
 11
-24.068597
 21
285.818283
 31
0.0
  0
LINE
  5
125
100
AcDbEntity
  8
LAY-1
  6
CONTINUOUS
 62
     6
100
AcDbLine
 10
-28.269855
 20
281.475603
 30
0.0
 11
-23.908786
 21
285.836673
 31
0.0
  0
LINE
  5
126
100
AcDbEntity
  8
LAY-1
  6
CONTINUOUS
 62
     6
100
AcDbLine
 10
-28.282537
 20
281.3215
 30
0.0
 11
-23.754683
 21
285.849354
 31
0.0
  0
LINE
  5
127
100
AcDbEntity
  8
LAY-1
  6
CONTINUOUS
 62
     6
100
AcDbLine
 10
-28.290121
 20
281.172495
 30
0.0
 11
-23.605678
 21
285.856938
 31
0.0
  0
LINE
  5
128
100
AcDbEntity
  8
LAY-1
  6
CONTINUOUS
 62
     6
100
AcDbLine
 10
-28.293102
 20
281.028093
 30
0.0
 11
-23.461276
 21
285.859919
 31
0.0
  0
LINE
  5
129
100
AcDbEntity
  8
LAY-1
  6
CONTINUOUS
 62
     6
100
AcDbLine
 10
-28.291889
 20
280.887884
 30
0.0
 11
-23.321066
 21
285.858707
 31
0.0
  0
LINE
  5
12A
100
AcDbEntity
  8
LAY-1
  6
CONTINUOUS
 62
     6
100
AcDbLine
 10
-28.286827
 20
280.751525
 30
0.0
 11
-23.184708
 21
285.853644
 31
0.0
  0
LINE
  5
12B
100
AcDbEntity
  8
LAY-1
  6
CONTINUOUS
 62
     6
100
AcDbLine
 10
-28.278204
 20
280.618726
 30
0.0
 11
-23.051909
 21
285.845021
 31
0.0
  0
LINE
  5
12C
100
AcDbEntity
  8
LAY-1
  6
CONTINUOUS
 62
     6
100
AcDbLine
 10
-23.698705
 20
276.147259
 30
0.0
 11
-18.580442
 21
281.265522
 31
0.0
  0
LINE
  5
12D
100
AcDbEntity
  8
LAY-1
  6
CONTINUOUS
 62
     6
100
AcDbLine
 10
-23.562813
 20
276.141729
 30
0.0
 11
-18.574912
 21
281.12963
 31
0.0
  0
LINE
  5
12E
100
AcDbEntity
  8
LAY-1
  6
CONTINUOUS
 62
     6
100
AcDbLine
 10
-23.42311
 20
276.14001
 30
0.0
 11
-18.573193
 21
280.989928
 31
0.0
  0
LINE
  5
12F
100
AcDbEntity
  8
LAY-1
  6
CONTINUOUS
 62
     6
100
AcDbLine
 10
-23.279261
 20
276.142438
 30
0.0
 11
-18.575621
 21
280.846079
 31
0.0
  0
LINE
  5
130
100
AcDbEntity
  8
LAY-1
  6
CONTINUOUS
 62
     6
100
AcDbLine
 10
-23.130866
 20
276.149412
 30
0.0
 11
-18.582595
 21
280.697683
 31
0.0
  0
LINE
  5
131
100
AcDbEntity
  8
LAY-1
  6
CONTINUOUS
 62
     6
100
AcDbLine
 10
-22.977441
 20
276.161416
 30
0.0
 11
-18.594598
 21
280.544258
 31
0.0
  0
LINE
  5
132
100
AcDbEntity
  8
LAY-1
  6
CONTINUOUS
 62
     6
100
AcDbLine
 10
-22.818393
 20
276.179042
 30
0.0
 11
-18.612225
 21
280.38521
 31
0.0
  0
LINE
  5
133
100
AcDbEntity
  8
LAY-1
  6
CONTINUOUS
 62
     6
100
AcDbLine
 10
-22.65298
 20
276.203034
 30
0.0
 11
-18.636217
 21
280.219797
 31
0.0
  0
LINE
  5
134
100
AcDbEntity
  8
LAY-1
  6
CONTINUOUS
 62
     6
100
AcDbLine
 10
-22.480254
 20
276.234339
 30
0.0
 11
-18.667522
 21
280.047071
 31
0.0
  0
LINE
  5
135
100
AcDbEntity
  8
LAY-1
  6
CONTINUOUS
 62
     6
100
AcDbLine
 10
-22.298968
 20
276.274203
 30
0.0
 11
-18.707386
 21
279.865785
 31
0.0
  0
LINE
  5
136
100
AcDbEntity
  8
LAY-1
  6
CONTINUOUS
 62
     6
100
AcDbLine
 10
-22.107429
 20
276.324321
 30
0.0
 11
-18.757503
 21
279.674246
 31
0.0
  0
LINE
  5
137
100
AcDbEntity
  8
LAY-1
  6
CONTINUOUS
 62
     6
100
AcDbLine
 10
-21.903228
 20
276.387101
 30
0.0
 11
-18.820284
 21
279.470045
 31
0.0
  0
LINE
  5
138
100
AcDbEntity
  8
LAY-1
  6
CONTINUOUS
 62
     6
100
AcDbLine
 10
-21.682724
 20
276.466183
 30
0.0
 11
-18.899366
 21
279.249541
 31
0.0
  0
LINE
  5
139
100
AcDbEntity
  8
LAY-1
  6
CONTINUOUS
 62
     6
100
AcDbLine
 10
-21.439926
 20
276.56756
 30
0.0
 11
-19.000742
 21
279.006744
 31
0.0
  0
LINE
  5
13A
100
AcDbEntity
  8
LAY-1
  6
CONTINUOUS
 62
     6
100
AcDbLine
 10
-21.163546
 20
276.702518
 30
0.0
 11
-19.135701
 21
278.730364
 31
0.0
  0
LINE
  5
13B
100
AcDbEntity
  8
LAY-1
  6
CONTINUOUS
 62
     6
100
AcDbLine
 10
-20.826358
 20
276.898285
 30
0.0
 11
-19.331468
 21
278.393175
 31
0.0
  0
LINE
  5
13C
100
AcDbEntity
  8
LAY-1
  6
CONTINUOUS
 62
     6
100
AcDbLine
 10
-20.28982
 20
277.293402
 30
0.0
 11
-19.726585
 21
277.856637
 31
0.0
  0
LINE
  5
13D
100
AcDbEntity
  8
LAY-1
  6
CONTINUOUS
 62
     6
100
AcDbLine
 10
-22.677141
 20
284.098469
 30
0.0
 11
-21.373598
 21
285.402012
 31
0.0
  0
LINE
  5
13E
100
AcDbEntity
  8
LAY-1
  6
CONTINUOUS
 62
     6
100
AcDbLine
 10
-22.79264
 20
284.124391
 30
0.0
 11
-21.470825
 21
285.446206
 31
0.0
  0
LINE
  5
13F
100
AcDbEntity
  8
LAY-1
  6
CONTINUOUS
 62
     6
100
AcDbLine
 10
-22.911957
 20
284.146496
 30
0.0
 11
-21.569847
 21
285.488606
 31
0.0
  0
LINE
  5
140
100
AcDbEntity
  8
LAY-1
  6
CONTINUOUS
 62
     6
100
AcDbLine
 10
-23.035402
 20
284.164472
 30
0.0
 11
-21.670713
 21
285.529161
 31
0.0
  0
LINE
  5
141
100
AcDbEntity
  8
LAY-1
  6
CONTINUOUS
 62
     6
100
AcDbLine
 10
-28.072384
 20
279.551754
 30
0.0
 11
-26.622557
 21
281.001581
 31
0.0
  0
LINE
  5
142
100
AcDbEntity
  8
LAY-1
  6
CONTINUOUS
 62
     6
100
AcDbLine
 10
-23.434763
 20
284.189375
 30
0.0
 11
-21.984937
 21
285.639201
 31
0.0
  0
LINE
  5
143
100
AcDbEntity
  8
LAY-1
  6
CONTINUOUS
 62
     6
100
AcDbLine
 10
-23.163355
 20
284.17794
 30
0.0
 11
-21.773476
 21
285.567819
 31
0.0
  0
LINE
  5
144
100
AcDbEntity
  8
LAY-1
  6
CONTINUOUS
 62
     6
100
AcDbLine
 10
-23.296281
 20
284.186435
 30
0.0
 11
-21.878196
 21
285.604521
 31
0.0
  0
LINE
  5
145
100
AcDbEntity
  8
LAY-1
  6
CONTINUOUS
 62
     6
100
AcDbLine
 10
-28.104969
 20
279.660591
 30
0.0
 11
-26.619198
 21
281.146362
 31
0.0
  0
LINE
  5
146
100
AcDbEntity
  8
LAY-1
  6
CONTINUOUS
 62
     6
100
AcDbLine
 10
-23.579545
 20
284.186015
 30
0.0
 11
-22.093774
 21
285.671786
 31
0.0
  0
LINE
  5
147
100
AcDbEntity
  8
LAY-1
  6
CONTINUOUS
 62
     6
100
AcDbLine
 10
-28.135378
 20
279.771603
 30
0.0
 11
-26.608567
 21
281.298414
 31
0.0
  0
LINE
  5
148
100
AcDbEntity
  8
LAY-1
  6
CONTINUOUS
 62
     6
100
AcDbLine
 10
-23.731597
 20
284.175384
 30
0.0
 11
-22.204786
 21
285.702195
 31
0.0
  0
LINE
  5
149
100
AcDbEntity
  8
LAY-1
  6
CONTINUOUS
 62
     6
100
AcDbLine
 10
-28.163522
 20
279.88488
 30
0.0
 11
-26.589349
 21
281.459053
 31
0.0
  0
LINE
  5
14A
100
AcDbEntity
  8
LAY-1
  6
CONTINUOUS
 62
     6
100
AcDbLine
 10
-23.892236
 20
284.156166
 30
0.0
 11
-22.318063
 21
285.730339
 31
0.0
  0
LINE
  5
14B
100
AcDbEntity
  8
LAY-1
  6
CONTINUOUS
 62
     6
100
AcDbLine
 10
-28.1893
 20
280.000524
 30
0.0
 11
-26.55969
 21
281.630134
 31
0.0
  0
LINE
  5
14C
100
AcDbEntity
  8
LAY-1
  6
CONTINUOUS
 62
     6
100
AcDbLine
 10
-24.063317
 20
284.126507
 30
0.0
 11
-22.433707
 21
285.756117
 31
0.0
  0
LINE
  5
14D
100
AcDbEntity
  8
LAY-1
  6
CONTINUOUS
 62
     6
100
AcDbLine
 10
-28.233292
 20
280.239374
 30
0.0
 11
-26.456269
 21
282.016397
 31
0.0
  0
LINE
  5
14E
100
AcDbEntity
  8
LAY-1
  6
CONTINUOUS
 62
     6
100
AcDbLine
 10
-24.44958
 20
284.023086
 30
0.0
 11
-22.672557
 21
285.800109
 31
0.0
  0
LINE
  5
14F
100
AcDbEntity
  8
LAY-1
  6
CONTINUOUS
 62
     6
100
AcDbLine
 10
-28.251237
 20
280.362851
 30
0.0
 11
-26.369842
 21
282.244246
 31
0.0
  0
LINE
  5
150
100
AcDbEntity
  8
LAY-1
  6
CONTINUOUS
 62
     6
100
AcDbLine
 10
-24.677429
 20
283.936659
 30
0.0
 11
-22.796034
 21
285.818054
 31
0.0
  0
LINE
  5
151
100
AcDbEntity
  8
LAY-1
  6
CONTINUOUS
 62
     6
100
AcDbLine
 10
-28.212599
 20
280.118646
 30
0.0
 11
-26.516821
 21
281.814423
 31
0.0
  0
LINE
  5
152
100
AcDbEntity
  8
LAY-1
  6
CONTINUOUS
 62
     6
100
AcDbLine
 10
-24.247606
 20
284.083639
 30
0.0
 11
-22.551829
 21
285.779416
 31
0.0
  0
LINE
  5
153
100
AcDbEntity
  8
LAY-1
  6
CONTINUOUS
 62
     6
100
AcDbLine
 10
-28.266269
 20
280.48924
 30
0.0
 11
-26.238885
 21
282.516624
 31
0.0
  0
LINE
  5
154
100
AcDbEntity
  8
LAY-1
  6
CONTINUOUS
 62
     6
100
AcDbLine
 10
-24.949807
 20
283.805702
 30
0.0
 11
-22.922423
 21
285.833086
 31
0.0
  0
LINE
  5
155
100
AcDbEntity
  8
LAY-1
  6
CONTINUOUS
 62
     6
100
AcDbLine
 10
-22.565196
 20
284.068992
 30
0.0
 11
-21.278122
 21
285.356066
 31
0.0
  0
LINE
  5
156
100
AcDbEntity
  8
LAY-1
  6
CONTINUOUS
 62
     6
100
AcDbLine
 10
-22.456589
 20
284.036178
 30
0.0
 11
-21.184358
 21
285.308409
 31
0.0
  0
LINE
  5
157
100
AcDbEntity
  8
LAY-1
  6
CONTINUOUS
 62
     6
100
AcDbLine
 10
-22.351133
 20
284.000213
 30
0.0
 11
-21.09227
 21
285.259076
 31
0.0
  0
LINE
  5
158
100
AcDbEntity
  8
LAY-1
  6
CONTINUOUS
 62
     6
100
AcDbLine
 10
-22.248668
 20
283.961256
 30
0.0
 11
-21.001825
 21
285.208099
 31
0.0
  0
LINE
  5
159
100
AcDbEntity
  8
LAY-1
  6
CONTINUOUS
 62
     6
100
AcDbLine
 10
-22.149061
 20
283.919442
 30
0.0
 11
-20.912995
 21
285.155509
 31
0.0
  0
LINE
  5
15A
100
AcDbEntity
  8
LAY-1
  6
CONTINUOUS
 62
     6
100
AcDbLine
 10
-22.052194
 20
283.874888
 30
0.0
 11
-20.825752
 21
285.10133
 31
0.0
  0
LINE
  5
15B
100
AcDbEntity
  8
LAY-1
  6
CONTINUOUS
 62
     6
100
AcDbLine
 10
-21.957967
 20
283.827694
 30
0.0
 11
-20.740074
 21
285.045586
 31
0.0
  0
LINE
  5
15C
100
AcDbEntity
  8
LAY-1
  6
CONTINUOUS
 62
     6
100
AcDbLine
 10
-21.866295
 20
283.777944
 30
0.0
 11
-20.655941
 21
284.988299
 31
0.0
  0
LINE
  5
15D
100
AcDbEntity
  8
LAY-1
  6
CONTINUOUS
 62
     6
100
AcDbLine
 10
-21.777104
 20
283.725714
 30
0.0
 11
-20.573332
 21
284.929485
 31
0.0
  0
LINE
  5
15E
100
AcDbEntity
  8
LAY-1
  6
CONTINUOUS
 62
     6
100
AcDbLine
 10
-21.690332
 20
283.671064
 30
0.0
 11
-20.492234
 21
284.869163
 31
0.0
  0
LINE
  5
15F
100
AcDbEntity
  8
LAY-1
  6
CONTINUOUS
 62
     6
100
AcDbLine
 10
-21.605927
 20
283.614048
 30
0.0
 11
-20.412631
 21
284.807344
 31
0.0
  0
LINE
  5
160
100
AcDbEntity
  8
LAY-1
  6
CONTINUOUS
 62
     6
100
AcDbLine
 10
-21.523844
 20
283.554709
 30
0.0
 11
-20.334513
 21
284.744041
 31
0.0
  0
LINE
  5
161
100
AcDbEntity
  8
LAY-1
  6
CONTINUOUS
 62
     6
100
AcDbLine
 10
-21.44405
 20
283.493083
 30
0.0
 11
-20.257869
 21
284.679264
 31
0.0
  0
LINE
  5
162
100
AcDbEntity
  8
LAY-1
  6
CONTINUOUS
 62
     6
100
AcDbLine
 10
-21.366515
 20
283.429196
 30
0.0
 11
-20.182692
 21
284.613019
 31
0.0
  0
LINE
  5
163
100
AcDbEntity
  8
LAY-1
  6
CONTINUOUS
 62
     6
100
AcDbLine
 10
-21.291219
 20
283.363071
 30
0.0
 11
-20.108976
 21
284.545314
 31
0.0
  0
LINE
  5
164
100
AcDbEntity
  8
LAY-1
  6
CONTINUOUS
 62
     6
100
AcDbLine
 10
-21.218149
 20
283.294719
 30
0.0
 11
-20.036718
 21
284.476151
 31
0.0
  0
LINE
  5
165
100
AcDbEntity
  8
LAY-1
  6
CONTINUOUS
 62
     6
100
AcDbLine
 10
-21.147297
 20
283.224149
 30
0.0
 11
-19.965915
 21
284.405532
 31
0.0
  0
LINE
  5
166
100
AcDbEntity
  8
LAY-1
  6
CONTINUOUS
 62
     6
100
AcDbLine
 10
-21.078664
 20
283.151361
 30
0.0
 11
-19.896567
 21
284.333459
 31
0.0
  0
LINE
  5
167
100
AcDbEntity
  8
LAY-1
  6
CONTINUOUS
 62
     6
100
AcDbLine
 10
-21.012256
 20
283.076349
 30
0.0
 11
-19.828676
 21
284.259928
 31
0.0
  0
LINE
  5
168
100
AcDbEntity
  8
LAY-1
  6
CONTINUOUS
 62
     6
100
AcDbLine
 10
-20.948084
 20
282.999099
 30
0.0
 11
-19.762246
 21
284.184937
 31
0.0
  0
LINE
  5
169
100
AcDbEntity
  8
LAY-1
  6
CONTINUOUS
 62
     6
100
AcDbLine
 10
-20.886169
 20
282.919592
 30
0.0
 11
-19.697282
 21
284.108479
 31
0.0
  0
LINE
  5
16A
100
AcDbEntity
  8
LAY-1
  6
CONTINUOUS
 62
     6
100
AcDbLine
 10
-20.826538
 20
282.837802
 30
0.0
 11
-19.633791
 21
284.030549
 31
0.0
  0
LINE
  5
16B
100
AcDbEntity
  8
LAY-1
  6
CONTINUOUS
 62
     6
100
AcDbLine
 10
-20.769225
 20
282.753694
 30
0.0
 11
-19.571784
 21
283.951135
 31
0.0
  0
LINE
  5
16C
100
AcDbEntity
  8
LAY-1
  6
CONTINUOUS
 62
     6
100
AcDbLine
 10
-20.714272
 20
282.667225
 30
0.0
 11
-19.51127
 21
283.870227
 31
0.0
  0
LINE
  5
16D
100
AcDbEntity
  8
LAY-1
  6
CONTINUOUS
 62
     6
100
AcDbLine
 10
-20.661732
 20
282.578344
 30
0.0
 11
-19.452265
 21
283.787811
 31
0.0
  0
LINE
  5
16E
100
AcDbEntity
  8
LAY-1
  6
CONTINUOUS
 62
     6
100
AcDbLine
 10
-20.611664
 20
282.486991
 30
0.0
 11
-19.394783
 21
283.703872
 31
0.0
  0
LINE
  5
16F
100
AcDbEntity
  8
LAY-1
  6
CONTINUOUS
 62
     6
100
AcDbLine
 10
-20.56414
 20
282.393093
 30
0.0
 11
-19.338842
 21
283.618391
 31
0.0
  0
LINE
  5
170
100
AcDbEntity
  8
LAY-1
  6
CONTINUOUS
 62
     6
100
AcDbLine
 10
-20.519246
 20
282.296566
 30
0.0
 11
-19.284463
 21
283.531349
 31
0.0
  0
LINE
  5
171
100
AcDbEntity
  8
LAY-1
  6
CONTINUOUS
 62
     6
100
AcDbLine
 10
-20.477078
 20
282.197313
 30
0.0
 11
-19.23167
 21
283.442721
 31
0.0
  0
LINE
  5
172
100
AcDbEntity
  8
LAY-1
  6
CONTINUOUS
 62
     6
100
AcDbLine
 10
-20.437751
 20
282.095218
 30
0.0
 11
-19.180487
 21
283.352483
 31
0.0
  0
LINE
  5
173
100
AcDbEntity
  8
LAY-1
  6
CONTINUOUS
 62
     6
100
AcDbLine
 10
-20.401398
 20
281.99015
 30
0.0
 11
-19.130943
 21
283.260605
 31
0.0
  0
LINE
  5
174
100
AcDbEntity
  8
LAY-1
  6
CONTINUOUS
 62
     6
100
AcDbLine
 10
-20.368175
 20
281.881952
 30
0.0
 11
-19.083071
 21
283.167055
 31
0.0
  0
LINE
  5
175
100
AcDbEntity
  8
LAY-1
  6
CONTINUOUS
 62
     6
100
AcDbLine
 10
-28.037704
 20
279.445013
 30
0.0
 11
-26.619618
 21
280.863098
 31
0.0
  0
LINE
  5
176
100
AcDbEntity
  8
LAY-1
  6
CONTINUOUS
 62
     6
100
AcDbLine
 10
-24.982474
 20
282.500243
 30
0.0
 11
-24.933426
 21
282.549291
 31
0.0
  0
LINE
  5
177
100
AcDbEntity
  8
LAY-1
  6
CONTINUOUS
 62
     6
100
AcDbLine
 10
-28.001002
 20
279.340293
 30
0.0
 11
-26.611123
 21
280.730172
 31
0.0
  0
LINE
  5
178
100
AcDbEntity
  8
LAY-1
  6
CONTINUOUS
 62
     6
100
AcDbLine
 10
-25.346843
 20
281.994452
 30
0.0
 11
-24.427635
 21
282.913661
 31
0.0
  0
LINE
  5
179
100
AcDbEntity
  8
LAY-1
  6
CONTINUOUS
 62
     6
100
AcDbLine
 10
-27.962344
 20
279.23753
 30
0.0
 11
-26.597655
 21
280.602219
 31
0.0
  0
LINE
  5
17A
100
AcDbEntity
  8
LAY-1
  6
CONTINUOUS
 62
     6
100
AcDbLine
 10
-25.4583
 20
281.741574
 30
0.0
 11
-24.174757
 21
283.025117
 31
0.0
  0
LINE
  5
17B
100
AcDbEntity
  8
LAY-1
  6
CONTINUOUS
 62
     6
100
AcDbLine
 10
-27.921788
 20
279.136664
 30
0.0
 11
-26.579679
 21
280.478774
 31
0.0
  0
LINE
  5
17C
100
AcDbEntity
  8
LAY-1
  6
CONTINUOUS
 62
     6
100
AcDbLine
 10
-25.52203
 20
281.536423
 30
0.0
 11
-23.969606
 21
283.088847
 31
0.0
  0
LINE
  5
17D
100
AcDbEntity
  8
LAY-1
  6
CONTINUOUS
 62
     6
100
AcDbLine
 10
-27.879389
 20
279.037642
 30
0.0
 11
-26.557574
 21
280.359458
 31
0.0
  0
LINE
  5
17E
100
AcDbEntity
  8
LAY-1
  6
CONTINUOUS
 62
     6
100
AcDbLine
 10
-25.560059
 20
281.356972
 30
0.0
 11
-23.790155
 21
283.126876
 31
0.0
  0
LINE
  5
17F
100
AcDbEntity
  8
LAY-1
  6
CONTINUOUS
 62
     6
100
AcDbLine
 10
-27.835195
 20
278.940415
 30
0.0
 11
-26.531652
 21
280.243958
 31
0.0
  0
LINE
  5
180
100
AcDbEntity
  8
LAY-1
  6
CONTINUOUS
 62
     6
100
AcDbLine
 10
-25.58101
 20
281.1946
 30
0.0
 11
-23.627783
 21
283.147827
 31
0.0
  0
LINE
  5
181
100
AcDbEntity
  8
LAY-1
  6
CONTINUOUS
 62
     6
100
AcDbLine
 10
-27.789249
 20
278.844939
 30
0.0
 11
-26.502175
 21
280.132014
 31
0.0
  0
LINE
  5
182
100
AcDbEntity
  8
LAY-1
  6
CONTINUOUS
 62
     6
100
AcDbLine
 10
-25.589341
 20
281.044847
 30
0.0
 11
-23.47803
 21
283.156159
 31
0.0
  0
LINE
  5
183
100
AcDbEntity
  8
LAY-1
  6
CONTINUOUS
 62
     6
100
AcDbLine
 10
-27.741592
 20
278.751175
 30
0.0
 11
-26.469361
 21
280.023406
 31
0.0
  0
LINE
  5
184
100
AcDbEntity
  8
LAY-1
  6
CONTINUOUS
 62
     6
100
AcDbLine
 10
-25.587717
 20
280.905051
 30
0.0
 11
-23.338233
 21
283.154534
 31
0.0
  0
LINE
  5
185
100
AcDbEntity
  8
LAY-1
  6
CONTINUOUS
 62
     6
100
AcDbLine
 10
-27.692259
 20
278.659087
 30
0.0
 11
-26.433396
 21
279.91795
 31
0.0
  0
LINE
  5
186
100
AcDbEntity
  8
LAY-1
  6
CONTINUOUS
 62
     6
100
AcDbLine
 10
-25.577877
 20
280.773468
 30
0.0
 11
-23.206651
 21
283.144695
 31
0.0
  0
LINE
  5
187
100
AcDbEntity
  8
LAY-1
  6
CONTINUOUS
 62
     6
100
AcDbLine
 10
-27.641282
 20
278.568642
 30
0.0
 11
-26.394439
 21
279.815485
 31
0.0
  0
LINE
  5
188
100
AcDbEntity
  8
LAY-1
  6
CONTINUOUS
 62
     6
100
AcDbLine
 10
-25.561035
 20
280.64889
 30
0.0
 11
-23.082073
 21
283.127852
 31
0.0
  0
LINE
  5
189
100
AcDbEntity
  8
LAY-1
  6
CONTINUOUS
 62
     6
100
AcDbLine
 10
-27.534513
 20
278.392569
 30
0.0
 11
-26.308071
 21
279.619011
 31
0.0
  0
LINE
  5
18A
100
AcDbEntity
  8
LAY-1
  6
CONTINUOUS
 62
     6
100
AcDbLine
 10
-25.509637
 20
280.417445
 30
0.0
 11
-22.850628
 21
283.076454
 31
0.0
  0
LINE
  5
18B
100
AcDbEntity
  8
LAY-1
  6
CONTINUOUS
 62
     6
100
AcDbLine
 10
-27.478769
 20
278.306892
 30
0.0
 11
-26.260876
 21
279.524784
 31
0.0
  0
LINE
  5
18C
100
AcDbEntity
  8
LAY-1
  6
CONTINUOUS
 62
     6
100
AcDbLine
 10
-25.476249
 20
280.309412
 30
0.0
 11
-22.742594
 21
283.043066
 31
0.0
  0
LINE
  5
18D
100
AcDbEntity
  8
LAY-1
  6
CONTINUOUS
 62
     6
100
AcDbLine
 10
-27.421481
 20
278.222758
 30
0.0
 11
-26.211127
 21
279.433112
 31
0.0
  0
LINE
  5
18E
100
AcDbEntity
  8
LAY-1
  6
CONTINUOUS
 62
     6
100
AcDbLine
 10
-25.438301
 20
280.205938
 30
0.0
 11
-22.639121
 21
283.005118
 31
0.0
  0
LINE
  5
18F
100
AcDbEntity
  8
LAY-1
  6
CONTINUOUS
 62
     6
100
AcDbLine
 10
-27.362668
 20
278.14015
 30
0.0
 11
-26.158897
 21
279.343921
 31
0.0
  0
LINE
  5
190
100
AcDbEntity
  8
LAY-1
  6
CONTINUOUS
 62
     6
100
AcDbLine
 10
-25.396106
 20
280.106712
 30
0.0
 11
-22.539895
 21
282.962923
 31
0.0
  0
LINE
  5
191
100
AcDbEntity
  8
LAY-1
  6
CONTINUOUS
 62
     6
100
AcDbLine
 10
-27.302345
 20
278.059051
 30
0.0
 11
-26.104247
 21
279.257149
 31
0.0
  0
LINE
  5
192
100
AcDbEntity
  8
LAY-1
  6
CONTINUOUS
 62
     6
100
AcDbLine
 10
-25.349915
 20
280.011481
 30
0.0
 11
-22.444664
 21
282.916732
 31
0.0
  0
LINE
  5
193
100
AcDbEntity
  8
LAY-1
  6
CONTINUOUS
 62
     6
100
AcDbLine
 10
-27.588691
 20
278.479812
 30
0.0
 11
-26.352625
 21
279.715878
 31
0.0
  0
LINE
  5
194
100
AcDbEntity
  8
LAY-1
  6
CONTINUOUS
 62
     6
100
AcDbLine
 10
-25.538068
 20
280.530435
 30
0.0
 11
-22.963618
 21
283.104885
 31
0.0
  0
LINE
  5
195
100
AcDbEntity
  8
LAY-1
  6
CONTINUOUS
 62
     6
100
AcDbLine
 10
-27.177224
 20
277.90133
 30
0.0
 11
-25.987892
 21
279.090662
 31
0.0
  0
LINE
  5
196
100
AcDbEntity
  8
LAY-1
  6
CONTINUOUS
 62
     6
100
AcDbLine
 10
-25.246301
 20
279.832253
 30
0.0
 11
-22.265435
 21
282.813118
 31
0.0
  0
LINE
  5
197
100
AcDbEntity
  8
LAY-1
  6
CONTINUOUS
 62
     6
100
AcDbLine
 10
-27.240527
 20
277.979448
 30
0.0
 11
-26.047231
 21
279.172744
 31
0.0
  0
LINE
  5
198
100
AcDbEntity
  8
LAY-1
  6
CONTINUOUS
 62
     6
100
AcDbLine
 10
-25.299927
 20
279.920048
 30
0.0
 11
-22.353231
 21
282.866744
 31
0.0
  0
LINE
  5
199
100
AcDbEntity
  8
LAY-1
  6
CONTINUOUS
 62
     6
100
AcDbLine
 10
-27.112446
 20
277.824686
 30
0.0
 11
-25.926266
 21
279.010867
 31
0.0
  0
LINE
  5
19A
100
AcDbEntity
  8
LAY-1
  6
CONTINUOUS
 62
     6
100
AcDbLine
 10
-25.18916
 20
279.747972
 30
0.0
 11
-22.181155
 21
282.755978
 31
0.0
  0
LINE
  5
19B
100
AcDbEntity
  8
LAY-1
  6
CONTINUOUS
 62
     6
100
AcDbLine
 10
-27.046202
 20
277.749509
 30
0.0
 11
-25.862379
 21
278.933332
 31
0.0
  0
LINE
  5
19C
100
AcDbEntity
  8
LAY-1
  6
CONTINUOUS
 62
     6
100
AcDbLine
 10
-25.1286
 20
279.667111
 30
0.0
 11
-22.100294
 21
282.695417
 31
0.0
  0
LINE
  5
19D
100
AcDbEntity
  8
LAY-1
  6
CONTINUOUS
 62
     6
100
AcDbLine
 10
-26.978496
 20
277.675793
 30
0.0
 11
-25.796254
 21
278.858036
 31
0.0
  0
LINE
  5
19E
100
AcDbEntity
  8
LAY-1
  6
CONTINUOUS
 62
     6
100
AcDbLine
 10
-25.064688
 20
279.589602
 30
0.0
 11
-22.022785
 21
282.631505
 31
0.0
  0
LINE
  5
19F
100
AcDbEntity
  8
LAY-1
  6
CONTINUOUS
 62
     6
100
AcDbLine
 10
-26.909334
 20
277.603535
 30
0.0
 11
-25.727902
 21
278.784966
 31
0.0
  0
LINE
  5
1A0
100
AcDbEntity
  8
LAY-1
  6
CONTINUOUS
 62
     6
100
AcDbLine
 10
-24.997469
 20
279.515399
 30
0.0
 11
-21.948582
 21
282.564286
 31
0.0
  0
LINE
  5
1A1
100
AcDbEntity
  8
LAY-1
  6
CONTINUOUS
 62
     6
100
AcDbLine
 10
-26.838715
 20
277.532732
 30
0.0
 11
-25.657332
 21
278.714115
 31
0.0
  0
LINE
  5
1A2
100
AcDbEntity
  8
LAY-1
  6
CONTINUOUS
 62
     6
100
AcDbLine
 10
-24.926967
 20
279.44448
 30
0.0
 11
-21.877663
 21
282.493784
 31
0.0
  0
LINE
  5
1A3
100
AcDbEntity
  8
LAY-1
  6
CONTINUOUS
 62
     6
100
AcDbLine
 10
-26.766642
 20
277.463384
 30
0.0
 11
-25.584544
 21
278.645481
 31
0.0
  0
LINE
  5
1A4
100
AcDbEntity
  8
LAY-1
  6
CONTINUOUS
 62
     6
100
AcDbLine
 10
-24.853181
 20
279.376844
 30
0.0
 11
-21.810027
 21
282.419999
 31
0.0
  0
LINE
  5
1A5
100
AcDbEntity
  8
LAY-1
  6
CONTINUOUS
 62
     6
100
AcDbLine
 10
-26.693111
 20
277.395493
 30
0.0
 11
-25.509531
 21
278.579073
 31
0.0
  0
LINE
  5
1A6
100
AcDbEntity
  8
LAY-1
  6
CONTINUOUS
 62
     6
100
AcDbLine
 10
-24.776094
 20
279.31251
 30
0.0
 11
-21.745693
 21
282.342911
 31
0.0
  0
LINE
  5
1A7
100
AcDbEntity
  8
LAY-1
  6
CONTINUOUS
 62
     6
100
AcDbLine
 10
-26.61812
 20
277.329063
 30
0.0
 11
-25.432282
 21
278.514901
 31
0.0
  0
LINE
  5
1A8
100
AcDbEntity
  8
LAY-1
  6
CONTINUOUS
 62
     6
100
AcDbLine
 10
-24.695662
 20
279.251521
 30
0.0
 11
-21.684704
 21
282.262479
 31
0.0
  0
LINE
  5
1A9
100
AcDbEntity
  8
LAY-1
  6
CONTINUOUS
 62
     6
100
AcDbLine
 10
-26.541662
 20
277.264099
 30
0.0
 11
-25.352775
 21
278.452986
 31
0.0
  0
LINE
  5
1AA
100
AcDbEntity
  8
LAY-1
  6
CONTINUOUS
 62
     6
100
AcDbLine
 10
-24.61182
 20
279.193942
 30
0.0
 11
-21.627125
 21
282.178637
 31
0.0
  0
LINE
  5
1AB
100
AcDbEntity
  8
LAY-1
  6
CONTINUOUS
 62
     6
100
AcDbLine
 10
-26.463731
 20
277.200609
 30
0.0
 11
-25.270985
 21
278.393355
 31
0.0
  0
LINE
  5
1AC
100
AcDbEntity
  8
LAY-1
  6
CONTINUOUS
 62
     6
100
AcDbLine
 10
-24.524477
 20
279.139863
 30
0.0
 11
-21.573046
 21
282.091294
 31
0.0
  0
LINE
  5
1AD
100
AcDbEntity
  8
LAY-1
  6
CONTINUOUS
 62
     6
100
AcDbLine
 10
-26.30341
 20
277.078088
 30
0.0
 11
-25.100408
 21
278.28109
 31
0.0
  0
LINE
  5
1AE
100
AcDbEntity
  8
LAY-1
  6
CONTINUOUS
 62
     6
100
AcDbLine
 10
-24.338775
 20
279.042723
 30
0.0
 11
-21.475905
 21
281.905592
 31
0.0
  0
LINE
  5
1AF
100
AcDbEntity
  8
LAY-1
  6
CONTINUOUS
 62
     6
100
AcDbLine
 10
-26.220994
 20
277.019082
 30
0.0
 11
-25.011527
 21
278.228549
 31
0.0
  0
LINE
  5
1B0
100
AcDbEntity
  8
LAY-1
  6
CONTINUOUS
 62
     6
100
AcDbLine
 10
-24.240068
 20
279.000008
 30
0.0
 11
-21.433191
 21
281.806885
 31
0.0
  0
LINE
  5
1B1
100
AcDbEntity
  8
LAY-1
  6
CONTINUOUS
 62
     6
100
AcDbLine
 10
-26.384318
 20
277.138601
 30
0.0
 11
-25.186877
 21
278.336042
 31
0.0
  0
LINE
  5
1B2
100
AcDbEntity
  8
LAY-1
  6
CONTINUOUS
 62
     6
100
AcDbLine
 10
-24.433513
 20
279.089406
 30
0.0
 11
-21.522588
 21
282.00033
 31
0.0
  0
LINE
  5
1B3
100
AcDbEntity
  8
LAY-1
  6
CONTINUOUS
 62
     6
100
AcDbLine
 10
-26.051574
 20
276.905659
 30
0.0
 11
-24.826276
 21
278.130958
 31
0.0
  0
LINE
  5
1B4
100
AcDbEntity
  8
LAY-1
  6
CONTINUOUS
 62
     6
100
AcDbLine
 10
-24.029715
 20
278.927518
 30
0.0
 11
-21.360701
 21
281.596532
 31
0.0
  0
LINE
  5
1B5
100
AcDbEntity
  8
LAY-1
  6
CONTINUOUS
 62
     6
100
AcDbLine
 10
-25.964532
 20
276.85128
 30
0.0
 11
-24.729749
 21
278.086063
 31
0.0
  0
LINE
  5
1B6
100
AcDbEntity
  8
LAY-1
  6
CONTINUOUS
 62
     6
100
AcDbLine
 10
-23.917379
 20
278.898433
 30
0.0
 11
-21.331616
 21
281.484196
 31
0.0
  0
LINE
  5
1B7
100
AcDbEntity
  8
LAY-1
  6
CONTINUOUS
 62
     6
100
AcDbLine
 10
-25.875904
 20
276.798487
 30
0.0
 11
-24.630495
 21
278.043895
 31
0.0
  0
LINE
  5
1B8
100
AcDbEntity
  8
LAY-1
  6
CONTINUOUS
 62
     6
100
AcDbLine
 10
-23.799651
 20
278.874739
 30
0.0
 11
-21.307922
 21
281.366468
 31
0.0
  0
LINE
  5
1B9
100
AcDbEntity
  8
LAY-1
  6
CONTINUOUS
 62
     6
100
AcDbLine
 10
-26.137055
 20
276.9616
 30
0.0
 11
-24.920174
 21
278.178481
 31
0.0
  0
LINE
  5
1BA
100
AcDbEntity
  8
LAY-1
  6
CONTINUOUS
 62
     6
100
AcDbLine
 10
-24.13715
 20
278.961505
 30
0.0
 11
-21.394688
 21
281.703967
 31
0.0
  0
LINE
  5
1BB
100
AcDbEntity
  8
LAY-1
  6
CONTINUOUS
 62
     6
100
AcDbLine
 10
-25.693788
 20
276.69776
 30
0.0
 11
-24.423332
 21
277.968216
 31
0.0
  0
LINE
  5
1BC
100
AcDbEntity
  8
LAY-1
  6
CONTINUOUS
 62
     6
100
AcDbLine
 10
-23.545259
 20
278.846289
 30
0.0
 11
-21.279472
 21
281.112076
 31
0.0
  0
LINE
  5
1BD
100
AcDbEntity
  8
LAY-1
  6
CONTINUOUS
 62
     6
100
AcDbLine
 10
-25.785665
 20
276.747304
 30
0.0
 11
-24.528401
 21
278.004568
 31
0.0
  0
LINE
  5
1BE
100
AcDbEntity
  8
LAY-1
  6
CONTINUOUS
 62
     6
100
AcDbLine
 10
-23.675893
 20
278.857076
 30
0.0
 11
-21.290259
 21
281.24271
 31
0.0
  0
LINE
  5
1BF
100
AcDbEntity
  8
LAY-1
  6
CONTINUOUS
 62
     6
100
AcDbLine
 10
-25.600238
 20
276.649888
 30
0.0
 11
-24.315135
 21
277.934992
 31
0.0
  0
LINE
  5
1C0
100
AcDbEntity
  8
LAY-1
  6
CONTINUOUS
 62
     6
100
AcDbLine
 10
-23.406588
 20
278.843539
 30
0.0
 11
-21.276722
 21
280.973405
 31
0.0
  0
LINE
  5
1C1
100
AcDbEntity
  8
LAY-1
  6
CONTINUOUS
 62
     6
100
AcDbLine
 10
-25.504982
 20
276.603723
 30
0.0
 11
-24.203625
 21
277.90508
 31
0.0
  0
LINE
  5
1C2
100
AcDbEntity
  8
LAY-1
  6
CONTINUOUS
 62
     6
100
AcDbLine
 10
-25.40798
 20
276.559304
 30
0.0
 11
-24.08859
 21
277.878694
 31
0.0
  0
LINE
  5
1C3
100
AcDbEntity
  8
LAY-1
  6
CONTINUOUS
 62
     6
100
AcDbLine
 10
-25.309188
 20
276.516675
 30
0.0
 11
-23.969774
 21
277.856088
 31
0.0
  0
LINE
  5
1C4
100
AcDbEntity
  8
LAY-1
  6
CONTINUOUS
 62
     6
100
AcDbLine
 10
-25.208559
 20
276.475882
 30
0.0
 11
-23.846873
 21
277.837568
 31
0.0
  0
LINE
  5
1C5
100
AcDbEntity
  8
LAY-1
  6
CONTINUOUS
 62
     6
100
AcDbLine
 10
-25.10604
 20
276.43698
 30
0.0
 11
-23.719516
 21
277.823504
 31
0.0
  0
LINE
  5
1C6
100
AcDbEntity
  8
LAY-1
  6
CONTINUOUS
 62
     6
100
AcDbLine
 10
-25.001572
 20
276.400027
 30
0.0
 11
-23.58725
 21
277.814348
 31
0.0
  0
LINE
  5
1C7
100
AcDbEntity
  8
LAY-1
  6
CONTINUOUS
 62
     6
100
AcDbLine
 10
-24.895091
 20
276.365086
 30
0.0
 11
-23.44951
 21
277.810667
 31
0.0
  0
LINE
  5
1C8
100
AcDbEntity
  8
LAY-1
  6
CONTINUOUS
 62
     6
100
AcDbLine
 10
-20.24385
 20
281.016327
 30
0.0
 11
-18.798269
 21
282.461908
 31
0.0
  0
LINE
  5
1C9
100
AcDbEntity
  8
LAY-1
  6
CONTINUOUS
 62
     6
100
AcDbLine
 10
-24.786525
 20
276.332231
 30
0.0
 11
-23.305577
 21
277.813179
 31
0.0
  0
LINE
  5
1CA
100
AcDbEntity
  8
LAY-1
  6
CONTINUOUS
 62
     6
100
AcDbLine
 10
-20.246362
 20
280.872394
 30
0.0
 11
-18.765414
 21
282.353342
 31
0.0
  0
LINE
  5
1CB
100
AcDbEntity
  8
LAY-1
  6
CONTINUOUS
 62
     6
100
AcDbLine
 10
-24.675794
 20
276.301541
 30
0.0
 11
-23.154512
 21
277.822823
 31
0.0
  0
LINE
  5
1CC
100
AcDbEntity
  8
LAY-1
  6
CONTINUOUS
 62
     6
100
AcDbLine
 10
-20.256006
 20
280.721329
 30
0.0
 11
-18.734724
 21
282.242611
 31
0.0
  0
LINE
  5
1CD
100
AcDbEntity
  8
LAY-1
  6
CONTINUOUS
 62
     6
100
AcDbLine
 10
-24.562809
 20
276.273104
 30
0.0
 11
-22.995051
 21
277.840862
 31
0.0
  0
LINE
  5
1CE
100
AcDbEntity
  8
LAY-1
  6
CONTINUOUS
 62
     6
100
AcDbLine
 10
-20.274045
 20
280.561868
 30
0.0
 11
-18.706287
 21
282.129626
 31
0.0
  0
LINE
  5
1CF
100
AcDbEntity
  8
LAY-1
  6
CONTINUOUS
 62
     6
100
AcDbLine
 10
-24.447472
 20
276.24702
 30
0.0
 11
-22.825425
 21
277.869067
 31
0.0
  0
LINE
  5
1D0
100
AcDbEntity
  8
LAY-1
  6
CONTINUOUS
 62
     6
100
AcDbLine
 10
-20.30225
 20
280.392242
 30
0.0
 11
-18.680203
 21
282.014289
 31
0.0
  0
LINE
  5
1D1
100
AcDbEntity
  8
LAY-1
  6
CONTINUOUS
 62
     6
100
AcDbLine
 10
-24.209281
 20
276.202368
 30
0.0
 11
-22.443627
 21
277.968022
 31
0.0
  0
LINE
  5
1D2
100
AcDbEntity
  8
LAY-1
  6
CONTINUOUS
 62
     6
100
AcDbLine
 10
-20.401204
 20
280.010444
 30
0.0
 11
-18.635551
 21
281.776098
 31
0.0
  0
LINE
  5
1D3
100
AcDbEntity
  8
LAY-1
  6
CONTINUOUS
 62
     6
100
AcDbLine
 10
-24.329671
 20
276.2234
 30
0.0
 11
-22.643013
 21
277.910058
 31
0.0
  0
LINE
  5
1D4
100
AcDbEntity
  8
LAY-1
  6
CONTINUOUS
 62
     6
100
AcDbLine
 10
-20.34324
 20
280.20983
 30
0.0
 11
-18.656583
 21
281.896488
 31
0.0
  0
LINE
  5
1D5
100
AcDbEntity
  8
LAY-1
  6
CONTINUOUS
 62
     6
100
AcDbLine
 10
-24.086161
 20
276.184066
 30
0.0
 11
-22.219753
 21
278.050474
 31
0.0
  0
LINE
  5
1D6
100
AcDbEntity
  8
LAY-1
  6
CONTINUOUS
 62
     6
100
AcDbLine
 10
-20.483657
 20
279.78657
 30
0.0
 11
-18.617249
 21
281.652979
 31
0.0
  0
LINE
  5
1D7
100
AcDbEntity
  8
LAY-1
  6
CONTINUOUS
 62
     6
100
AcDbLine
 10
-23.960152
 20
276.168654
 30
0.0
 11
-21.954895
 21
278.173911
 31
0.0
  0
LINE
  5
1D8
100
AcDbEntity
  8
LAY-1
  6
CONTINUOUS
 62
     6
100
AcDbLine
 10
-20.607094
 20
279.521712
 30
0.0
 11
-18.601837
 21
281.526969
 31
0.0
  0
LINE
  5
1D9
100
AcDbEntity
  8
LAY-1
  6
CONTINUOUS
 62
     6
100
AcDbLine
 10
-23.83107
 20
276.156315
 30
0.0
 11
-21.590779
 21
278.396606
 31
0.0
  0
LINE
  5
1DA
100
AcDbEntity
  8
LAY-1
  6
CONTINUOUS
 62
     6
100
AcDbLine
 10
-20.829789
 20
279.157596
 30
0.0
 11
-18.589498
 21
281.397887
 31
0.0
  0
LINE
  5
1DB
100
AcDbEntity
  8
LAY-1
  6
CONTINUOUS
 62
     6
100
AcDbLine
 10
-22.47519
 20
279.06783
 30
0.0
 11
-21.501013
 21
280.042007
 31
0.0
  0
LINE
  5
1DC
100
AcDbEntity
  8
LAY-1
  6
CONTINUOUS
 62
     6
100
AcDbLine
 10
-20.256687
 20
281.286333
 30
0.0
 11
-18.870163
 21
282.672857
 31
0.0
  0
LINE
  5
1DD
100
AcDbEntity
  8
LAY-1
  6
CONTINUOUS
 62
     6
100
AcDbLine
 10
-22.719585
 20
278.964857
 30
0.0
 11
-21.398039
 21
280.286402
 31
0.0
  0
LINE
  5
1DE
100
AcDbEntity
  8
LAY-1
  6
CONTINUOUS
 62
     6
100
AcDbLine
 10
-20.270751
 20
281.41369
 30
0.0
 11
-18.909065
 21
282.775376
 31
0.0
  0
LINE
  5
1DF
100
AcDbEntity
  8
LAY-1
  6
CONTINUOUS
 62
     6
100
AcDbLine
 10
-22.084393
 20
279.317206
 30
0.0
 11
-21.750389
 21
279.65121
 31
0.0
  0
LINE
  5
1E0
100
AcDbEntity
  8
LAY-1
  6
CONTINUOUS
 62
     6
100
AcDbLine
 10
-20.247531
 20
281.154067
 30
0.0
 11
-18.833209
 21
282.568389
 31
0.0
  0
LINE
  5
1E1
100
AcDbEntity
  8
LAY-1
  6
CONTINUOUS
 62
     6
100
AcDbLine
 10
-22.920715
 20
278.905147
 30
0.0
 11
-21.33833
 21
280.487533
 31
0.0
  0
LINE
  5
1E2
100
AcDbEntity
  8
LAY-1
  6
CONTINUOUS
 62
     6
100
AcDbLine
 10
-20.289271
 20
281.536592
 30
0.0
 11
-18.949858
 21
282.876005
 31
0.0
  0
LINE
  5
1E3
100
AcDbEntity
  8
LAY-1
  6
CONTINUOUS
 62
     6
100
AcDbLine
 10
-23.258221
 20
278.850484
 30
0.0
 11
-21.283667
 21
280.825039
 31
0.0
  0
LINE
  5
1E4
100
AcDbEntity
  8
LAY-1
  6
CONTINUOUS
 62
     6
100
AcDbLine
 10
-20.338263
 20
281.770443
 30
0.0
 11
-19.036906
 21
283.071799
 31
0.0
  0
LINE
  5
1E5
100
AcDbEntity
  8
LAY-1
  6
CONTINUOUS
 62
     6
100
AcDbLine
 10
-23.097647
 20
278.869637
 30
0.0
 11
-21.30282
 21
280.664464
 31
0.0
  0
LINE
  5
1E6
100
AcDbEntity
  8
LAY-1
  6
CONTINUOUS
 62
     6
100
AcDbLine
 10
-20.311876
 20
281.655407
 30
0.0
 11
-18.992487
 21
282.974797
 31
0.0
  0
LINE
  5
1E7
100
AcDbEntity
  8
LAY-1
  6
CONTINUOUS
 62
     6
100
AcDbLine
 10
-19.260338
 20
284.615452
 30
0.0
 11
-19.23079
 21
284.645
 31
0.0
  0
LINE
  5
1E8
100
AcDbEntity
  8
LAY-1
  6
CONTINUOUS
 62
     6
100
AcDbLine
 10
-19.191004
 20
284.543365
 30
0.0
 11
-19.089369
 21
284.645
 31
0.0
  0
LINE
  5
1E9
100
AcDbEntity
  8
LAY-1
  6
CONTINUOUS
 62
     6
100
AcDbLine
 10
-19.123041
 20
284.469907
 30
0.0
 11
-18.947948
 21
284.645
 31
0.0
  0
LINE
  5
1EA
100
AcDbEntity
  8
LAY-1
  6
CONTINUOUS
 62
     6
100
AcDbLine
 10
-19.056452
 20
284.395074
 30
0.0
 11
-18.806526
 21
284.645
 31
0.0
  0
LINE
  5
1EB
100
AcDbEntity
  8
LAY-1
  6
CONTINUOUS
 62
     6
100
AcDbLine
 10
-18.991242
 20
284.318863
 30
0.0
 11
-18.665105
 21
284.645
 31
0.0
  0
LINE
  5
1EC
100
AcDbEntity
  8
LAY-1
  6
CONTINUOUS
 62
     6
100
AcDbLine
 10
-18.927418
 20
284.241266
 30
0.0
 11
-18.523684
 21
284.645
 31
0.0
  0
LINE
  5
1ED
100
AcDbEntity
  8
LAY-1
  6
CONTINUOUS
 62
     6
100
AcDbLine
 10
-18.864987
 20
284.162276
 30
0.0
 11
-18.382262
 21
284.645
 31
0.0
  0
LINE
  5
1EE
100
AcDbEntity
  8
LAY-1
  6
CONTINUOUS
 62
     6
100
AcDbLine
 10
-18.803958
 20
284.081883
 30
0.0
 11
-18.240841
 21
284.645
 31
0.0
  0
LINE
  5
1EF
100
AcDbEntity
  8
LAY-1
  6
CONTINUOUS
 62
     6
100
AcDbLine
 10
-18.744344
 20
284.000076
 30
0.0
 11
-18.099419
 21
284.645
 31
0.0
  0
LINE
  5
1F0
100
AcDbEntity
  8
LAY-1
  6
CONTINUOUS
 62
     6
100
AcDbLine
 10
-18.686156
 20
283.916842
 30
0.0
 11
-17.957998
 21
284.645
 31
0.0
  0
LINE
  5
1F1
100
AcDbEntity
  8
LAY-1
  6
CONTINUOUS
 62
     6
100
AcDbLine
 10
-18.629411
 20
283.832166
 30
0.0
 11
-17.816577
 21
284.645
 31
0.0
  0
LINE
  5
1F2
100
AcDbEntity
  8
LAY-1
  6
CONTINUOUS
 62
     6
100
AcDbLine
 10
-18.574125
 20
283.74603
 30
0.0
 11
-17.675155
 21
284.645
 31
0.0
  0
LINE
  5
1F3
100
AcDbEntity
  8
LAY-1
  6
CONTINUOUS
 62
     6
100
AcDbLine
 10
-18.520318
 20
283.658416
 30
0.0
 11
-17.533734
 21
284.645
 31
0.0
  0
LINE
  5
1F4
100
AcDbEntity
  8
LAY-1
  6
CONTINUOUS
 62
     6
100
AcDbLine
 10
-18.468009
 20
283.569303
 30
0.0
 11
-17.392313
 21
284.645
 31
0.0
  0
LINE
  5
1F5
100
AcDbEntity
  8
LAY-1
  6
CONTINUOUS
 62
     6
100
AcDbLine
 10
-18.417224
 20
283.478667
 30
0.0
 11
-17.250891
 21
284.645
 31
0.0
  0
LINE
  5
1F6
100
AcDbEntity
  8
LAY-1
  6
CONTINUOUS
 62
     6
100
AcDbLine
 10
-18.32447
 20
283.43
 30
0.0
 11
-17.10947
 21
284.645
 31
0.0
  0
LINE
  5
1F7
100
AcDbEntity
  8
LAY-1
  6
CONTINUOUS
 62
     6
100
AcDbLine
 10
-18.183049
 20
283.43
 30
0.0
 11
-16.968049
 21
284.645
 31
0.0
  0
LINE
  5
1F8
100
AcDbEntity
  8
LAY-1
  6
CONTINUOUS
 62
     6
100
AcDbLine
 10
-18.041627
 20
283.43
 30
0.0
 11
-16.826627
 21
284.645
 31
0.0
  0
LINE
  5
1F9
100
AcDbEntity
  8
LAY-1
  6
CONTINUOUS
 62
     6
100
AcDbLine
 10
-17.900206
 20
283.43
 30
0.0
 11
-16.685206
 21
284.645
 31
0.0
  0
LINE
  5
1FA
100
AcDbEntity
  8
LAY-1
  6
CONTINUOUS
 62
     6
100
AcDbLine
 10
-17.758785
 20
283.43
 30
0.0
 11
-16.543785
 21
284.645
 31
0.0
  0
LINE
  5
1FB
100
AcDbEntity
  8
LAY-1
  6
CONTINUOUS
 62
     6
100
AcDbLine
 10
-17.617363
 20
283.43
 30
0.0
 11
-16.402363
 21
284.645
 31
0.0
  0
LINE
  5
1FC
100
AcDbEntity
  8
LAY-1
  6
CONTINUOUS
 62
     6
100
AcDbLine
 10
-17.475942
 20
283.43
 30
0.0
 11
-16.260942
 21
284.645
 31
0.0
  0
LINE
  5
1FD
100
AcDbEntity
  8
LAY-1
  6
CONTINUOUS
 62
     6
100
AcDbLine
 10
-17.33452
 20
283.43
 30
0.0
 11
-16.11952
 21
284.645
 31
0.0
  0
LINE
  5
1FE
100
AcDbEntity
  8
LAY-1
  6
CONTINUOUS
 62
     6
100
AcDbLine
 10
-17.193099
 20
283.43
 30
0.0
 11
-15.978099
 21
284.645
 31
0.0
  0
LINE
  5
1FF
100
AcDbEntity
  8
LAY-1
  6
CONTINUOUS
 62
     6
100
AcDbLine
 10
-17.051678
 20
283.43
 30
0.0
 11
-15.836678
 21
284.645
 31
0.0
  0
LINE
  5
200
100
AcDbEntity
  8
LAY-1
  6
CONTINUOUS
 62
     6
100
AcDbLine
 10
-16.910256
 20
283.43
 30
0.0
 11
-15.695256
 21
284.645
 31
0.0
  0
LINE
  5
201
100
AcDbEntity
  8
LAY-1
  6
CONTINUOUS
 62
     6
100
AcDbLine
 10
-16.768835
 20
283.43
 30
0.0
 11
-15.553835
 21
284.645
 31
0.0
  0
LINE
  5
202
100
AcDbEntity
  8
LAY-1
  6
CONTINUOUS
 62
     6
100
AcDbLine
 10
-16.627414
 20
283.43
 30
0.0
 11
-15.412414
 21
284.645
 31
0.0
  0
LINE
  5
203
100
AcDbEntity
  8
LAY-1
  6
CONTINUOUS
 62
     6
100
AcDbLine
 10
-16.485992
 20
283.43
 30
0.0
 11
-15.270992
 21
284.645
 31
0.0
  0
LINE
  5
204
100
AcDbEntity
  8
LAY-1
  6
CONTINUOUS
 62
     6
100
AcDbLine
 10
-16.344571
 20
283.43
 30
0.0
 11
-15.129571
 21
284.645
 31
0.0
  0
LINE
  5
205
100
AcDbEntity
  8
LAY-1
  6
CONTINUOUS
 62
     6
100
AcDbLine
 10
-16.20315
 20
283.43
 30
0.0
 11
-14.98815
 21
284.645
 31
0.0
  0
LINE
  5
206
100
AcDbEntity
  8
LAY-1
  6
CONTINUOUS
 62
     6
100
AcDbLine
 10
-16.061728
 20
283.43
 30
0.0
 11
-14.846728
 21
284.645
 31
0.0
  0
LINE
  5
207
100
AcDbEntity
  8
LAY-1
  6
CONTINUOUS
 62
     6
100
AcDbLine
 10
-15.920307
 20
283.43
 30
0.0
 11
-14.705307
 21
284.645
 31
0.0
  0
LINE
  5
208
100
AcDbEntity
  8
LAY-1
  6
CONTINUOUS
 62
     6
100
AcDbLine
 10
-15.778886
 20
283.43
 30
0.0
 11
-14.563886
 21
284.645
 31
0.0
  0
LINE
  5
209
100
AcDbEntity
  8
LAY-1
  6
CONTINUOUS
 62
     6
100
AcDbLine
 10
-15.637464
 20
283.43
 30
0.0
 11
-14.422464
 21
284.645
 31
0.0
  0
LINE
  5
20A
100
AcDbEntity
  8
LAY-1
  6
CONTINUOUS
 62
     6
100
AcDbLine
 10
-15.496043
 20
283.43
 30
0.0
 11
-14.281043
 21
284.645
 31
0.0
  0
LINE
  5
20B
100
AcDbEntity
  8
LAY-1
  6
CONTINUOUS
 62
     6
100
AcDbLine
 10
-15.354621
 20
283.43
 30
0.0
 11
-14.139621
 21
284.645
 31
0.0
  0
LINE
  5
20C
100
AcDbEntity
  8
LAY-1
  6
CONTINUOUS
 62
     6
100
AcDbLine
 10
-15.2132
 20
283.43
 30
0.0
 11
-13.9982
 21
284.645
 31
0.0
  0
LINE
  5
20D
100
AcDbEntity
  8
LAY-1
  6
CONTINUOUS
 62
     6
100
AcDbLine
 10
-15.071779
 20
283.43
 30
0.0
 11
-13.856779
 21
284.645
 31
0.0
  0
LINE
  5
20E
100
AcDbEntity
  8
LAY-1
  6
CONTINUOUS
 62
     6
100
AcDbLine
 10
-15.884961
 20
282.475397
 30
0.0
 11
-13.715357
 21
284.645
 31
0.0
  0
LINE
  5
20F
100
AcDbEntity
  8
LAY-1
  6
CONTINUOUS
 62
     6
100
AcDbLine
 10
-16.87491
 20
281.344026
 30
0.0
 11
-13.573936
 21
284.645
 31
0.0
  0
LINE
  5
210
100
AcDbEntity
  8
LAY-1
  6
CONTINUOUS
 62
     6
100
AcDbLine
 10
-17.841091
 20
280.236423
 30
0.0
 11
-13.432515
 21
284.645
 31
0.0
  0
LINE
  5
211
100
AcDbEntity
  8
LAY-1
  6
CONTINUOUS
 62
     6
100
AcDbLine
 10
-17.906552
 20
280.029541
 30
0.0
 11
-13.291093
 21
284.645
 31
0.0
  0
LINE
  5
212
100
AcDbEntity
  8
LAY-1
  6
CONTINUOUS
 62
     6
100
AcDbLine
 10
-17.972013
 20
279.822659
 30
0.0
 11
-13.227183
 21
284.567489
 31
0.0
  0
LINE
  5
213
100
AcDbEntity
  8
LAY-1
  6
CONTINUOUS
 62
     6
100
AcDbLine
 10
-18.037474
 20
279.615777
 30
0.0
 11
-13.227183
 21
284.426068
 31
0.0
  0
LINE
  5
214
100
AcDbEntity
  8
LAY-1
  6
CONTINUOUS
 62
     6
100
AcDbLine
 10
-18.102935
 20
279.408894
 30
0.0
 11
-13.227183
 21
284.284646
 31
0.0
  0
LINE
  5
215
100
AcDbEntity
  8
LAY-1
  6
CONTINUOUS
 62
     6
100
AcDbLine
 10
-18.168396
 20
279.202012
 30
0.0
 11
-13.227183
 21
284.143225
 31
0.0
  0
LINE
  5
216
100
AcDbEntity
  8
LAY-1
  6
CONTINUOUS
 62
     6
100
AcDbLine
 10
-18.233857
 20
278.99513
 30
0.0
 11
-13.227183
 21
284.001804
 31
0.0
  0
LINE
  5
217
100
AcDbEntity
  8
LAY-1
  6
CONTINUOUS
 62
     6
100
AcDbLine
 10
-18.299317
 20
278.788248
 30
0.0
 11
-13.227183
 21
283.860382
 31
0.0
  0
LINE
  5
218
100
AcDbEntity
  8
LAY-1
  6
CONTINUOUS
 62
     6
100
AcDbLine
 10
-18.510666
 20
278.435478
 30
0.0
 11
-13.227183
 21
283.718961
 31
0.0
  0
LINE
  5
219
100
AcDbEntity
  8
LAY-1
  6
CONTINUOUS
 62
     6
100
AcDbLine
 10
-18.875892
 20
277.92883
 30
0.0
 11
-13.227183
 21
283.57754
 31
0.0
  0
LINE
  5
21A
100
AcDbEntity
  8
LAY-1
  6
CONTINUOUS
 62
     6
100
AcDbLine
 10
-19.241119
 20
277.422182
 30
0.0
 11
-13.227183
 21
283.436118
 31
0.0
  0
LINE
  5
21B
100
AcDbEntity
  8
LAY-1
  6
CONTINUOUS
 62
     6
100
AcDbLine
 10
-19.16688
 20
277.355
 30
0.0
 11
-14.174304
 21
282.347576
 31
0.0
  0
LINE
  5
21C
100
AcDbEntity
  8
LAY-1
  6
CONTINUOUS
 62
     6
100
AcDbLine
 10
-19.025458
 20
277.355
 30
0.0
 11
-15.164254
 21
281.216205
 31
0.0
  0
LINE
  5
21D
100
AcDbEntity
  8
LAY-1
  6
CONTINUOUS
 62
     6
100
AcDbLine
 10
-18.884037
 20
277.355
 30
0.0
 11
-16.154203
 21
280.084834
 31
0.0
  0
LINE
  5
21E
100
AcDbEntity
  8
LAY-1
  6
CONTINUOUS
 62
     6
100
AcDbLine
 10
-18.742616
 20
277.355
 30
0.0
 11
-17.144153
 21
278.953463
 31
0.0
  0
LINE
  5
21F
100
AcDbEntity
  8
LAY-1
  6
CONTINUOUS
 62
     6
100
AcDbLine
 10
-18.601194
 20
277.355
 30
0.0
 11
-17.386194
 21
278.57
 31
0.0
  0
LINE
  5
220
100
AcDbEntity
  8
LAY-1
  6
CONTINUOUS
 62
     6
100
AcDbLine
 10
-18.459773
 20
277.355
 30
0.0
 11
-17.244773
 21
278.57
 31
0.0
  0
LINE
  5
221
100
AcDbEntity
  8
LAY-1
  6
CONTINUOUS
 62
     6
100
AcDbLine
 10
-18.318352
 20
277.355
 30
0.0
 11
-17.103352
 21
278.57
 31
0.0
  0
LINE
  5
222
100
AcDbEntity
  8
LAY-1
  6
CONTINUOUS
 62
     6
100
AcDbLine
 10
-18.17693
 20
277.355
 30
0.0
 11
-16.96193
 21
278.57
 31
0.0
  0
LINE
  5
223
100
AcDbEntity
  8
LAY-1
  6
CONTINUOUS
 62
     6
100
AcDbLine
 10
-18.035509
 20
277.355
 30
0.0
 11
-16.820509
 21
278.57
 31
0.0
  0
LINE
  5
224
100
AcDbEntity
  8
LAY-1
  6
CONTINUOUS
 62
     6
100
AcDbLine
 10
-17.894088
 20
277.355
 30
0.0
 11
-16.679088
 21
278.57
 31
0.0
  0
LINE
  5
225
100
AcDbEntity
  8
LAY-1
  6
CONTINUOUS
 62
     6
100
AcDbLine
 10
-17.752666
 20
277.355
 30
0.0
 11
-16.537666
 21
278.57
 31
0.0
  0
LINE
  5
226
100
AcDbEntity
  8
LAY-1
  6
CONTINUOUS
 62
     6
100
AcDbLine
 10
-17.611245
 20
277.355
 30
0.0
 11
-16.396245
 21
278.57
 31
0.0
  0
LINE
  5
227
100
AcDbEntity
  8
LAY-1
  6
CONTINUOUS
 62
     6
100
AcDbLine
 10
-17.469824
 20
277.355
 30
0.0
 11
-16.254824
 21
278.57
 31
0.0
  0
LINE
  5
228
100
AcDbEntity
  8
LAY-1
  6
CONTINUOUS
 62
     6
100
AcDbLine
 10
-17.328402
 20
277.355
 30
0.0
 11
-16.113402
 21
278.57
 31
0.0
  0
LINE
  5
229
100
AcDbEntity
  8
LAY-1
  6
CONTINUOUS
 62
     6
100
AcDbLine
 10
-17.186981
 20
277.355
 30
0.0
 11
-15.971981
 21
278.57
 31
0.0
  0
LINE
  5
22A
100
AcDbEntity
  8
LAY-1
  6
CONTINUOUS
 62
     6
100
AcDbLine
 10
-17.045559
 20
277.355
 30
0.0
 11
-15.830559
 21
278.57
 31
0.0
  0
LINE
  5
22B
100
AcDbEntity
  8
LAY-1
  6
CONTINUOUS
 62
     6
100
AcDbLine
 10
-16.904138
 20
277.355
 30
0.0
 11
-15.689138
 21
278.57
 31
0.0
  0
LINE
  5
22C
100
AcDbEntity
  8
LAY-1
  6
CONTINUOUS
 62
     6
100
AcDbLine
 10
-16.762717
 20
277.355
 30
0.0
 11
-15.547717
 21
278.57
 31
0.0
  0
LINE
  5
22D
100
AcDbEntity
  8
LAY-1
  6
CONTINUOUS
 62
     6
100
AcDbLine
 10
-16.621295
 20
277.355
 30
0.0
 11
-15.406295
 21
278.57
 31
0.0
  0
LINE
  5
22E
100
AcDbEntity
  8
LAY-1
  6
CONTINUOUS
 62
     6
100
AcDbLine
 10
-16.479874
 20
277.355
 30
0.0
 11
-15.264874
 21
278.57
 31
0.0
  0
LINE
  5
22F
100
AcDbEntity
  8
LAY-1
  6
CONTINUOUS
 62
     6
100
AcDbLine
 10
-16.338453
 20
277.355
 30
0.0
 11
-15.123453
 21
278.57
 31
0.0
  0
LINE
  5
230
100
AcDbEntity
  8
LAY-1
  6
CONTINUOUS
 62
     6
100
AcDbLine
 10
-16.197031
 20
277.355
 30
0.0
 11
-14.982031
 21
278.57
 31
0.0
  0
LINE
  5
231
100
AcDbEntity
  8
LAY-1
  6
CONTINUOUS
 62
     6
100
AcDbLine
 10
-16.05561
 20
277.355
 30
0.0
 11
-14.84061
 21
278.57
 31
0.0
  0
LINE
  5
232
100
AcDbEntity
  8
LAY-1
  6
CONTINUOUS
 62
     6
100
AcDbLine
 10
-15.914189
 20
277.355
 30
0.0
 11
-14.699189
 21
278.57
 31
0.0
  0
LINE
  5
233
100
AcDbEntity
  8
LAY-1
  6
CONTINUOUS
 62
     6
100
AcDbLine
 10
-15.772767
 20
277.355
 30
0.0
 11
-14.557767
 21
278.57
 31
0.0
  0
LINE
  5
234
100
AcDbEntity
  8
LAY-1
  6
CONTINUOUS
 62
     6
100
AcDbLine
 10
-15.631346
 20
277.355
 30
0.0
 11
-14.416346
 21
278.57
 31
0.0
  0
LINE
  5
235
100
AcDbEntity
  8
LAY-1
  6
CONTINUOUS
 62
     6
100
AcDbLine
 10
-15.489925
 20
277.355
 30
0.0
 11
-14.274925
 21
278.57
 31
0.0
  0
LINE
  5
236
100
AcDbEntity
  8
LAY-1
  6
CONTINUOUS
 62
     6
100
AcDbLine
 10
-15.348503
 20
277.355
 30
0.0
 11
-14.133503
 21
278.57
 31
0.0
  0
LINE
  5
237
100
AcDbEntity
  8
LAY-1
  6
CONTINUOUS
 62
     6
100
AcDbLine
 10
-15.207082
 20
277.355
 30
0.0
 11
-13.992082
 21
278.57
 31
0.0
  0
LINE
  5
238
100
AcDbEntity
  8
LAY-1
  6
CONTINUOUS
 62
     6
100
AcDbLine
 10
-15.06566
 20
277.355
 30
0.0
 11
-13.85066
 21
278.57
 31
0.0
  0
LINE
  5
239
100
AcDbEntity
  8
LAY-1
  6
CONTINUOUS
 62
     6
100
AcDbLine
 10
-14.924239
 20
277.355
 30
0.0
 11
-13.709239
 21
278.57
 31
0.0
  0
LINE
  5
23A
100
AcDbEntity
  8
LAY-1
  6
CONTINUOUS
 62
     6
100
AcDbLine
 10
-14.782818
 20
277.355
 30
0.0
 11
-13.567818
 21
278.57
 31
0.0
  0
LINE
  5
23B
100
AcDbEntity
  8
LAY-1
  6
CONTINUOUS
 62
     6
100
AcDbLine
 10
-14.641396
 20
277.355
 30
0.0
 11
-13.426396
 21
278.57
 31
0.0
  0
LINE
  5
23C
100
AcDbEntity
  8
LAY-1
  6
CONTINUOUS
 62
     6
100
AcDbLine
 10
-14.499975
 20
277.355
 30
0.0
 11
-13.284975
 21
278.57
 31
0.0
  0
LINE
  5
23D
100
AcDbEntity
  8
LAY-1
  6
CONTINUOUS
 62
     6
100
AcDbLine
 10
-14.358554
 20
277.355
 30
0.0
 11
-13.227183
 21
278.486371
 31
0.0
  0
LINE
  5
23E
100
AcDbEntity
  8
LAY-1
  6
CONTINUOUS
 62
     6
100
AcDbLine
 10
-14.217132
 20
277.355
 30
0.0
 11
-13.227183
 21
278.344949
 31
0.0
  0
LINE
  5
23F
100
AcDbEntity
  8
LAY-1
  6
CONTINUOUS
 62
     6
100
AcDbLine
 10
-14.075711
 20
277.355
 30
0.0
 11
-13.227183
 21
278.203528
 31
0.0
  0
LINE
  5
240
100
AcDbEntity
  8
LAY-1
  6
CONTINUOUS
 62
     6
100
AcDbLine
 10
-13.93429
 20
277.355
 30
0.0
 11
-13.227183
 21
278.062107
 31
0.0
  0
LINE
  5
241
100
AcDbEntity
  8
LAY-1
  6
CONTINUOUS
 62
     6
100
AcDbLine
 10
-13.792868
 20
277.355
 30
0.0
 11
-13.227183
 21
277.920685
 31
0.0
  0
LINE
  5
242
100
AcDbEntity
  8
LAY-1
  6
CONTINUOUS
 62
     6
100
AcDbLine
 10
-13.651447
 20
277.355
 30
0.0
 11
-13.227183
 21
277.779264
 31
0.0
  0
LINE
  5
243
100
AcDbEntity
  8
LAY-1
  6
CONTINUOUS
 62
     6
100
AcDbLine
 10
-13.510026
 20
277.355
 30
0.0
 11
-13.227183
 21
277.637843
 31
0.0
  0
LINE
  5
244
100
AcDbEntity
  8
LAY-1
  6
CONTINUOUS
 62
     6
100
AcDbLine
 10
-13.368604
 20
277.355
 30
0.0
 11
-13.227183
 21
277.496421
 31
0.0
  0
LINE
  5
245
100
AcDbEntity
  8
LAY-1
  6
CONTINUOUS
 62
     6
100
AcDbLine
 10
-12.376683
 20
284.533562
 30
0.0
 11
-12.265245
 21
284.645
 31
0.0
  0
LINE
  5
246
100
AcDbEntity
  8
LAY-1
  6
CONTINUOUS
 62
     6
100
AcDbLine
 10
-12.376683
 20
284.392141
 30
0.0
 11
-12.123824
 21
284.645
 31
0.0
  0
LINE
  5
247
100
AcDbEntity
  8
LAY-1
  6
CONTINUOUS
 62
     6
100
AcDbLine
 10
-12.376683
 20
284.250719
 30
0.0
 11
-11.982402
 21
284.645
 31
0.0
  0
LINE
  5
248
100
AcDbEntity
  8
LAY-1
  6
CONTINUOUS
 62
     6
100
AcDbLine
 10
-12.376683
 20
284.109298
 30
0.0
 11
-11.840981
 21
284.645
 31
0.0
  0
LINE
  5
249
100
AcDbEntity
  8
LAY-1
  6
CONTINUOUS
 62
     6
100
AcDbLine
 10
-12.376683
 20
283.967877
 30
0.0
 11
-11.699559
 21
284.645
 31
0.0
  0
LINE
  5
24A
100
AcDbEntity
  8
LAY-1
  6
CONTINUOUS
 62
     6
100
AcDbLine
 10
-12.376683
 20
283.826455
 30
0.0
 11
-11.558138
 21
284.645
 31
0.0
  0
LINE
  5
24B
100
AcDbEntity
  8
LAY-1
  6
CONTINUOUS
 62
     6
100
AcDbLine
 10
-12.376683
 20
283.685034
 30
0.0
 11
-11.416717
 21
284.645
 31
0.0
  0
LINE
  5
24C
100
AcDbEntity
  8
LAY-1
  6
CONTINUOUS
 62
     6
100
AcDbLine
 10
-12.376683
 20
283.543613
 30
0.0
 11
-11.275295
 21
284.645
 31
0.0
  0
LINE
  5
24D
100
AcDbEntity
  8
LAY-1
  6
CONTINUOUS
 62
     6
100
AcDbLine
 10
-12.376683
 20
283.402191
 30
0.0
 11
-11.133874
 21
284.645
 31
0.0
  0
LINE
  5
24E
100
AcDbEntity
  8
LAY-1
  6
CONTINUOUS
 62
     6
100
AcDbLine
 10
-12.376683
 20
283.26077
 30
0.0
 11
-10.992453
 21
284.645
 31
0.0
  0
LINE
  5
24F
100
AcDbEntity
  8
LAY-1
  6
CONTINUOUS
 62
     6
100
AcDbLine
 10
-12.376683
 20
283.119348
 30
0.0
 11
-10.851031
 21
284.645
 31
0.0
  0
LINE
  5
250
100
AcDbEntity
  8
LAY-1
  6
CONTINUOUS
 62
     6
100
AcDbLine
 10
-12.376683
 20
282.977927
 30
0.0
 11
-10.70961
 21
284.645
 31
0.0
  0
LINE
  5
251
100
AcDbEntity
  8
LAY-1
  6
CONTINUOUS
 62
     6
100
AcDbLine
 10
-12.376683
 20
282.836506
 30
0.0
 11
-10.568189
 21
284.645
 31
0.0
  0
LINE
  5
252
100
AcDbEntity
  8
LAY-1
  6
CONTINUOUS
 62
     6
100
AcDbLine
 10
-12.376683
 20
282.695084
 30
0.0
 11
-10.426767
 21
284.645
 31
0.0
  0
LINE
  5
253
100
AcDbEntity
  8
LAY-1
  6
CONTINUOUS
 62
     6
100
AcDbLine
 10
-12.376683
 20
282.553663
 30
0.0
 11
-10.285346
 21
284.645
 31
0.0
  0
LINE
  5
254
100
AcDbEntity
  8
LAY-1
  6
CONTINUOUS
 62
     6
100
AcDbLine
 10
-12.376683
 20
282.412242
 30
0.0
 11
-10.143925
 21
284.645
 31
0.0
  0
LINE
  5
255
100
AcDbEntity
  8
LAY-1
  6
CONTINUOUS
 62
     6
100
AcDbLine
 10
-12.376683
 20
282.27082
 30
0.0
 11
-10.002503
 21
284.645
 31
0.0
  0
LINE
  5
256
100
AcDbEntity
  8
LAY-1
  6
CONTINUOUS
 62
     6
100
AcDbLine
 10
-12.376683
 20
282.129399
 30
0.0
 11
-9.861082
 21
284.645
 31
0.0
  0
LINE
  5
257
100
AcDbEntity
  8
LAY-1
  6
CONTINUOUS
 62
     6
100
AcDbLine
 10
-12.376683
 20
281.987978
 30
0.0
 11
-9.71966
 21
284.645
 31
0.0
  0
LINE
  5
258
100
AcDbEntity
  8
LAY-1
  6
CONTINUOUS
 62
     6
100
AcDbLine
 10
-12.376683
 20
281.846556
 30
0.0
 11
-10.918683
 21
283.304556
 31
0.0
  0
LINE
  5
259
100
AcDbEntity
  8
LAY-1
  6
CONTINUOUS
 62
     6
100
AcDbLine
 10
-10.793239
 20
283.43
 30
0.0
 11
-9.578239
 21
284.645
 31
0.0
  0
LINE
  5
25A
100
AcDbEntity
  8
LAY-1
  6
CONTINUOUS
 62
     6
100
AcDbLine
 10
-12.376683
 20
281.705135
 30
0.0
 11
-10.918683
 21
283.163135
 31
0.0
  0
LINE
  5
25B
100
AcDbEntity
  8
LAY-1
  6
CONTINUOUS
 62
     6
100
AcDbLine
 10
-10.651818
 20
283.43
 30
0.0
 11
-9.436818
 21
284.645
 31
0.0
  0
LINE
  5
25C
100
AcDbEntity
  8
LAY-1
  6
CONTINUOUS
 62
     6
100
AcDbLine
 10
-12.376683
 20
281.563714
 30
0.0
 11
-10.918683
 21
283.021714
 31
0.0
  0
LINE
  5
25D
100
AcDbEntity
  8
LAY-1
  6
CONTINUOUS
 62
     6
100
AcDbLine
 10
-10.510396
 20
283.43
 30
0.0
 11
-9.295396
 21
284.645
 31
0.0
  0
LINE
  5
25E
100
AcDbEntity
  8
LAY-1
  6
CONTINUOUS
 62
     6
100
AcDbLine
 10
-12.376683
 20
281.422292
 30
0.0
 11
-10.918683
 21
282.880292
 31
0.0
  0
LINE
  5
25F
100
AcDbEntity
  8
LAY-1
  6
CONTINUOUS
 62
     6
100
AcDbLine
 10
-10.368975
 20
283.43
 30
0.0
 11
-9.153975
 21
284.645
 31
0.0
  0
LINE
  5
260
100
AcDbEntity
  8
LAY-1
  6
CONTINUOUS
 62
     6
100
AcDbLine
 10
-12.376683
 20
281.280871
 30
0.0
 11
-10.918683
 21
282.738871
 31
0.0
  0
LINE
  5
261
100
AcDbEntity
  8
LAY-1
  6
CONTINUOUS
 62
     6
100
AcDbLine
 10
-10.227554
 20
283.43
 30
0.0
 11
-9.012554
 21
284.645
 31
0.0
  0
LINE
  5
262
100
AcDbEntity
  8
LAY-1
  6
CONTINUOUS
 62
     6
100
AcDbLine
 10
-12.376683
 20
281.139449
 30
0.0
 11
-10.918683
 21
282.597449
 31
0.0
  0
LINE
  5
263
100
AcDbEntity
  8
LAY-1
  6
CONTINUOUS
 62
     6
100
AcDbLine
 10
-10.086132
 20
283.43
 30
0.0
 11
-8.871132
 21
284.645
 31
0.0
  0
LINE
  5
264
100
AcDbEntity
  8
LAY-1
  6
CONTINUOUS
 62
     6
100
AcDbLine
 10
-12.376683
 20
280.998028
 30
0.0
 11
-10.918683
 21
282.456028
 31
0.0
  0
LINE
  5
265
100
AcDbEntity
  8
LAY-1
  6
CONTINUOUS
 62
     6
100
AcDbLine
 10
-9.944711
 20
283.43
 30
0.0
 11
-8.729711
 21
284.645
 31
0.0
  0
LINE
  5
266
100
AcDbEntity
  8
LAY-1
  6
CONTINUOUS
 62
     6
100
AcDbLine
 10
-12.376683
 20
280.856607
 30
0.0
 11
-10.918683
 21
282.314607
 31
0.0
  0
LINE
  5
267
100
AcDbEntity
  8
LAY-1
  6
CONTINUOUS
 62
     6
100
AcDbLine
 10
-9.80329
 20
283.43
 30
0.0
 11
-8.58829
 21
284.645
 31
0.0
  0
LINE
  5
268
100
AcDbEntity
  8
LAY-1
  6
CONTINUOUS
 62
     6
100
AcDbLine
 10
-12.376683
 20
280.715185
 30
0.0
 11
-10.918683
 21
282.173185
 31
0.0
  0
LINE
  5
269
100
AcDbEntity
  8
LAY-1
  6
CONTINUOUS
 62
     6
100
AcDbLine
 10
-9.661868
 20
283.43
 30
0.0
 11
-8.446868
 21
284.645
 31
0.0
  0
LINE
  5
26A
100
AcDbEntity
  8
LAY-1
  6
CONTINUOUS
 62
     6
100
AcDbLine
 10
-12.376683
 20
280.573764
 30
0.0
 11
-10.918683
 21
282.031764
 31
0.0
  0
LINE
  5
26B
100
AcDbEntity
  8
LAY-1
  6
CONTINUOUS
 62
     6
100
AcDbLine
 10
-9.520447
 20
283.43
 30
0.0
 11
-8.305447
 21
284.645
 31
0.0
  0
LINE
  5
26C
100
AcDbEntity
  8
LAY-1
  6
CONTINUOUS
 62
     6
100
AcDbLine
 10
-12.376683
 20
280.432343
 30
0.0
 11
-10.918683
 21
281.890343
 31
0.0
  0
LINE
  5
26D
100
AcDbEntity
  8
LAY-1
  6
CONTINUOUS
 62
     6
100
AcDbLine
 10
-9.379026
 20
283.43
 30
0.0
 11
-8.164026
 21
284.645
 31
0.0
  0
LINE
  5
26E
100
AcDbEntity
  8
LAY-1
  6
CONTINUOUS
 62
     6
100
AcDbLine
 10
-12.376683
 20
280.290921
 30
0.0
 11
-10.918683
 21
281.748921
 31
0.0
  0
LINE
  5
26F
100
AcDbEntity
  8
LAY-1
  6
CONTINUOUS
 62
     6
100
AcDbLine
 10
-9.237604
 20
283.43
 30
0.0
 11
-8.022604
 21
284.645
 31
0.0
  0
LINE
  5
270
100
AcDbEntity
  8
LAY-1
  6
CONTINUOUS
 62
     6
100
AcDbLine
 10
-12.376683
 20
280.1495
 30
0.0
 11
-10.918683
 21
281.6075
 31
0.0
  0
LINE
  5
271
100
AcDbEntity
  8
LAY-1
  6
CONTINUOUS
 62
     6
100
AcDbLine
 10
-9.096183
 20
283.43
 30
0.0
 11
-7.881183
 21
284.645
 31
0.0
  0
LINE
  5
272
100
AcDbEntity
  8
LAY-1
  6
CONTINUOUS
 62
     6
100
AcDbLine
 10
-12.376683
 20
280.008079
 30
0.0
 11
-10.777261
 21
281.6075
 31
0.0
  0
LINE
  5
273
100
AcDbEntity
  8
LAY-1
  6
CONTINUOUS
 62
     6
100
AcDbLine
 10
-8.954761
 20
283.43
 30
0.0
 11
-7.739761
 21
284.645
 31
0.0
  0
LINE
  5
274
100
AcDbEntity
  8
LAY-1
  6
CONTINUOUS
 62
     6
100
AcDbLine
 10
-12.376683
 20
279.866657
 30
0.0
 11
-10.63584
 21
281.6075
 31
0.0
  0
LINE
  5
275
100
AcDbEntity
  8
LAY-1
  6
CONTINUOUS
 62
     6
100
AcDbLine
 10
-8.81334
 20
283.43
 30
0.0
 11
-7.59834
 21
284.645
 31
0.0
  0
LINE
  5
276
100
AcDbEntity
  8
LAY-1
  6
CONTINUOUS
 62
     6
100
AcDbLine
 10
-12.376683
 20
279.725236
 30
0.0
 11
-10.494419
 21
281.6075
 31
0.0
  0
LINE
  5
277
100
AcDbEntity
  8
LAY-1
  6
CONTINUOUS
 62
     6
100
AcDbLine
 10
-8.671919
 20
283.43
 30
0.0
 11
-7.456919
 21
284.645
 31
0.0
  0
LINE
  5
278
100
AcDbEntity
  8
LAY-1
  6
CONTINUOUS
 62
     6
100
AcDbLine
 10
-12.376683
 20
279.583815
 30
0.0
 11
-10.352997
 21
281.6075
 31
0.0
  0
LINE
  5
279
100
AcDbEntity
  8
LAY-1
  6
CONTINUOUS
 62
     6
100
AcDbLine
 10
-8.530497
 20
283.43
 30
0.0
 11
-7.315497
 21
284.645
 31
0.0
  0
LINE
  5
27A
100
AcDbEntity
  8
LAY-1
  6
CONTINUOUS
 62
     6
100
AcDbLine
 10
-12.376683
 20
279.442393
 30
0.0
 11
-10.211576
 21
281.6075
 31
0.0
  0
LINE
  5
27B
100
AcDbEntity
  8
LAY-1
  6
CONTINUOUS
 62
     6
100
AcDbLine
 10
-8.389076
 20
283.43
 30
0.0
 11
-7.174076
 21
284.645
 31
0.0
  0
LINE
  5
27C
100
AcDbEntity
  8
LAY-1
  6
CONTINUOUS
 62
     6
100
AcDbLine
 10
-12.376683
 20
279.300972
 30
0.0
 11
-10.070155
 21
281.6075
 31
0.0
  0
LINE
  5
27D
100
AcDbEntity
  8
LAY-1
  6
CONTINUOUS
 62
     6
100
AcDbLine
 10
-8.247655
 20
283.43
 30
0.0
 11
-7.032655
 21
284.645
 31
0.0
  0
LINE
  5
27E
100
AcDbEntity
  8
LAY-1
  6
CONTINUOUS
 62
     6
100
AcDbLine
 10
-12.376683
 20
279.159551
 30
0.0
 11
-9.928733
 21
281.6075
 31
0.0
  0
LINE
  5
27F
100
AcDbEntity
  8
LAY-1
  6
CONTINUOUS
 62
     6
100
AcDbLine
 10
-8.106233
 20
283.43
 30
0.0
 11
-6.891233
 21
284.645
 31
0.0
  0
LINE
  5
280
100
AcDbEntity
  8
LAY-1
  6
CONTINUOUS
 62
     6
100
AcDbLine
 10
-12.376683
 20
279.018129
 30
0.0
 11
-9.787312
 21
281.6075
 31
0.0
  0
LINE
  5
281
100
AcDbEntity
  8
LAY-1
  6
CONTINUOUS
 62
     6
100
AcDbLine
 10
-7.964812
 20
283.43
 30
0.0
 11
-6.749812
 21
284.645
 31
0.0
  0
LINE
  5
282
100
AcDbEntity
  8
LAY-1
  6
CONTINUOUS
 62
     6
100
AcDbLine
 10
-12.376683
 20
278.876708
 30
0.0
 11
-10.918683
 21
280.334708
 31
0.0
  0
LINE
  5
283
100
AcDbEntity
  8
LAY-1
  6
CONTINUOUS
 62
     6
100
AcDbLine
 10
-10.860891
 20
280.3925
 30
0.0
 11
-9.645891
 21
281.6075
 31
0.0
  0
LINE
  5
284
100
AcDbEntity
  8
LAY-1
  6
CONTINUOUS
 62
     6
100
AcDbLine
 10
-7.823391
 20
283.43
 30
0.0
 11
-6.608391
 21
284.645
 31
0.0
  0
LINE
  5
285
100
AcDbEntity
  8
LAY-1
  6
CONTINUOUS
 62
     6
100
AcDbLine
 10
-12.376683
 20
278.735286
 30
0.0
 11
-10.918683
 21
280.193286
 31
0.0
  0
LINE
  5
286
100
AcDbEntity
  8
LAY-1
  6
CONTINUOUS
 62
     6
100
AcDbLine
 10
-10.719469
 20
280.3925
 30
0.0
 11
-9.504469
 21
281.6075
 31
0.0
  0
LINE
  5
287
100
AcDbEntity
  8
LAY-1
  6
CONTINUOUS
 62
     6
100
AcDbLine
 10
-7.681969
 20
283.43
 30
0.0
 11
-6.466969
 21
284.645
 31
0.0
  0
LINE
  5
288
100
AcDbEntity
  8
LAY-1
  6
CONTINUOUS
 62
     6
100
AcDbLine
 10
-12.376683
 20
278.593865
 30
0.0
 11
-10.918683
 21
280.051865
 31
0.0
  0
LINE
  5
289
100
AcDbEntity
  8
LAY-1
  6
CONTINUOUS
 62
     6
100
AcDbLine
 10
-10.578048
 20
280.3925
 30
0.0
 11
-9.363048
 21
281.6075
 31
0.0
  0
LINE
  5
28A
100
AcDbEntity
  8
LAY-1
  6
CONTINUOUS
 62
     6
100
AcDbLine
 10
-7.540548
 20
283.43
 30
0.0
 11
-6.325548
 21
284.645
 31
0.0
  0
LINE
  5
28B
100
AcDbEntity
  8
LAY-1
  6
CONTINUOUS
 62
     6
100
AcDbLine
 10
-12.376683
 20
278.452444
 30
0.0
 11
-10.918683
 21
279.910444
 31
0.0
  0
LINE
  5
28C
100
AcDbEntity
  8
LAY-1
  6
CONTINUOUS
 62
     6
100
AcDbLine
 10
-10.436627
 20
280.3925
 30
0.0
 11
-9.221627
 21
281.6075
 31
0.0
  0
LINE
  5
28D
100
AcDbEntity
  8
LAY-1
  6
CONTINUOUS
 62
     6
100
AcDbLine
 10
-7.399127
 20
283.43
 30
0.0
 11
-6.184127
 21
284.645
 31
0.0
  0
LINE
  5
28E
100
AcDbEntity
  8
LAY-1
  6
CONTINUOUS
 62
     6
100
AcDbLine
 10
-12.376683
 20
278.311022
 30
0.0
 11
-10.918683
 21
279.769022
 31
0.0
  0
LINE
  5
28F
100
AcDbEntity
  8
LAY-1
  6
CONTINUOUS
 62
     6
100
AcDbLine
 10
-10.295205
 20
280.3925
 30
0.0
 11
-9.080205
 21
281.6075
 31
0.0
  0
LINE
  5
290
100
AcDbEntity
  8
LAY-1
  6
CONTINUOUS
 62
     6
100
AcDbLine
 10
-7.257705
 20
283.43
 30
0.0
 11
-6.058683
 21
284.629022
 31
0.0
  0
LINE
  5
291
100
AcDbEntity
  8
LAY-1
  6
CONTINUOUS
 62
     6
100
AcDbLine
 10
-12.376683
 20
278.169601
 30
0.0
 11
-10.918683
 21
279.627601
 31
0.0
  0
LINE
  5
292
100
AcDbEntity
  8
LAY-1
  6
CONTINUOUS
 62
     6
100
AcDbLine
 10
-10.153784
 20
280.3925
 30
0.0
 11
-8.938784
 21
281.6075
 31
0.0
  0
LINE
  5
293
100
AcDbEntity
  8
LAY-1
  6
CONTINUOUS
 62
     6
100
AcDbLine
 10
-7.116284
 20
283.43
 30
0.0
 11
-6.058683
 21
284.487601
 31
0.0
  0
LINE
  5
294
100
AcDbEntity
  8
LAY-1
  6
CONTINUOUS
 62
     6
100
AcDbLine
 10
-12.376683
 20
278.02818
 30
0.0
 11
-10.918683
 21
279.48618
 31
0.0
  0
LINE
  5
295
100
AcDbEntity
  8
LAY-1
  6
CONTINUOUS
 62
     6
100
AcDbLine
 10
-10.012362
 20
280.3925
 30
0.0
 11
-8.797362
 21
281.6075
 31
0.0
  0
LINE
  5
296
100
AcDbEntity
  8
LAY-1
  6
CONTINUOUS
 62
     6
100
AcDbLine
 10
-6.974862
 20
283.43
 30
0.0
 11
-6.058683
 21
284.34618
 31
0.0
  0
LINE
  5
297
100
AcDbEntity
  8
LAY-1
  6
CONTINUOUS
 62
     6
100
AcDbLine
 10
-12.376683
 20
277.886758
 30
0.0
 11
-10.918683
 21
279.344758
 31
0.0
  0
LINE
  5
298
100
AcDbEntity
  8
LAY-1
  6
CONTINUOUS
 62
     6
100
AcDbLine
 10
-9.870941
 20
280.3925
 30
0.0
 11
-8.655941
 21
281.6075
 31
0.0
  0
LINE
  5
299
100
AcDbEntity
  8
LAY-1
  6
CONTINUOUS
 62
     6
100
AcDbLine
 10
-6.833441
 20
283.43
 30
0.0
 11
-6.058683
 21
284.204758
 31
0.0
  0
LINE
  5
29A
100
AcDbEntity
  8
LAY-1
  6
CONTINUOUS
 62
     6
100
AcDbLine
 10
-12.376683
 20
277.745337
 30
0.0
 11
-10.918683
 21
279.203337
 31
0.0
  0
LINE
  5
29B
100
AcDbEntity
  8
LAY-1
  6
CONTINUOUS
 62
     6
100
AcDbLine
 10
-9.72952
 20
280.3925
 30
0.0
 11
-8.51452
 21
281.6075
 31
0.0
  0
LINE
  5
29C
100
AcDbEntity
  8
LAY-1
  6
CONTINUOUS
 62
     6
100
AcDbLine
 10
-6.69202
 20
283.43
 30
0.0
 11
-6.058683
 21
284.063337
 31
0.0
  0
LINE
  5
29D
100
AcDbEntity
  8
LAY-1
  6
CONTINUOUS
 62
     6
100
AcDbLine
 10
-12.376683
 20
277.603916
 30
0.0
 11
-10.918683
 21
279.061916
 31
0.0
  0
LINE
  5
29E
100
AcDbEntity
  8
LAY-1
  6
CONTINUOUS
 62
     6
100
AcDbLine
 10
-9.588098
 20
280.3925
 30
0.0
 11
-8.373098
 21
281.6075
 31
0.0
  0
LINE
  5
29F
100
AcDbEntity
  8
LAY-1
  6
CONTINUOUS
 62
     6
100
AcDbLine
 10
-6.550598
 20
283.43
 30
0.0
 11
-6.058683
 21
283.921916
 31
0.0
  0
LINE
  5
2A0
100
AcDbEntity
  8
LAY-1
  6
CONTINUOUS
 62
     6
100
AcDbLine
 10
-12.376683
 20
277.462494
 30
0.0
 11
-10.918683
 21
278.920494
 31
0.0
  0
LINE
  5
2A1
100
AcDbEntity
  8
LAY-1
  6
CONTINUOUS
 62
     6
100
AcDbLine
 10
-9.446677
 20
280.3925
 30
0.0
 11
-8.231677
 21
281.6075
 31
0.0
  0
LINE
  5
2A2
100
AcDbEntity
  8
LAY-1
  6
CONTINUOUS
 62
     6
100
AcDbLine
 10
-6.409177
 20
283.43
 30
0.0
 11
-6.058683
 21
283.780494
 31
0.0
  0
LINE
  5
2A3
100
AcDbEntity
  8
LAY-1
  6
CONTINUOUS
 62
     6
100
AcDbLine
 10
-12.342756
 20
277.355
 30
0.0
 11
-10.918683
 21
278.779073
 31
0.0
  0
LINE
  5
2A4
100
AcDbEntity
  8
LAY-1
  6
CONTINUOUS
 62
     6
100
AcDbLine
 10
-9.305256
 20
280.3925
 30
0.0
 11
-8.090256
 21
281.6075
 31
0.0
  0
LINE
  5
2A5
100
AcDbEntity
  8
LAY-1
  6
CONTINUOUS
 62
     6
100
AcDbLine
 10
-6.267756
 20
283.43
 30
0.0
 11
-6.058683
 21
283.639073
 31
0.0
  0
LINE
  5
2A6
100
AcDbEntity
  8
LAY-1
  6
CONTINUOUS
 62
     6
100
AcDbLine
 10
-12.201334
 20
277.355
 30
0.0
 11
-10.918683
 21
278.637652
 31
0.0
  0
LINE
  5
2A7
100
AcDbEntity
  8
LAY-1
  6
CONTINUOUS
 62
     6
100
AcDbLine
 10
-9.163834
 20
280.3925
 30
0.0
 11
-7.948834
 21
281.6075
 31
0.0
  0
LINE
  5
2A8
100
AcDbEntity
  8
LAY-1
  6
CONTINUOUS
 62
     6
100
AcDbLine
 10
-6.126334
 20
283.43
 30
0.0
 11
-6.058683
 21
283.497652
 31
0.0
  0
LINE
  5
2A9
100
AcDbEntity
  8
LAY-1
  6
CONTINUOUS
 62
     6
100
AcDbLine
 10
-12.059913
 20
277.355
 30
0.0
 11
-10.844913
 21
278.57
 31
0.0
  0
LINE
  5
2AA
100
AcDbEntity
  8
LAY-1
  6
CONTINUOUS
 62
     6
100
AcDbLine
 10
-9.022413
 20
280.3925
 30
0.0
 11
-7.807413
 21
281.6075
 31
0.0
  0
LINE
  5
2AB
100
AcDbEntity
  8
LAY-1
  6
CONTINUOUS
 62
     6
100
AcDbLine
 10
-11.918492
 20
277.355
 30
0.0
 11
-10.703492
 21
278.57
 31
0.0
  0
LINE
  5
2AC
100
AcDbEntity
  8
LAY-1
  6
CONTINUOUS
 62
     6
100
AcDbLine
 10
-8.880992
 20
280.3925
 30
0.0
 11
-7.665992
 21
281.6075
 31
0.0
  0
LINE
  5
2AD
100
AcDbEntity
  8
LAY-1
  6
CONTINUOUS
 62
     6
100
AcDbLine
 10
-11.77707
 20
277.355
 30
0.0
 11
-10.56207
 21
278.57
 31
0.0
  0
LINE
  5
2AE
100
AcDbEntity
  8
LAY-1
  6
CONTINUOUS
 62
     6
100
AcDbLine
 10
-8.73957
 20
280.3925
 30
0.0
 11
-7.52457
 21
281.6075
 31
0.0
  0
LINE
  5
2AF
100
AcDbEntity
  8
LAY-1
  6
CONTINUOUS
 62
     6
100
AcDbLine
 10
-11.635649
 20
277.355
 30
0.0
 11
-10.420649
 21
278.57
 31
0.0
  0
LINE
  5
2B0
100
AcDbEntity
  8
LAY-1
  6
CONTINUOUS
 62
     6
100
AcDbLine
 10
-8.598149
 20
280.3925
 30
0.0
 11
-7.383149
 21
281.6075
 31
0.0
  0
LINE
  5
2B1
100
AcDbEntity
  8
LAY-1
  6
CONTINUOUS
 62
     6
100
AcDbLine
 10
-11.494228
 20
277.355
 30
0.0
 11
-10.279228
 21
278.57
 31
0.0
  0
LINE
  5
2B2
100
AcDbEntity
  8
LAY-1
  6
CONTINUOUS
 62
     6
100
AcDbLine
 10
-8.456728
 20
280.3925
 30
0.0
 11
-7.241728
 21
281.6075
 31
0.0
  0
LINE
  5
2B3
100
AcDbEntity
  8
LAY-1
  6
CONTINUOUS
 62
     6
100
AcDbLine
 10
-11.352806
 20
277.355
 30
0.0
 11
-10.137806
 21
278.57
 31
0.0
  0
LINE
  5
2B4
100
AcDbEntity
  8
LAY-1
  6
CONTINUOUS
 62
     6
100
AcDbLine
 10
-8.315306
 20
280.3925
 30
0.0
 11
-7.100306
 21
281.6075
 31
0.0
  0
LINE
  5
2B5
100
AcDbEntity
  8
LAY-1
  6
CONTINUOUS
 62
     6
100
AcDbLine
 10
-11.211385
 20
277.355
 30
0.0
 11
-9.996385
 21
278.57
 31
0.0
  0
LINE
  5
2B6
100
AcDbEntity
  8
LAY-1
  6
CONTINUOUS
 62
     6
100
AcDbLine
 10
-8.173885
 20
280.3925
 30
0.0
 11
-6.958885
 21
281.6075
 31
0.0
  0
LINE
  5
2B7
100
AcDbEntity
  8
LAY-1
  6
CONTINUOUS
 62
     6
100
AcDbLine
 10
-11.069963
 20
277.355
 30
0.0
 11
-9.854963
 21
278.57
 31
0.0
  0
LINE
  5
2B8
100
AcDbEntity
  8
LAY-1
  6
CONTINUOUS
 62
     6
100
AcDbLine
 10
-8.032463
 20
280.3925
 30
0.0
 11
-6.817463
 21
281.6075
 31
0.0
  0
LINE
  5
2B9
100
AcDbEntity
  8
LAY-1
  6
CONTINUOUS
 62
     6
100
AcDbLine
 10
-10.928542
 20
277.355
 30
0.0
 11
-9.713542
 21
278.57
 31
0.0
  0
LINE
  5
2BA
100
AcDbEntity
  8
LAY-1
  6
CONTINUOUS
 62
     6
100
AcDbLine
 10
-7.891042
 20
280.3925
 30
0.0
 11
-6.676042
 21
281.6075
 31
0.0
  0
LINE
  5
2BB
100
AcDbEntity
  8
LAY-1
  6
CONTINUOUS
 62
     6
100
AcDbLine
 10
-10.787121
 20
277.355
 30
0.0
 11
-9.572121
 21
278.57
 31
0.0
  0
LINE
  5
2BC
100
AcDbEntity
  8
LAY-1
  6
CONTINUOUS
 62
     6
100
AcDbLine
 10
-7.749621
 20
280.3925
 30
0.0
 11
-6.534621
 21
281.6075
 31
0.0
  0
LINE
  5
2BD
100
AcDbEntity
  8
LAY-1
  6
CONTINUOUS
 62
     6
100
AcDbLine
 10
-10.645699
 20
277.355
 30
0.0
 11
-9.430699
 21
278.57
 31
0.0
  0
LINE
  5
2BE
100
AcDbEntity
  8
LAY-1
  6
CONTINUOUS
 62
     6
100
AcDbLine
 10
-7.608199
 20
280.3925
 30
0.0
 11
-6.393199
 21
281.6075
 31
0.0
  0
LINE
  5
2BF
100
AcDbEntity
  8
LAY-1
  6
CONTINUOUS
 62
     6
100
AcDbLine
 10
-10.504278
 20
277.355
 30
0.0
 11
-9.289278
 21
278.57
 31
0.0
  0
LINE
  5
2C0
100
AcDbEntity
  8
LAY-1
  6
CONTINUOUS
 62
     6
100
AcDbLine
 10
-7.466778
 20
280.3925
 30
0.0
 11
-6.301683
 21
281.557595
 31
0.0
  0
LINE
  5
2C1
100
AcDbEntity
  8
LAY-1
  6
CONTINUOUS
 62
     6
100
AcDbLine
 10
-10.362857
 20
277.355
 30
0.0
 11
-9.147857
 21
278.57
 31
0.0
  0
LINE
  5
2C2
100
AcDbEntity
  8
LAY-1
  6
CONTINUOUS
 62
     6
100
AcDbLine
 10
-7.325357
 20
280.3925
 30
0.0
 11
-6.301683
 21
281.416174
 31
0.0
  0
LINE
  5
2C3
100
AcDbEntity
  8
LAY-1
  6
CONTINUOUS
 62
     6
100
AcDbLine
 10
-10.221435
 20
277.355
 30
0.0
 11
-9.006435
 21
278.57
 31
0.0
  0
LINE
  5
2C4
100
AcDbEntity
  8
LAY-1
  6
CONTINUOUS
 62
     6
100
AcDbLine
 10
-7.183935
 20
280.3925
 30
0.0
 11
-6.301683
 21
281.274753
 31
0.0
  0
LINE
  5
2C5
100
AcDbEntity
  8
LAY-1
  6
CONTINUOUS
 62
     6
100
AcDbLine
 10
-10.080014
 20
277.355
 30
0.0
 11
-8.865014
 21
278.57
 31
0.0
  0
LINE
  5
2C6
100
AcDbEntity
  8
LAY-1
  6
CONTINUOUS
 62
     6
100
AcDbLine
 10
-7.042514
 20
280.3925
 30
0.0
 11
-6.301683
 21
281.133331
 31
0.0
  0
LINE
  5
2C7
100
AcDbEntity
  8
LAY-1
  6
CONTINUOUS
 62
     6
100
AcDbLine
 10
-9.938593
 20
277.355
 30
0.0
 11
-8.723593
 21
278.57
 31
0.0
  0
LINE
  5
2C8
100
AcDbEntity
  8
LAY-1
  6
CONTINUOUS
 62
     6
100
AcDbLine
 10
-6.901093
 20
280.3925
 30
0.0
 11
-6.301683
 21
280.99191
 31
0.0
  0
LINE
  5
2C9
100
AcDbEntity
  8
LAY-1
  6
CONTINUOUS
 62
     6
100
AcDbLine
 10
-9.797171
 20
277.355
 30
0.0
 11
-8.582171
 21
278.57
 31
0.0
  0
LINE
  5
2CA
100
AcDbEntity
  8
LAY-1
  6
CONTINUOUS
 62
     6
100
AcDbLine
 10
-6.759671
 20
280.3925
 30
0.0
 11
-6.301683
 21
280.850488
 31
0.0
  0
LINE
  5
2CB
100
AcDbEntity
  8
LAY-1
  6
CONTINUOUS
 62
     6
100
AcDbLine
 10
-9.65575
 20
277.355
 30
0.0
 11
-8.44075
 21
278.57
 31
0.0
  0
LINE
  5
2CC
100
AcDbEntity
  8
LAY-1
  6
CONTINUOUS
 62
     6
100
AcDbLine
 10
-6.61825
 20
280.3925
 30
0.0
 11
-6.301683
 21
280.709067
 31
0.0
  0
LINE
  5
2CD
100
AcDbEntity
  8
LAY-1
  6
CONTINUOUS
 62
     6
100
AcDbLine
 10
-9.514329
 20
277.355
 30
0.0
 11
-8.299329
 21
278.57
 31
0.0
  0
LINE
  5
2CE
100
AcDbEntity
  8
LAY-1
  6
CONTINUOUS
 62
     6
100
AcDbLine
 10
-6.476829
 20
280.3925
 30
0.0
 11
-6.301683
 21
280.567646
 31
0.0
  0
LINE
  5
2CF
100
AcDbEntity
  8
LAY-1
  6
CONTINUOUS
 62
     6
100
AcDbLine
 10
-9.372907
 20
277.355
 30
0.0
 11
-8.157907
 21
278.57
 31
0.0
  0
LINE
  5
2D0
100
AcDbEntity
  8
LAY-1
  6
CONTINUOUS
 62
     6
100
AcDbLine
 10
-6.335407
 20
280.3925
 30
0.0
 11
-6.301683
 21
280.426224
 31
0.0
  0
LINE
  5
2D1
100
AcDbEntity
  8
LAY-1
  6
CONTINUOUS
 62
     6
100
AcDbLine
 10
-9.231486
 20
277.355
 30
0.0
 11
-8.016486
 21
278.57
 31
0.0
  0
LINE
  5
2D2
100
AcDbEntity
  8
LAY-1
  6
CONTINUOUS
 62
     6
100
AcDbLine
 10
-9.090065
 20
277.355
 30
0.0
 11
-7.875065
 21
278.57
 31
0.0
  0
LINE
  5
2D3
100
AcDbEntity
  8
LAY-1
  6
CONTINUOUS
 62
     6
100
AcDbLine
 10
-8.948643
 20
277.355
 30
0.0
 11
-7.733643
 21
278.57
 31
0.0
  0
LINE
  5
2D4
100
AcDbEntity
  8
LAY-1
  6
CONTINUOUS
 62
     6
100
AcDbLine
 10
-8.807222
 20
277.355
 30
0.0
 11
-7.592222
 21
278.57
 31
0.0
  0
LINE
  5
2D5
100
AcDbEntity
  8
LAY-1
  6
CONTINUOUS
 62
     6
100
AcDbLine
 10
-8.6658
 20
277.355
 30
0.0
 11
-7.4508
 21
278.57
 31
0.0
  0
LINE
  5
2D6
100
AcDbEntity
  8
LAY-1
  6
CONTINUOUS
 62
     6
100
AcDbLine
 10
-8.524379
 20
277.355
 30
0.0
 11
-7.309379
 21
278.57
 31
0.0
  0
LINE
  5
2D7
100
AcDbEntity
  8
LAY-1
  6
CONTINUOUS
 62
     6
100
AcDbLine
 10
-8.382958
 20
277.355
 30
0.0
 11
-7.167958
 21
278.57
 31
0.0
  0
LINE
  5
2D8
100
AcDbEntity
  8
LAY-1
  6
CONTINUOUS
 62
     6
100
AcDbLine
 10
-8.241536
 20
277.355
 30
0.0
 11
-7.026536
 21
278.57
 31
0.0
  0
LINE
  5
2D9
100
AcDbEntity
  8
LAY-1
  6
CONTINUOUS
 62
     6
100
AcDbLine
 10
-8.100115
 20
277.355
 30
0.0
 11
-6.885115
 21
278.57
 31
0.0
  0
LINE
  5
2DA
100
AcDbEntity
  8
LAY-1
  6
CONTINUOUS
 62
     6
100
AcDbLine
 10
-7.958694
 20
277.355
 30
0.0
 11
-6.743694
 21
278.57
 31
0.0
  0
LINE
  5
2DB
100
AcDbEntity
  8
LAY-1
  6
CONTINUOUS
 62
     6
100
AcDbLine
 10
-7.817272
 20
277.355
 30
0.0
 11
-6.602272
 21
278.57
 31
0.0
  0
LINE
  5
2DC
100
AcDbEntity
  8
LAY-1
  6
CONTINUOUS
 62
     6
100
AcDbLine
 10
-7.675851
 20
277.355
 30
0.0
 11
-6.460851
 21
278.57
 31
0.0
  0
LINE
  5
2DD
100
AcDbEntity
  8
LAY-1
  6
CONTINUOUS
 62
     6
100
AcDbLine
 10
-7.53443
 20
277.355
 30
0.0
 11
-6.31943
 21
278.57
 31
0.0
  0
LINE
  5
2DE
100
AcDbEntity
  8
LAY-1
  6
CONTINUOUS
 62
     6
100
AcDbLine
 10
-7.393008
 20
277.355
 30
0.0
 11
-6.178008
 21
278.57
 31
0.0
  0
LINE
  5
2DF
100
AcDbEntity
  8
LAY-1
  6
CONTINUOUS
 62
     6
100
AcDbLine
 10
-7.251587
 20
277.355
 30
0.0
 11
-6.058683
 21
278.547904
 31
0.0
  0
LINE
  5
2E0
100
AcDbEntity
  8
LAY-1
  6
CONTINUOUS
 62
     6
100
AcDbLine
 10
-7.110166
 20
277.355
 30
0.0
 11
-6.058683
 21
278.406483
 31
0.0
  0
LINE
  5
2E1
100
AcDbEntity
  8
LAY-1
  6
CONTINUOUS
 62
     6
100
AcDbLine
 10
-6.968744
 20
277.355
 30
0.0
 11
-6.058683
 21
278.265061
 31
0.0
  0
LINE
  5
2E2
100
AcDbEntity
  8
LAY-1
  6
CONTINUOUS
 62
     6
100
AcDbLine
 10
-6.827323
 20
277.355
 30
0.0
 11
-6.058683
 21
278.12364
 31
0.0
  0
LINE
  5
2E3
100
AcDbEntity
  8
LAY-1
  6
CONTINUOUS
 62
     6
100
AcDbLine
 10
-6.685901
 20
277.355
 30
0.0
 11
-6.058683
 21
277.982219
 31
0.0
  0
LINE
  5
2E4
100
AcDbEntity
  8
LAY-1
  6
CONTINUOUS
 62
     6
100
AcDbLine
 10
-6.54448
 20
277.355
 30
0.0
 11
-6.058683
 21
277.840797
 31
0.0
  0
LINE
  5
2E5
100
AcDbEntity
  8
LAY-1
  6
CONTINUOUS
 62
     6
100
AcDbLine
 10
-6.403059
 20
277.355
 30
0.0
 11
-6.058683
 21
277.699376
 31
0.0
  0
LINE
  5
2E6
100
AcDbEntity
  8
LAY-1
  6
CONTINUOUS
 62
     6
100
AcDbLine
 10
-6.261637
 20
277.355
 30
0.0
 11
-6.058683
 21
277.557955
 31
0.0
  0
LINE
  5
2E7
100
AcDbEntity
  8
LAY-1
  6
CONTINUOUS
 62
     6
100
AcDbLine
 10
-6.120216
 20
277.355
 30
0.0
 11
-6.058683
 21
277.416533
 31
0.0
  0
LINE
  5
2E8
100
AcDbEntity
  8
LAY-1
  6
CONTINUOUS
 62
     6
100
AcDbLine
 10
-5.208183
 20
284.509697
 30
0.0
 11
-5.07288
 21
284.645
 31
0.0
  0
LINE
  5
2E9
100
AcDbEntity
  8
LAY-1
  6
CONTINUOUS
 62
     6
100
AcDbLine
 10
-5.208183
 20
284.368276
 30
0.0
 11
-4.931458
 21
284.645
 31
0.0
  0
LINE
  5
2EA
100
AcDbEntity
  8
LAY-1
  6
CONTINUOUS
 62
     6
100
AcDbLine
 10
-5.208183
 20
284.226854
 30
0.0
 11
-4.790037
 21
284.645
 31
0.0
  0
LINE
  5
2EB
100
AcDbEntity
  8
LAY-1
  6
CONTINUOUS
 62
     6
100
AcDbLine
 10
-5.208183
 20
284.085433
 30
0.0
 11
-4.648616
 21
284.645
 31
0.0
  0
LINE
  5
2EC
100
AcDbEntity
  8
LAY-1
  6
CONTINUOUS
 62
     6
100
AcDbLine
 10
-5.208183
 20
283.944012
 30
0.0
 11
-4.507194
 21
284.645
 31
0.0
  0
LINE
  5
2ED
100
AcDbEntity
  8
LAY-1
  6
CONTINUOUS
 62
     6
100
AcDbLine
 10
-5.208183
 20
283.80259
 30
0.0
 11
-4.365773
 21
284.645
 31
0.0
  0
LINE
  5
2EE
100
AcDbEntity
  8
LAY-1
  6
CONTINUOUS
 62
     6
100
AcDbLine
 10
-5.208183
 20
283.661169
 30
0.0
 11
-4.224352
 21
284.645
 31
0.0
  0
LINE
  5
2EF
100
AcDbEntity
  8
LAY-1
  6
CONTINUOUS
 62
     6
100
AcDbLine
 10
-5.208183
 20
283.519747
 30
0.0
 11
-4.08293
 21
284.645
 31
0.0
  0
LINE
  5
2F0
100
AcDbEntity
  8
LAY-1
  6
CONTINUOUS
 62
     6
100
AcDbLine
 10
-5.208183
 20
283.378326
 30
0.0
 11
-3.971037
 21
284.615472
 31
0.0
  0
LINE
  5
2F1
100
AcDbEntity
  8
LAY-1
  6
CONTINUOUS
 62
     6
100
AcDbLine
 10
-5.208183
 20
283.236905
 30
0.0
 11
-3.910428
 21
284.53466
 31
0.0
  0
LINE
  5
2F2
100
AcDbEntity
  8
LAY-1
  6
CONTINUOUS
 62
     6
100
AcDbLine
 10
-5.208183
 20
283.095483
 30
0.0
 11
-3.849819
 21
284.453848
 31
0.0
  0
LINE
  5
2F3
100
AcDbEntity
  8
LAY-1
  6
CONTINUOUS
 62
     6
100
AcDbLine
 10
-5.208183
 20
282.954062
 30
0.0
 11
-3.789209
 21
284.373035
 31
0.0
  0
LINE
  5
2F4
100
AcDbEntity
  8
LAY-1
  6
CONTINUOUS
 62
     6
100
AcDbLine
 10
-5.208183
 20
282.812641
 30
0.0
 11
-3.7286
 21
284.292223
 31
0.0
  0
LINE
  5
2F5
100
AcDbEntity
  8
LAY-1
  6
CONTINUOUS
 62
     6
100
AcDbLine
 10
-5.208183
 20
282.671219
 30
0.0
 11
-3.667991
 21
284.211411
 31
0.0
  0
LINE
  5
2F6
100
AcDbEntity
  8
LAY-1
  6
CONTINUOUS
 62
     6
100
AcDbLine
 10
-5.208183
 20
282.529798
 30
0.0
 11
-3.607382
 21
284.130599
 31
0.0
  0
LINE
  5
2F7
100
AcDbEntity
  8
LAY-1
  6
CONTINUOUS
 62
     6
100
AcDbLine
 10
-5.208183
 20
282.388377
 30
0.0
 11
-3.546773
 21
284.049787
 31
0.0
  0
LINE
  5
2F8
100
AcDbEntity
  8
LAY-1
  6
CONTINUOUS
 62
     6
100
AcDbLine
 10
-5.208183
 20
282.246955
 30
0.0
 11
-3.486164
 21
283.968974
 31
0.0
  0
LINE
  5
2F9
100
AcDbEntity
  8
LAY-1
  6
CONTINUOUS
 62
     6
100
AcDbLine
 10
-5.208183
 20
282.105534
 30
0.0
 11
-3.425554
 21
283.888162
 31
0.0
  0
LINE
  5
2FA
100
AcDbEntity
  8
LAY-1
  6
CONTINUOUS
 62
     6
100
AcDbLine
 10
-5.208183
 20
281.964113
 30
0.0
 11
-3.364945
 21
283.80735
 31
0.0
  0
LINE
  5
2FB
100
AcDbEntity
  8
LAY-1
  6
CONTINUOUS
 62
     6
100
AcDbLine
 10
-5.208183
 20
281.822691
 30
0.0
 11
-3.304336
 21
283.726538
 31
0.0
  0
LINE
  5
2FC
100
AcDbEntity
  8
LAY-1
  6
CONTINUOUS
 62
     6
100
AcDbLine
 10
-5.208183
 20
281.68127
 30
0.0
 11
-3.243727
 21
283.645726
 31
0.0
  0
LINE
  5
2FD
100
AcDbEntity
  8
LAY-1
  6
CONTINUOUS
 62
     6
100
AcDbLine
 10
-5.208183
 20
281.539848
 30
0.0
 11
-3.183118
 21
283.564913
 31
0.0
  0
LINE
  5
2FE
100
AcDbEntity
  8
LAY-1
  6
CONTINUOUS
 62
     6
100
AcDbLine
 10
-5.208183
 20
281.398427
 30
0.0
 11
-3.122509
 21
283.484101
 31
0.0
  0
LINE
  5
2FF
100
AcDbEntity
  8
LAY-1
  6
CONTINUOUS
 62
     6
100
AcDbLine
 10
-5.208183
 20
281.257006
 30
0.0
 11
-3.0619
 21
283.403289
 31
0.0
  0
LINE
  5
300
100
AcDbEntity
  8
LAY-1
  6
CONTINUOUS
 62
     6
100
AcDbLine
 10
-5.208183
 20
281.115584
 30
0.0
 11
-3.00129
 21
283.322477
 31
0.0
  0
LINE
  5
301
100
AcDbEntity
  8
LAY-1
  6
CONTINUOUS
 62
     6
100
AcDbLine
 10
-5.208183
 20
280.974163
 30
0.0
 11
-3.993183
 21
282.189163
 31
0.0
  0
LINE
  5
302
100
AcDbEntity
  8
LAY-1
  6
CONTINUOUS
 62
     6
100
AcDbLine
 10
-3.98211
 20
282.200236
 30
0.0
 11
-2.940681
 21
283.241665
 31
0.0
  0
LINE
  5
303
100
AcDbEntity
  8
LAY-1
  6
CONTINUOUS
 62
     6
100
AcDbLine
 10
-5.208183
 20
280.832742
 30
0.0
 11
-3.993183
 21
282.047742
 31
0.0
  0
LINE
  5
304
100
AcDbEntity
  8
LAY-1
  6
CONTINUOUS
 62
     6
100
AcDbLine
 10
-3.921501
 20
282.119424
 30
0.0
 11
-2.880072
 21
283.160852
 31
0.0
  0
LINE
  5
305
100
AcDbEntity
  8
LAY-1
  6
CONTINUOUS
 62
     6
100
AcDbLine
 10
-5.208183
 20
280.69132
 30
0.0
 11
-3.993183
 21
281.90632
 31
0.0
  0
LINE
  5
306
100
AcDbEntity
  8
LAY-1
  6
CONTINUOUS
 62
     6
100
AcDbLine
 10
-3.860892
 20
282.038612
 30
0.0
 11
-2.819463
 21
283.08004
 31
0.0
  0
LINE
  5
307
100
AcDbEntity
  8
LAY-1
  6
CONTINUOUS
 62
     6
100
AcDbLine
 10
-5.208183
 20
280.549899
 30
0.0
 11
-3.993183
 21
281.764899
 31
0.0
  0
LINE
  5
308
100
AcDbEntity
  8
LAY-1
  6
CONTINUOUS
 62
     6
100
AcDbLine
 10
-3.800282
 20
281.957799
 30
0.0
 11
-2.758854
 21
282.999228
 31
0.0
  0
LINE
  5
309
100
AcDbEntity
  8
LAY-1
  6
CONTINUOUS
 62
     6
100
AcDbLine
 10
-5.208183
 20
280.408478
 30
0.0
 11
-3.993183
 21
281.623478
 31
0.0
  0
LINE
  5
30A
100
AcDbEntity
  8
LAY-1
  6
CONTINUOUS
 62
     6
100
AcDbLine
 10
-3.739673
 20
281.876987
 30
0.0
 11
-2.698245
 21
282.918416
 31
0.0
  0
LINE
  5
30B
100
AcDbEntity
  8
LAY-1
  6
CONTINUOUS
 62
     6
100
AcDbLine
 10
-5.208183
 20
280.267056
 30
0.0
 11
-3.993183
 21
281.482056
 31
0.0
  0
LINE
  5
30C
100
AcDbEntity
  8
LAY-1
  6
CONTINUOUS
 62
     6
100
AcDbLine
 10
-3.679064
 20
281.796175
 30
0.0
 11
-2.637636
 21
282.837604
 31
0.0
  0
LINE
  5
30D
100
AcDbEntity
  8
LAY-1
  6
CONTINUOUS
 62
     6
100
AcDbLine
 10
-5.208183
 20
280.125635
 30
0.0
 11
-3.993183
 21
281.340635
 31
0.0
  0
LINE
  5
30E
100
AcDbEntity
  8
LAY-1
  6
CONTINUOUS
 62
     6
100
AcDbLine
 10
-3.618455
 20
281.715363
 30
0.0
 11
-2.577026
 21
282.756791
 31
0.0
  0
LINE
  5
30F
100
AcDbEntity
  8
LAY-1
  6
CONTINUOUS
 62
     6
100
AcDbLine
 10
-5.208183
 20
279.984214
 30
0.0
 11
-3.993183
 21
281.199214
 31
0.0
  0
LINE
  5
310
100
AcDbEntity
  8
LAY-1
  6
CONTINUOUS
 62
     6
100
AcDbLine
 10
-3.557846
 20
281.634551
 30
0.0
 11
-2.516417
 21
282.675979
 31
0.0
  0
LINE
  5
311
100
AcDbEntity
  8
LAY-1
  6
CONTINUOUS
 62
     6
100
AcDbLine
 10
-5.208183
 20
279.842792
 30
0.0
 11
-3.993183
 21
281.057792
 31
0.0
  0
LINE
  5
312
100
AcDbEntity
  8
LAY-1
  6
CONTINUOUS
 62
     6
100
AcDbLine
 10
-3.497237
 20
281.553738
 30
0.0
 11
-2.455808
 21
282.595167
 31
0.0
  0
LINE
  5
313
100
AcDbEntity
  8
LAY-1
  6
CONTINUOUS
 62
     6
100
AcDbLine
 10
-5.208183
 20
279.701371
 30
0.0
 11
-3.993183
 21
280.916371
 31
0.0
  0
LINE
  5
314
100
AcDbEntity
  8
LAY-1
  6
CONTINUOUS
 62
     6
100
AcDbLine
 10
-3.436627
 20
281.472926
 30
0.0
 11
-2.395199
 21
282.514355
 31
0.0
  0
LINE
  5
315
100
AcDbEntity
  8
LAY-1
  6
CONTINUOUS
 62
     6
100
AcDbLine
 10
-0.348183
 20
284.561371
 30
0.0
 11
-0.264554
 21
284.645
 31
0.0
  0
LINE
  5
316
100
AcDbEntity
  8
LAY-1
  6
CONTINUOUS
 62
     6
100
AcDbLine
 10
-5.208183
 20
279.559949
 30
0.0
 11
-3.993183
 21
280.774949
 31
0.0
  0
LINE
  5
317
100
AcDbEntity
  8
LAY-1
  6
CONTINUOUS
 62
     6
100
AcDbLine
 10
-3.376018
 20
281.392114
 30
0.0
 11
-2.33459
 21
282.433543
 31
0.0
  0
LINE
  5
318
100
AcDbEntity
  8
LAY-1
  6
CONTINUOUS
 62
     6
100
AcDbLine
 10
-0.348183
 20
284.419949
 30
0.0
 11
-0.123132
 21
284.645
 31
0.0
  0
LINE
  5
319
100
AcDbEntity
  8
LAY-1
  6
CONTINUOUS
 62
     6
100
AcDbLine
 10
-5.208183
 20
279.418528
 30
0.0
 11
-3.993183
 21
280.633528
 31
0.0
  0
LINE
  5
31A
100
AcDbEntity
  8
LAY-1
  6
CONTINUOUS
 62
     6
100
AcDbLine
 10
-3.315409
 20
281.311302
 30
0.0
 11
-2.273981
 21
282.35273
 31
0.0
  0
LINE
  5
31B
100
AcDbEntity
  8
LAY-1
  6
CONTINUOUS
 62
     6
100
AcDbLine
 10
-0.348183
 20
284.278528
 30
0.0
 11
0.018289
 21
284.645
 31
0.0
  0
LINE
  5
31C
100
AcDbEntity
  8
LAY-1
  6
CONTINUOUS
 62
     6
100
AcDbLine
 10
-5.208183
 20
279.277107
 30
0.0
 11
-3.993183
 21
280.492107
 31
0.0
  0
LINE
  5
31D
100
AcDbEntity
  8
LAY-1
  6
CONTINUOUS
 62
     6
100
AcDbLine
 10
-3.2548
 20
281.23049
 30
0.0
 11
-2.213371
 21
282.271918
 31
0.0
  0
LINE
  5
31E
100
AcDbEntity
  8
LAY-1
  6
CONTINUOUS
 62
     6
100
AcDbLine
 10
-0.348183
 20
284.137107
 30
0.0
 11
0.15971
 21
284.645
 31
0.0
  0
LINE
  5
31F
100
AcDbEntity
  8
LAY-1
  6
CONTINUOUS
 62
     6
100
AcDbLine
 10
-5.208183
 20
279.135685
 30
0.0
 11
-3.993183
 21
280.350685
 31
0.0
  0
LINE
  5
320
100
AcDbEntity
  8
LAY-1
  6
CONTINUOUS
 62
     6
100
AcDbLine
 10
-3.194191
 20
281.149677
 30
0.0
 11
-2.152762
 21
282.191106
 31
0.0
  0
LINE
  5
321
100
AcDbEntity
  8
LAY-1
  6
CONTINUOUS
 62
     6
100
AcDbLine
 10
-0.348183
 20
283.995685
 30
0.0
 11
0.301132
 21
284.645
 31
0.0
  0
LINE
  5
322
100
AcDbEntity
  8
LAY-1
  6
CONTINUOUS
 62
     6
100
AcDbLine
 10
-5.208183
 20
278.994264
 30
0.0
 11
-3.993183
 21
280.209264
 31
0.0
  0
LINE
  5
323
100
AcDbEntity
  8
LAY-1
  6
CONTINUOUS
 62
     6
100
AcDbLine
 10
-3.133582
 20
281.068865
 30
0.0
 11
-2.092153
 21
282.110294
 31
0.0
  0
LINE
  5
324
100
AcDbEntity
  8
LAY-1
  6
CONTINUOUS
 62
     6
100
AcDbLine
 10
-0.348183
 20
283.854264
 30
0.0
 11
0.442553
 21
284.645
 31
0.0
  0
LINE
  5
325
100
AcDbEntity
  8
LAY-1
  6
CONTINUOUS
 62
     6
100
AcDbLine
 10
-5.208183
 20
278.852843
 30
0.0
 11
-3.993183
 21
280.067843
 31
0.0
  0
LINE
  5
326
100
AcDbEntity
  8
LAY-1
  6
CONTINUOUS
 62
     6
100
AcDbLine
 10
-3.072973
 20
280.988053
 30
0.0
 11
-2.031544
 21
282.029482
 31
0.0
  0
LINE
  5
327
100
AcDbEntity
  8
LAY-1
  6
CONTINUOUS
 62
     6
100
AcDbLine
 10
-0.348183
 20
283.712843
 30
0.0
 11
0.583974
 21
284.645
 31
0.0
  0
LINE
  5
328
100
AcDbEntity
  8
LAY-1
  6
CONTINUOUS
 62
     6
100
AcDbLine
 10
-5.208183
 20
278.711421
 30
0.0
 11
-3.993183
 21
279.926421
 31
0.0
  0
LINE
  5
329
100
AcDbEntity
  8
LAY-1
  6
CONTINUOUS
 62
     6
100
AcDbLine
 10
-3.012363
 20
280.907241
 30
0.0
 11
-1.970935
 21
281.948669
 31
0.0
  0
LINE
  5
32A
100
AcDbEntity
  8
LAY-1
  6
CONTINUOUS
 62
     6
100
AcDbLine
 10
-0.348183
 20
283.571421
 30
0.0
 11
0.725396
 21
284.645
 31
0.0
  0
LINE
  5
32B
100
AcDbEntity
  8
LAY-1
  6
CONTINUOUS
 62
     6
100
AcDbLine
 10
-5.208183
 20
278.57
 30
0.0
 11
-3.993183
 21
279.785
 31
0.0
  0
LINE
  5
32C
100
AcDbEntity
  8
LAY-1
  6
CONTINUOUS
 62
     6
100
AcDbLine
 10
-2.951754
 20
280.826429
 30
0.0
 11
-1.910326
 21
281.867857
 31
0.0
  0
LINE
  5
32D
100
AcDbEntity
  8
LAY-1
  6
CONTINUOUS
 62
     6
100
AcDbLine
 10
-0.348183
 20
283.43
 30
0.0
 11
0.866817
 21
284.645
 31
0.0
  0
LINE
  5
32E
100
AcDbEntity
  8
LAY-1
  6
CONTINUOUS
 62
     6
100
AcDbLine
 10
-5.208183
 20
278.428579
 30
0.0
 11
-3.993183
 21
279.643579
 31
0.0
  0
LINE
  5
32F
100
AcDbEntity
  8
LAY-1
  6
CONTINUOUS
 62
     6
100
AcDbLine
 10
-2.891145
 20
280.745616
 30
0.0
 11
-1.849717
 21
281.787045
 31
0.0
  0
LINE
  5
330
100
AcDbEntity
  8
LAY-1
  6
CONTINUOUS
 62
     6
100
AcDbLine
 10
-0.348183
 20
283.288579
 30
0.0
 11
0.866817
 21
284.503579
 31
0.0
  0
LINE
  5
331
100
AcDbEntity
  8
LAY-1
  6
CONTINUOUS
 62
     6
100
AcDbLine
 10
-5.208183
 20
278.287157
 30
0.0
 11
-3.993183
 21
279.502157
 31
0.0
  0
LINE
  5
332
100
AcDbEntity
  8
LAY-1
  6
CONTINUOUS
 62
     6
100
AcDbLine
 10
-2.830536
 20
280.664804
 30
0.0
 11
-1.789107
 21
281.706233
 31
0.0
  0
LINE
  5
333
100
AcDbEntity
  8
LAY-1
  6
CONTINUOUS
 62
     6
100
AcDbLine
 10
-0.348183
 20
283.147157
 30
0.0
 11
0.866817
 21
284.362157
 31
0.0
  0
LINE
  5
334
100
AcDbEntity
  8
LAY-1
  6
CONTINUOUS
 62
     6
100
AcDbLine
 10
-5.208183
 20
278.145736
 30
0.0
 11
-3.993183
 21
279.360736
 31
0.0
  0
LINE
  5
335
100
AcDbEntity
  8
LAY-1
  6
CONTINUOUS
 62
     6
100
AcDbLine
 10
-2.769927
 20
280.583992
 30
0.0
 11
-1.728498
 21
281.625421
 31
0.0
  0
LINE
  5
336
100
AcDbEntity
  8
LAY-1
  6
CONTINUOUS
 62
     6
100
AcDbLine
 10
-0.348183
 20
283.005736
 30
0.0
 11
0.866817
 21
284.220736
 31
0.0
  0
LINE
  5
337
100
AcDbEntity
  8
LAY-1
  6
CONTINUOUS
 62
     6
100
AcDbLine
 10
-5.208183
 20
278.004315
 30
0.0
 11
-3.993183
 21
279.219315
 31
0.0
  0
LINE
  5
338
100
AcDbEntity
  8
LAY-1
  6
CONTINUOUS
 62
     6
100
AcDbLine
 10
-2.709318
 20
280.50318
 30
0.0
 11
-1.667889
 21
281.544608
 31
0.0
  0
LINE
  5
339
100
AcDbEntity
  8
LAY-1
  6
CONTINUOUS
 62
     6
100
AcDbLine
 10
-0.348183
 20
282.864315
 30
0.0
 11
0.866817
 21
284.079315
 31
0.0
  0
LINE
  5
33A
100
AcDbEntity
  8
LAY-1
  6
CONTINUOUS
 62
     6
100
AcDbLine
 10
-5.208183
 20
277.862893
 30
0.0
 11
-3.993183
 21
279.077893
 31
0.0
  0
LINE
  5
33B
100
AcDbEntity
  8
LAY-1
  6
CONTINUOUS
 62
     6
100
AcDbLine
 10
-2.648708
 20
280.422368
 30
0.0
 11
-1.60728
 21
281.463796
 31
0.0
  0
LINE
  5
33C
100
AcDbEntity
  8
LAY-1
  6
CONTINUOUS
 62
     6
100
AcDbLine
 10
-0.348183
 20
282.722893
 30
0.0
 11
0.866817
 21
283.937893
 31
0.0
  0
LINE
  5
33D
100
AcDbEntity
  8
LAY-1
  6
CONTINUOUS
 62
     6
100
AcDbLine
 10
-5.208183
 20
277.721472
 30
0.0
 11
-3.993183
 21
278.936472
 31
0.0
  0
LINE
  5
33E
100
AcDbEntity
  8
LAY-1
  6
CONTINUOUS
 62
     6
100
AcDbLine
 10
-2.588099
 20
280.341555
 30
0.0
 11
-1.546671
 21
281.382984
 31
0.0
  0
LINE
  5
33F
100
AcDbEntity
  8
LAY-1
  6
CONTINUOUS
 62
     6
100
AcDbLine
 10
-0.348183
 20
282.581472
 30
0.0
 11
0.866817
 21
283.796472
 31
0.0
  0
LINE
  5
340
100
AcDbEntity
  8
LAY-1
  6
CONTINUOUS
 62
     6
100
AcDbLine
 10
-5.208183
 20
277.580051
 30
0.0
 11
-3.993183
 21
278.795051
 31
0.0
  0
LINE
  5
341
100
AcDbEntity
  8
LAY-1
  6
CONTINUOUS
 62
     6
100
AcDbLine
 10
-2.52749
 20
280.260743
 30
0.0
 11
-1.486062
 21
281.302172
 31
0.0
  0
LINE
  5
342
100
AcDbEntity
  8
LAY-1
  6
CONTINUOUS
 62
     6
100
AcDbLine
 10
-0.348183
 20
282.440051
 30
0.0
 11
0.866817
 21
283.655051
 31
0.0
  0
LINE
  5
343
100
AcDbEntity
  8
LAY-1
  6
CONTINUOUS
 62
     6
100
AcDbLine
 10
-5.208183
 20
277.438629
 30
0.0
 11
-3.993183
 21
278.653629
 31
0.0
  0
LINE
  5
344
100
AcDbEntity
  8
LAY-1
  6
CONTINUOUS
 62
     6
100
AcDbLine
 10
-2.466881
 20
280.179931
 30
0.0
 11
-1.425452
 21
281.22136
 31
0.0
  0
LINE
  5
345
100
AcDbEntity
  8
LAY-1
  6
CONTINUOUS
 62
     6
100
AcDbLine
 10
-0.348183
 20
282.298629
 30
0.0
 11
0.866817
 21
283.513629
 31
0.0
  0
LINE
  5
346
100
AcDbEntity
  8
LAY-1
  6
CONTINUOUS
 62
     6
100
AcDbLine
 10
-5.150391
 20
277.355
 30
0.0
 11
-3.993183
 21
278.512208
 31
0.0
  0
LINE
  5
347
100
AcDbEntity
  8
LAY-1
  6
CONTINUOUS
 62
     6
100
AcDbLine
 10
-2.406272
 20
280.099119
 30
0.0
 11
-1.364843
 21
281.140547
 31
0.0
  0
LINE
  5
348
100
AcDbEntity
  8
LAY-1
  6
CONTINUOUS
 62
     6
100
AcDbLine
 10
-0.348183
 20
282.157208
 30
0.0
 11
0.866817
 21
283.372208
 31
0.0
  0
LINE
  5
349
100
AcDbEntity
  8
LAY-1
  6
CONTINUOUS
 62
     6
100
AcDbLine
 10
-5.008969
 20
277.355
 30
0.0
 11
-3.993183
 21
278.370786
 31
0.0
  0
LINE
  5
34A
100
AcDbEntity
  8
LAY-1
  6
CONTINUOUS
 62
     6
100
AcDbLine
 10
-2.345663
 20
280.018307
 30
0.0
 11
-1.304234
 21
281.059735
 31
0.0
  0
LINE
  5
34B
100
AcDbEntity
  8
LAY-1
  6
CONTINUOUS
 62
     6
100
AcDbLine
 10
-0.348183
 20
282.015786
 30
0.0
 11
0.866817
 21
283.230786
 31
0.0
  0
LINE
  5
34C
100
AcDbEntity
  8
LAY-1
  6
CONTINUOUS
 62
     6
100
AcDbLine
 10
-4.867548
 20
277.355
 30
0.0
 11
-3.993183
 21
278.229365
 31
0.0
  0
LINE
  5
34D
100
AcDbEntity
  8
LAY-1
  6
CONTINUOUS
 62
     6
100
AcDbLine
 10
-2.285054
 20
279.937494
 30
0.0
 11
-1.243625
 21
280.978923
 31
0.0
  0
LINE
  5
34E
100
AcDbEntity
  8
LAY-1
  6
CONTINUOUS
 62
     6
100
AcDbLine
 10
-0.348183
 20
281.874365
 30
0.0
 11
0.866817
 21
283.089365
 31
0.0
  0
LINE
  5
34F
100
AcDbEntity
  8
LAY-1
  6
CONTINUOUS
 62
     6
100
AcDbLine
 10
-4.726127
 20
277.355
 30
0.0
 11
-3.993183
 21
278.087944
 31
0.0
  0
LINE
  5
350
100
AcDbEntity
  8
LAY-1
  6
CONTINUOUS
 62
     6
100
AcDbLine
 10
-2.224444
 20
279.856682
 30
0.0
 11
-1.183016
 21
280.898111
 31
0.0
  0
LINE
  5
351
100
AcDbEntity
  8
LAY-1
  6
CONTINUOUS
 62
     6
100
AcDbLine
 10
-0.348183
 20
281.732944
 30
0.0
 11
0.866817
 21
282.947944
 31
0.0
  0
LINE
  5
352
100
AcDbEntity
  8
LAY-1
  6
CONTINUOUS
 62
     6
100
AcDbLine
 10
-4.584705
 20
277.355
 30
0.0
 11
-3.993183
 21
277.946522
 31
0.0
  0
LINE
  5
353
100
AcDbEntity
  8
LAY-1
  6
CONTINUOUS
 62
     6
100
AcDbLine
 10
-2.163835
 20
279.77587
 30
0.0
 11
-1.122407
 21
280.817298
 31
0.0
  0
LINE
  5
354
100
AcDbEntity
  8
LAY-1
  6
CONTINUOUS
 62
     6
100
AcDbLine
 10
-0.348183
 20
281.591522
 30
0.0
 11
0.866817
 21
282.806522
 31
0.0
  0
LINE
  5
355
100
AcDbEntity
  8
LAY-1
  6
CONTINUOUS
 62
     6
100
AcDbLine
 10
-4.443284
 20
277.355
 30
0.0
 11
-3.993183
 21
277.805101
 31
0.0
  0
LINE
  5
356
100
AcDbEntity
  8
LAY-1
  6
CONTINUOUS
 62
     6
100
AcDbLine
 10
-2.103226
 20
279.695058
 30
0.0
 11
-1.061798
 21
280.736486
 31
0.0
  0
LINE
  5
357
100
AcDbEntity
  8
LAY-1
  6
CONTINUOUS
 62
     6
100
AcDbLine
 10
-0.348183
 20
281.450101
 30
0.0
 11
0.866817
 21
282.665101
 31
0.0
  0
LINE
  5
358
100
AcDbEntity
  8
LAY-1
  6
CONTINUOUS
 62
     6
100
AcDbLine
 10
-4.301862
 20
277.355
 30
0.0
 11
-3.993183
 21
277.66368
 31
0.0
  0
LINE
  5
359
100
AcDbEntity
  8
LAY-1
  6
CONTINUOUS
 62
     6
100
AcDbLine
 10
-2.042617
 20
279.614246
 30
0.0
 11
-1.001188
 21
280.655674
 31
0.0
  0
LINE
  5
35A
100
AcDbEntity
  8
LAY-1
  6
CONTINUOUS
 62
     6
100
AcDbLine
 10
-0.348183
 20
281.30868
 30
0.0
 11
0.866817
 21
282.52368
 31
0.0
  0
LINE
  5
35B
100
AcDbEntity
  8
LAY-1
  6
CONTINUOUS
 62
     6
100
AcDbLine
 10
-4.160441
 20
277.355
 30
0.0
 11
-3.993183
 21
277.522258
 31
0.0
  0
LINE
  5
35C
100
AcDbEntity
  8
LAY-1
  6
CONTINUOUS
 62
     6
100
AcDbLine
 10
-1.982008
 20
279.533433
 30
0.0
 11
-0.940579
 21
280.574862
 31
0.0
  0
LINE
  5
35D
100
AcDbEntity
  8
LAY-1
  6
CONTINUOUS
 62
     6
100
AcDbLine
 10
-0.348183
 20
281.167258
 30
0.0
 11
0.866817
 21
282.382258
 31
0.0
  0
LINE
  5
35E
100
AcDbEntity
  8
LAY-1
  6
CONTINUOUS
 62
     6
100
AcDbLine
 10
-4.01902
 20
277.355
 30
0.0
 11
-3.993183
 21
277.380837
 31
0.0
  0
LINE
  5
35F
100
AcDbEntity
  8
LAY-1
  6
CONTINUOUS
 62
     6
100
AcDbLine
 10
-1.921399
 20
279.452621
 30
0.0
 11
-0.87997
 21
280.49405
 31
0.0
  0
LINE
  5
360
100
AcDbEntity
  8
LAY-1
  6
CONTINUOUS
 62
     6
100
AcDbLine
 10
-0.348183
 20
281.025837
 30
0.0
 11
0.866817
 21
282.240837
 31
0.0
  0
LINE
  5
361
100
AcDbEntity
  8
LAY-1
  6
CONTINUOUS
 62
     6
100
AcDbLine
 10
-1.86079
 20
279.371809
 30
0.0
 11
-0.819361
 21
280.413237
 31
0.0
  0
LINE
  5
362
100
AcDbEntity
  8
LAY-1
  6
CONTINUOUS
 62
     6
100
AcDbLine
 10
-0.348183
 20
280.884416
 30
0.0
 11
0.866817
 21
282.099416
 31
0.0
  0
LINE
  5
363
100
AcDbEntity
  8
LAY-1
  6
CONTINUOUS
 62
     6
100
AcDbLine
 10
-1.80018
 20
279.290997
 30
0.0
 11
-0.758752
 21
280.332425
 31
0.0
  0
LINE
  5
364
100
AcDbEntity
  8
LAY-1
  6
CONTINUOUS
 62
     6
100
AcDbLine
 10
-0.348183
 20
280.742994
 30
0.0
 11
0.866817
 21
281.957994
 31
0.0
  0
LINE
  5
365
100
AcDbEntity
  8
LAY-1
  6
CONTINUOUS
 62
     6
100
AcDbLine
 10
-1.739571
 20
279.210185
 30
0.0
 11
-0.698143
 21
280.251613
 31
0.0
  0
LINE
  5
366
100
AcDbEntity
  8
LAY-1
  6
CONTINUOUS
 62
     6
100
AcDbLine
 10
-0.348183
 20
280.601573
 30
0.0
 11
0.866817
 21
281.816573
 31
0.0
  0
LINE
  5
367
100
AcDbEntity
  8
LAY-1
  6
CONTINUOUS
 62
     6
100
AcDbLine
 10
-1.678962
 20
279.129372
 30
0.0
 11
-0.637533
 21
280.170801
 31
0.0
  0
LINE
  5
368
100
AcDbEntity
  8
LAY-1
  6
CONTINUOUS
 62
     6
100
AcDbLine
 10
-0.348183
 20
280.460152
 30
0.0
 11
0.866817
 21
281.675152
 31
0.0
  0
LINE
  5
369
100
AcDbEntity
  8
LAY-1
  6
CONTINUOUS
 62
     6
100
AcDbLine
 10
-1.618353
 20
279.04856
 30
0.0
 11
-0.576924
 21
280.089989
 31
0.0
  0
LINE
  5
36A
100
AcDbEntity
  8
LAY-1
  6
CONTINUOUS
 62
     6
100
AcDbLine
 10
-0.348183
 20
280.31873
 30
0.0
 11
0.866817
 21
281.53373
 31
0.0
  0
LINE
  5
36B
100
AcDbEntity
  8
LAY-1
  6
CONTINUOUS
 62
     6
100
AcDbLine
 10
-1.557744
 20
278.967748
 30
0.0
 11
-0.516315
 21
280.009176
 31
0.0
  0
LINE
  5
36C
100
AcDbEntity
  8
LAY-1
  6
CONTINUOUS
 62
     6
100
AcDbLine
 10
-0.348183
 20
280.177309
 30
0.0
 11
0.866817
 21
281.392309
 31
0.0
  0
LINE
  5
36D
100
AcDbEntity
  8
LAY-1
  6
CONTINUOUS
 62
     6
100
AcDbLine
 10
-1.497135
 20
278.886936
 30
0.0
 11
-0.455706
 21
279.928364
 31
0.0
  0
LINE
  5
36E
100
AcDbEntity
  8
LAY-1
  6
CONTINUOUS
 62
     6
100
AcDbLine
 10
-0.348183
 20
280.035887
 30
0.0
 11
0.866817
 21
281.250887
 31
0.0
  0
LINE
  5
36F
100
AcDbEntity
  8
LAY-1
  6
CONTINUOUS
 62
     6
100
AcDbLine
 10
-1.436525
 20
278.806123
 30
0.0
 11
-0.395097
 21
279.847552
 31
0.0
  0
LINE
  5
370
100
AcDbEntity
  8
LAY-1
  6
CONTINUOUS
 62
     6
100
AcDbLine
 10
-0.348183
 20
279.894466
 30
0.0
 11
0.866817
 21
281.109466
 31
0.0
  0
LINE
  5
371
100
AcDbEntity
  8
LAY-1
  6
CONTINUOUS
 62
     6
100
AcDbLine
 10
-1.375916
 20
278.725311
 30
0.0
 11
0.866817
 21
280.968045
 31
0.0
  0
LINE
  5
372
100
AcDbEntity
  8
LAY-1
  6
CONTINUOUS
 62
     6
100
AcDbLine
 10
-1.315307
 20
278.644499
 30
0.0
 11
0.866817
 21
280.826623
 31
0.0
  0
LINE
  5
373
100
AcDbEntity
  8
LAY-1
  6
CONTINUOUS
 62
     6
100
AcDbLine
 10
-1.254698
 20
278.563687
 30
0.0
 11
0.866817
 21
280.685202
 31
0.0
  0
LINE
  5
374
100
AcDbEntity
  8
LAY-1
  6
CONTINUOUS
 62
     6
100
AcDbLine
 10
-1.194089
 20
278.482875
 30
0.0
 11
0.866817
 21
280.543781
 31
0.0
  0
LINE
  5
375
100
AcDbEntity
  8
LAY-1
  6
CONTINUOUS
 62
     6
100
AcDbLine
 10
-1.13348
 20
278.402062
 30
0.0
 11
0.866817
 21
280.402359
 31
0.0
  0
LINE
  5
376
100
AcDbEntity
  8
LAY-1
  6
CONTINUOUS
 62
     6
100
AcDbLine
 10
-1.072871
 20
278.32125
 30
0.0
 11
0.866817
 21
280.260938
 31
0.0
  0
LINE
  5
377
100
AcDbEntity
  8
LAY-1
  6
CONTINUOUS
 62
     6
100
AcDbLine
 10
-1.012261
 20
278.240438
 30
0.0
 11
0.866817
 21
280.119517
 31
0.0
  0
LINE
  5
378
100
AcDbEntity
  8
LAY-1
  6
CONTINUOUS
 62
     6
100
AcDbLine
 10
-0.951652
 20
278.159626
 30
0.0
 11
0.866817
 21
279.978095
 31
0.0
  0
LINE
  5
379
100
AcDbEntity
  8
LAY-1
  6
CONTINUOUS
 62
     6
100
AcDbLine
 10
-0.891043
 20
278.078814
 30
0.0
 11
0.866817
 21
279.836674
 31
0.0
  0
LINE
  5
37A
100
AcDbEntity
  8
LAY-1
  6
CONTINUOUS
 62
     6
100
AcDbLine
 10
-0.830434
 20
277.998001
 30
0.0
 11
0.866817
 21
279.695253
 31
0.0
  0
LINE
  5
37B
100
AcDbEntity
  8
LAY-1
  6
CONTINUOUS
 62
     6
100
AcDbLine
 10
-0.769825
 20
277.917189
 30
0.0
 11
0.866817
 21
279.553831
 31
0.0
  0
LINE
  5
37C
100
AcDbEntity
  8
LAY-1
  6
CONTINUOUS
 62
     6
100
AcDbLine
 10
-0.709216
 20
277.836377
 30
0.0
 11
0.866817
 21
279.41241
 31
0.0
  0
LINE
  5
37D
100
AcDbEntity
  8
LAY-1
  6
CONTINUOUS
 62
     6
100
AcDbLine
 10
-0.648606
 20
277.755565
 30
0.0
 11
0.866817
 21
279.270988
 31
0.0
  0
LINE
  5
37E
100
AcDbEntity
  8
LAY-1
  6
CONTINUOUS
 62
     6
100
AcDbLine
 10
-0.587997
 20
277.674753
 30
0.0
 11
0.866817
 21
279.129567
 31
0.0
  0
LINE
  5
37F
100
AcDbEntity
  8
LAY-1
  6
CONTINUOUS
 62
     6
100
AcDbLine
 10
-0.527388
 20
277.59394
 30
0.0
 11
0.866817
 21
278.988146
 31
0.0
  0
LINE
  5
380
100
AcDbEntity
  8
LAY-1
  6
CONTINUOUS
 62
     6
100
AcDbLine
 10
-0.466779
 20
277.513128
 30
0.0
 11
0.866817
 21
278.846724
 31
0.0
  0
LINE
  5
381
100
AcDbEntity
  8
LAY-1
  6
CONTINUOUS
 62
     6
100
AcDbLine
 10
-0.40617
 20
277.432316
 30
0.0
 11
0.866817
 21
278.705303
 31
0.0
  0
LINE
  5
382
100
AcDbEntity
  8
LAY-1
  6
CONTINUOUS
 62
     6
100
AcDbLine
 10
-0.342065
 20
277.355
 30
0.0
 11
0.866817
 21
278.563882
 31
0.0
  0
LINE
  5
383
100
AcDbEntity
  8
LAY-1
  6
CONTINUOUS
 62
     6
100
AcDbLine
 10
-0.200643
 20
277.355
 30
0.0
 11
0.866817
 21
278.42246
 31
0.0
  0
LINE
  5
384
100
AcDbEntity
  8
LAY-1
  6
CONTINUOUS
 62
     6
100
AcDbLine
 10
-0.059222
 20
277.355
 30
0.0
 11
0.866817
 21
278.281039
 31
0.0
  0
LINE
  5
385
100
AcDbEntity
  8
LAY-1
  6
CONTINUOUS
 62
     6
100
AcDbLine
 10
0.0822
 20
277.355
 30
0.0
 11
0.866817
 21
278.139618
 31
0.0
  0
LINE
  5
386
100
AcDbEntity
  8
LAY-1
  6
CONTINUOUS
 62
     6
100
AcDbLine
 10
0.223621
 20
277.355
 30
0.0
 11
0.866817
 21
277.998196
 31
0.0
  0
LINE
  5
387
100
AcDbEntity
  8
LAY-1
  6
CONTINUOUS
 62
     6
100
AcDbLine
 10
0.365042
 20
277.355
 30
0.0
 11
0.866817
 21
277.856775
 31
0.0
  0
LINE
  5
388
100
AcDbEntity
  8
LAY-1
  6
CONTINUOUS
 62
     6
100
AcDbLine
 10
0.506464
 20
277.355
 30
0.0
 11
0.866817
 21
277.715354
 31
0.0
  0
LINE
  5
389
100
AcDbEntity
  8
LAY-1
  6
CONTINUOUS
 62
     6
100
AcDbLine
 10
0.647885
 20
277.355
 30
0.0
 11
0.866817
 21
277.573932
 31
0.0
  0
LINE
  5
38A
100
AcDbEntity
  8
LAY-1
  6
CONTINUOUS
 62
     6
100
AcDbLine
 10
0.789306
 20
277.355
 30
0.0
 11
0.866817
 21
277.432511
 31
0.0
  0
CIRCLE
  5
38B
100
AcDbEntity
  8
LAY-1
  6
CONTINUOUS
 62
     2
100
AcDbCircle
 10
-23.433183
 20
281.0
 30
0.0
 40
2.156625
  0
POLYLINE
  5
38C
100
AcDbEntity
  8
LAY-1
  6
CONTINUOUS
 62
     7
100
AcDb2dPolyline
 66
     1
 10
0.0
 20
0.0
 30
0.0
 70
   128
  0
VERTEX
  5
38D
100
AcDbEntity
  8
LAY-1
  6
CONTINUOUS
 62
     7
100
AcDbVertex
100
AcDb2dVertex
 10
-36.5
 20
281.0
 30
0.0
  0
VERTEX
  5
38E
100
AcDbEntity
  8
LAY-1
  6
CONTINUOUS
 62
     7
100
AcDbVertex
100
AcDb2dVertex
 10
-214.0
 20
281.0
 30
0.0
  0
VERTEX
  5
38F
100
AcDbEntity
  8
LAY-1
  6
CONTINUOUS
 62
     7
100
AcDbVertex
100
AcDb2dVertex
 10
-214.0
 20
16.0
 30
0.0
  0
VERTEX
  5
390
100
AcDbEntity
  8
LAY-1
  6
CONTINUOUS
 62
     7
100
AcDbVertex
100
AcDb2dVertex
 10
180.0
 20
16.0
 30
0.0
  0
VERTEX
  5
391
100
AcDbEntity
  8
LAY-1
  6
CONTINUOUS
 62
     7
100
AcDbVertex
100
AcDb2dVertex
 10
180.0
 20
281.0
 30
0.0
  0
VERTEX
  5
392
100
AcDbEntity
  8
LAY-1
  6
CONTINUOUS
 62
     7
100
AcDbVertex
100
AcDb2dVertex
 10
2.5
 20
281.0
 30
0.0
  0
SEQEND
  5
393
100
AcDbEntity
  8
LAY-1
  6
CONTINUOUS
 62
     7
  0
LINE
  5
394
100
AcDbEntity
  8
LAY-1
  6
CONTINUOUS
 62
     7
100
AcDbLine
 10
-214.0
 20
261.0
 30
0.0
 11
180.0
 21
261.0
 31
0.0
  0
POLYLINE
  5
395
100
AcDbEntity
  8
LAY-1
  6
CONTINUOUS
 62
     4
100
AcDb2dPolyline
 66
     1
 10
0.0
 20
0.0
 30
0.0
 70
   128
  0
VERTEX
  5
396
100
AcDbEntity
  8
LAY-1
  6
CONTINUOUS
 62
     4
100
AcDbVertex
100
AcDb2dVertex
 10
-214.0
 20
261.0
 30
0.0
  0
VERTEX
  5
397
100
AcDbEntity
  8
LAY-1
  6
CONTINUOUS
 62
     4
100
AcDbVertex
100
AcDb2dVertex
 10
-184.0
 20
261.0
 30
0.0
  0
VERTEX
  5
398
100
AcDbEntity
  8
LAY-1
  6
CONTINUOUS
 62
     4
100
AcDbVertex
100
AcDb2dVertex
 10
-184.0
 20
251.0
 30
0.0
  0
VERTEX
  5
399
100
AcDbEntity
  8
LAY-1
  6
CONTINUOUS
 62
     4
100
AcDbVertex
100
AcDb2dVertex
 10
-214.0
 20
251.0
 30
0.0
  0
VERTEX
  5
39A
100
AcDbEntity
  8
LAY-1
  6
CONTINUOUS
 62
     4
100
AcDbVertex
100
AcDb2dVertex
 10
-214.0
 20
261.0
 30
0.0
  0
SEQEND
  5
39B
100
AcDbEntity
  8
LAY-1
  6
CONTINUOUS
 62
     4
  0
POLYLINE
  5
39C
100
AcDbEntity
  8
LAY-1
  6
CONTINUOUS
 62
     4
100
AcDb2dPolyline
 66
     1
 10
0.0
 20
0.0
 30
0.0
 70
   128
  0
VERTEX
  5
39D
100
AcDbEntity
  8
LAY-1
  6
CONTINUOUS
 62
     4
100
AcDbVertex
100
AcDb2dVertex
 10
-82.666667
 20
261.0
 30
0.0
  0
VERTEX
  5
39E
100
AcDbEntity
  8
LAY-1
  6
CONTINUOUS
 62
     4
100
AcDbVertex
100
AcDb2dVertex
 10
-52.666667
 20
261.0
 30
0.0
  0
VERTEX
  5
39F
100
AcDbEntity
  8
LAY-1
  6
CONTINUOUS
 62
     4
100
AcDbVertex
100
AcDb2dVertex
 10
-52.666667
 20
251.0
 30
0.0
  0
VERTEX
  5
3A0
100
AcDbEntity
  8
LAY-1
  6
CONTINUOUS
 62
     4
100
AcDbVertex
100
AcDb2dVertex
 10
-82.666667
 20
251.0
 30
0.0
  0
VERTEX
  5
3A1
100
AcDbEntity
  8
LAY-1
  6
CONTINUOUS
 62
     4
100
AcDbVertex
100
AcDb2dVertex
 10
-82.666667
 20
261.0
 30
0.0
  0
SEQEND
  5
3A2
100
AcDbEntity
  8
LAY-1
  6
CONTINUOUS
 62
     4
  0
POLYLINE
  5
3A3
100
AcDbEntity
  8
LAY-1
  6
CONTINUOUS
 62
     4
100
AcDb2dPolyline
 66
     1
 10
0.0
 20
0.0
 30
0.0
 70
   128
  0
VERTEX
  5
3A4
100
AcDbEntity
  8
LAY-1
  6
CONTINUOUS
 62
     4
100
AcDbVertex
100
AcDb2dVertex
 10
48.666667
 20
261.0
 30
0.0
  0
VERTEX
  5
3A5
100
AcDbEntity
  8
LAY-1
  6
CONTINUOUS
 62
     4
100
AcDbVertex
100
AcDb2dVertex
 10
78.666667
 20
261.0
 30
0.0
  0
VERTEX
  5
3A6
100
AcDbEntity
  8
LAY-1
  6
CONTINUOUS
 62
     4
100
AcDbVertex
100
AcDb2dVertex
 10
78.666667
 20
251.0
 30
0.0
  0
VERTEX
  5
3A7
100
AcDbEntity
  8
LAY-1
  6
CONTINUOUS
 62
     4
100
AcDbVertex
100
AcDb2dVertex
 10
48.666667
 20
251.0
 30
0.0
  0
VERTEX
  5
3A8
100
AcDbEntity
  8
LAY-1
  6
CONTINUOUS
 62
     4
100
AcDbVertex
100
AcDb2dVertex
 10
48.666667
 20
261.0
 30
0.0
  0
SEQEND
  5
3A9
100
AcDbEntity
  8
LAY-1
  6
CONTINUOUS
 62
     4
  0
TEXT
  5
3AB
100
AcDbEntity
  8
LAY-1
  6
CONTINUOUS
 62
     7
100
AcDbText
 10
-52.0
 20
266.0
 30
0.0
 40
7.5
  1
耐震ジョイント
  7
EXCADTTF1
 72
     5
 11
18.0
 21
266.0
 31
0.0
100
AcDbText
  0
TEXT
  5
3AC
100
AcDbEntity
  8
LAY-1
  6
CONTINUOUS
 62
     7
100
AcDbText
 10
-209.5
 20
252.5
 30
0.0
 40
5.25
  1
５０Ａ
  7
EXCADTTF1
 72
     5
 11
-188.5
 21
252.5
 31
0.0
100
AcDbText
  0
TEXT
  5
3AD
100
AcDbEntity
  8
LAY-1
  6
CONTINUOUS
 62
     7
100
AcDbText
 10
-78.166667
 20
252.5
 30
0.0
 40
5.25
  1
６５Ａ
  7
EXCADTTF1
 72
     5
 11
-57.166667
 21
252.5
 31
0.0
100
AcDbText
  0
TEXT
  5
3AE
100
AcDbEntity
  8
LAY-1
  6
CONTINUOUS
 62
     7
100
AcDbText
 10
53.166667
 20
252.5
 30
0.0
 40
5.25
  1
８０Ａ
  7
EXCADTTF1
 72
     5
 11
74.166667
 21
252.5
 31
0.0
100
AcDbText
  0
TEXT
  5
3AF
100
AcDbEntity
  8
LAY-1
  6
CONTINUOUS
 62
     7
100
AcDbText
 10
153.4
 20
263.2
 30
0.0
 40
3.375
  1
Ｓ＝１／５
 41
0.888889
  7
EXCADTTF1
 72
     5
 11
173.9
 21
263.2
 31
0.0
100
AcDbText
  0
LINE
  5
3B0
100
AcDbEntity
  8
LAY-1
  6
CONTINUOUS
 62
     7
100
AcDbLine
 10
-214.0
 20
191.0
 30
0.0
 11
180.0
 21
191.0
 31
0.0
  0
POLYLINE
  5
3B1
100
AcDbEntity
  8
LAY-1
  6
CONTINUOUS
 62
     4
100
AcDb2dPolyline
 66
     1
 10
0.0
 20
0.0
 30
0.0
 70
   128
  0
VERTEX
  5
3B2
100
AcDbEntity
  8
LAY-1
  6
CONTINUOUS
 62
     4
100
AcDbVertex
100
AcDb2dVertex
 10
-214.0
 20
191.0
 30
0.0
  0
VERTEX
  5
3B3
100
AcDbEntity
  8
LAY-1
  6
CONTINUOUS
 62
     4
100
AcDbVertex
100
AcDb2dVertex
 10
-184.0
 20
191.0
 30
0.0
  0
VERTEX
  5
3B4
100
AcDbEntity
  8
LAY-1
  6
CONTINUOUS
 62
     4
100
AcDbVertex
100
AcDb2dVertex
 10
-184.0
 20
181.0
 30
0.0
  0
VERTEX
  5
3B5
100
AcDbEntity
  8
LAY-1
  6
CONTINUOUS
 62
     4
100
AcDbVertex
100
AcDb2dVertex
 10
-214.0
 20
181.0
 30
0.0
  0
VERTEX
  5
3B6
100
AcDbEntity
  8
LAY-1
  6
CONTINUOUS
 62
     4
100
AcDbVertex
100
AcDb2dVertex
 10
-214.0
 20
191.0
 30
0.0
  0
SEQEND
  5
3B7
100
AcDbEntity
  8
LAY-1
  6
CONTINUOUS
 62
     4
  0
TEXT
  5
3B8
100
AcDbEntity
  8
LAY-1
  6
CONTINUOUS
 62
     7
100
AcDbText
 10
-213.0
 20
182.5
 30
0.0
 40
5.25
  1
１００Ａ
  7
EXCADTTF1
 72
     5
 11
-185.0
 21
182.5
 31
0.0
100
AcDbText
  0
POLYLINE
  5
3B9
100
AcDbEntity
  8
LAY-1
  6
CONTINUOUS
 62
     4
100
AcDb2dPolyline
 66
     1
 10
0.0
 20
0.0
 30
0.0
 70
   128
  0
VERTEX
  5
3BA
100
AcDbEntity
  8
LAY-1
  6
CONTINUOUS
 62
     4
100
AcDbVertex
100
AcDb2dVertex
 10
-17.0
 20
191.0
 30
0.0
  0
VERTEX
  5
3BB
100
AcDbEntity
  8
LAY-1
  6
CONTINUOUS
 62
     4
100
AcDbVertex
100
AcDb2dVertex
 10
13.0
 20
191.0
 30
0.0
  0
VERTEX
  5
3BC
100
AcDbEntity
  8
LAY-1
  6
CONTINUOUS
 62
     4
100
AcDbVertex
100
AcDb2dVertex
 10
13.0
 20
181.0
 30
0.0
  0
VERTEX
  5
3BD
100
AcDbEntity
  8
LAY-1
  6
CONTINUOUS
 62
     4
100
AcDbVertex
100
AcDb2dVertex
 10
-17.0
 20
181.0
 30
0.0
  0
VERTEX
  5
3BE
100
AcDbEntity
  8
LAY-1
  6
CONTINUOUS
 62
     4
100
AcDbVertex
100
AcDb2dVertex
 10
-17.0
 20
191.0
 30
0.0
  0
SEQEND
  5
3BF
100
AcDbEntity
  8
LAY-1
  6
CONTINUOUS
 62
     4
  0
TEXT
  5
3C0
100
AcDbEntity
  8
LAY-1
  6
CONTINUOUS
 62
     7
100
AcDbText
 10
-16.0
 20
182.5
 30
0.0
 40
5.25
  1
１２５Ａ
  7
EXCADTTF1
 72
     5
 11
12.0
 21
182.5
 31
0.0
100
AcDbText
  0
LINE
  5
3C1
100
AcDbEntity
  8
LAY-1
  6
CONTINUOUS
 62
     7
100
AcDbLine
 10
-214.0
 20
103.5
 30
0.0
 11
180.0
 21
103.5
 31
0.0
  0
POLYLINE
  5
3C2
100
AcDbEntity
  8
LAY-1
  6
CONTINUOUS
 62
     4
100
AcDb2dPolyline
 66
     1
 10
0.0
 20
0.0
 30
0.0
 70
   128
  0
VERTEX
  5
3C3
100
AcDbEntity
  8
LAY-1
  6
CONTINUOUS
 62
     4
100
AcDbVertex
100
AcDb2dVertex
 10
-214.0
 20
103.5
 30
0.0
  0
VERTEX
  5
3C4
100
AcDbEntity
  8
LAY-1
  6
CONTINUOUS
 62
     4
100
AcDbVertex
100
AcDb2dVertex
 10
-184.0
 20
103.5
 30
0.0
  0
VERTEX
  5
3C5
100
AcDbEntity
  8
LAY-1
  6
CONTINUOUS
 62
     4
100
AcDbVertex
100
AcDb2dVertex
 10
-184.0
 20
93.5
 30
0.0
  0
VERTEX
  5
3C6
100
AcDbEntity
  8
LAY-1
  6
CONTINUOUS
 62
     4
100
AcDbVertex
100
AcDb2dVertex
 10
-214.0
 20
93.5
 30
0.0
  0
VERTEX
  5
3C7
100
AcDbEntity
  8
LAY-1
  6
CONTINUOUS
 62
     4
100
AcDbVertex
100
AcDb2dVertex
 10
-214.0
 20
103.5
 30
0.0
  0
SEQEND
  5
3C8
100
AcDbEntity
  8
LAY-1
  6
CONTINUOUS
 62
     4
  0
TEXT
  5
3C9
100
AcDbEntity
  8
LAY-1
  6
CONTINUOUS
 62
     7
100
AcDbText
 10
-213.0
 20
95.0
 30
0.0
 40
5.25
  1
１５０Ａ
  7
EXCADTTF1
 72
     5
 11
-185.0
 21
95.0
 31
0.0
100
AcDbText
  0
LINE
  5
3CA
100
AcDbEntity
  8
LAY-1
  6
CONTINUOUS
 62
     7
100
AcDbLine
 10
-82.666667
 20
261.0
 30
0.0
 11
-82.666667
 21
191.0
 31
0.0
  0
LINE
  5
3CB
100
AcDbEntity
  8
LAY-1
  6
CONTINUOUS
 62
     7
100
AcDbLine
 10
48.666667
 20
261.0
 30
0.0
 11
48.666667
 21
191.0
 31
0.0
  0
LINE
  5
3CC
100
AcDbEntity
  8
LAY-1
  6
EXLTYPE1
 62
     1
100
AcDbLine
 10
-148.333333
 20
261.0
 30
0.0
 11
-148.333333
 21
191.0
 31
0.0
  0
LINE
  5
3CD
100
AcDbEntity
  8
LAY-1
  6
CONTINUOUS
 62
     7
100
AcDbLine
 10
-17.0
 20
191.0
 30
0.0
 11
-17.0
 21
103.5
 31
0.0
  0
LINE
  5
3CE
100
AcDbEntity
  8
LAY-1
  6
EXLTYPE1
 62
     1
100
AcDbLine
 10
-214.0
 20
221.0
 30
0.0
 11
180.0
 21
221.0
 31
0.0
  0
LINE
  5
3CF
100
AcDbEntity
  8
LAY-1
  6
EXLTYPE1
 62
     1
100
AcDbLine
 10
-115.5
 20
103.5
 30
0.0
 11
-115.5
 21
191.0
 31
0.0
  0
LINE
  5
3D0
100
AcDbEntity
  8
LAY-1
  6
EXLTYPE1
 62
     1
100
AcDbLine
 10
-214.0
 20
142.25
 30
0.0
 11
180.0
 21
142.25
 31
0.0
  0
LINE
  5
3D1
100
AcDbEntity
  8
LAY-1
  6
EXLTYPE1
 62
     1
100
AcDbLine
 10
-214.0
 20
54.75
 30
0.0
 11
180.0
 21
54.75
 31
0.0
  0
LINE
  5
3D2
100
AcDbEntity
  8
LAY-1
  6
EXLTYPE1
 62
     1
100
AcDbLine
 10
-17.0
 20
103.5
 30
0.0
 11
-17.0
 21
16.0
 31
0.0
  0
LINE
  5
3D3
100
AcDbEntity
  8
LAY-1
  6
EXLTYPE1
 62
     1
100
AcDbLine
 10
-17.0
 20
261.0
 30
0.0
 11
-17.0
 21
191.0
 31
0.0
  0
LINE
  5
3D4
100
AcDbEntity
  8
LAY-1
  6
EXLTYPE1
 62
     1
100
AcDbLine
 10
114.333333
 20
261.0
 30
0.0
 11
114.333333
 21
191.0
 31
0.0
  0
LINE
  5
3D5
100
AcDbEntity
  8
LAY-1
  6
EXLTYPE1
 62
     1
100
AcDbLine
 10
81.5
 20
103.5
 30
0.0
 11
81.5
 21
191.0
 31
0.0
  0
LINE
  5
3D6
100
AcDbEntity
  8
LAY-2
  6
CONTINUOUS
 62
     3
100
AcDbLine
 10
-183.333333
 20
230.0
 30
0.0
 11
-183.333333
 21
212.0
 31
0.0
  0
LINE
  5
3D7
100
AcDbEntity
  8
LAY-2
  6
CONTINUOUS
 62
     3
100
AcDbLine
 10
-183.333333
 20
230.0
 30
0.0
 11
-172.333333
 21
230.0
 31
0.0
  0
ARC
  5
3D8
100
AcDbEntity
  8
LAY-2
  6
CONTINUOUS
 62
     3
100
AcDbCircle
 10
-172.333333
 20
229.0
 30
0.0
 40
1.0
100
AcDbArc
 50
0.0
 51
90.0
  0
LINE
  5
3D9
100
AcDbEntity
  8
LAY-2
  6
CONTINUOUS
 62
     3
100
AcDbLine
 10
-183.333333
 20
212.0
 30
0.0
 11
-172.333333
 21
212.0
 31
0.0
  0
ARC
  5
3DA
100
AcDbEntity
  8
LAY-2
  6
CONTINUOUS
 62
     3
100
AcDbCircle
 10
-172.333333
 20
213.0
 30
0.0
 40
1.0
100
AcDbArc
 50
270.0
 51
0.0
  0
LINE
  5
3DB
100
AcDbEntity
  8
LAY-2
  6
CONTINUOUS
 62
     3
100
AcDbLine
 10
-171.333333
 20
229.0
 30
0.0
 11
-171.333333
 21
228.0
 31
0.0
  0
ARC
  5
3DC
100
AcDbEntity
  8
LAY-2
  6
CONTINUOUS
 62
     3
100
AcDbCircle
 10
-170.833333
 20
228.0
 30
0.0
 40
0.5
100
AcDbArc
 50
180.0
 51
270.0
  0
ARC
  5
3DD
100
AcDbEntity
  8
LAY-2
  6
CONTINUOUS
 62
     3
100
AcDbCircle
 10
-170.833333
 20
214.0
 30
0.0
 40
0.5
100
AcDbArc
 50
90.0
 51
180.0
  0
LINE
  5
3DE
100
AcDbEntity
  8
LAY-2
  6
CONTINUOUS
 62
     3
100
AcDbLine
 10
-171.333333
 20
227.5
 30
0.0
 11
-171.333333
 21
214.5
 31
0.0
  0
LINE
  5
3DF
100
AcDbEntity
  8
LAY-2
  6
CONTINUOUS
 62
     3
100
AcDbLine
 10
-171.333333
 20
214.0
 30
0.0
 11
-171.333333
 21
213.0
 31
0.0
  0
LINE
  5
3E0
100
AcDbEntity
  8
LAY-2
  6
CONTINUOUS
 62
     3
100
AcDbLine
 10
-113.333333
 20
230.0
 30
0.0
 11
-113.333333
 21
212.0
 31
0.0
  0
LINE
  5
3E1
100
AcDbEntity
  8
LAY-2
  6
CONTINUOUS
 62
     3
100
AcDbLine
 10
-113.333333
 20
230.0
 30
0.0
 11
-124.333333
 21
230.0
 31
0.0
  0
ARC
  5
3E2
100
AcDbEntity
  8
LAY-2
  6
CONTINUOUS
 62
     3
100
AcDbCircle
 10
-124.333333
 20
229.0
 30
0.0
 40
1.0
100
AcDbArc
 50
90.0
 51
180.0
  0
LINE
  5
3E3
100
AcDbEntity
  8
LAY-2
  6
CONTINUOUS
 62
     3
100
AcDbLine
 10
-113.333333
 20
212.0
 30
0.0
 11
-124.333333
 21
212.0
 31
0.0
  0
ARC
  5
3E4
100
AcDbEntity
  8
LAY-2
  6
CONTINUOUS
 62
     3
100
AcDbCircle
 10
-124.333333
 20
213.0
 30
0.0
 40
1.0
100
AcDbArc
 50
180.0
 51
270.0
  0
LINE
  5
3E5
100
AcDbEntity
  8
LAY-2
  6
CONTINUOUS
 62
     3
100
AcDbLine
 10
-125.333333
 20
229.0
 30
0.0
 11
-125.333333
 21
228.0
 31
0.0
  0
ARC
  5
3E6
100
AcDbEntity
  8
LAY-2
  6
CONTINUOUS
 62
     3
100
AcDbCircle
 10
-125.833333
 20
228.0
 30
0.0
 40
0.5
100
AcDbArc
 50
270.0
 51
0.0
  0
ARC
  5
3E7
100
AcDbEntity
  8
LAY-2
  6
CONTINUOUS
 62
     3
100
AcDbCircle
 10
-125.833333
 20
214.0
 30
0.0
 40
0.5
100
AcDbArc
 50
0.0
 51
90.0
  0
LINE
  5
3E8
100
AcDbEntity
  8
LAY-2
  6
CONTINUOUS
 62
     3
100
AcDbLine
 10
-125.333333
 20
227.5
 30
0.0
 11
-125.333333
 21
214.5
 31
0.0
  0
LINE
  5
3E9
100
AcDbEntity
  8
LAY-2
  6
CONTINUOUS
 62
     3
100
AcDbLine
 10
-125.333333
 20
214.0
 30
0.0
 11
-125.333333
 21
213.0
 31
0.0
  0
LINE
  5
3EA
100
AcDbEntity
  8
LAY-2
  6
CONTINUOUS
 62
     3
100
AcDbLine
 10
-170.833333
 20
227.5
 30
0.0
 11
-125.833333
 21
227.5
 31
0.0
  0
LINE
  5
3EB
100
AcDbEntity
  8
LAY-2
  6
CONTINUOUS
 62
     3
100
AcDbLine
 10
-170.833333
 20
214.5
 30
0.0
 11
-125.833333
 21
214.5
 31
0.0
  0
LINE
  5
3EC
100
AcDbEntity
  8
LAY-2
  6
CONTINUOUS
 62
     3
100
AcDbLine
 10
20.0
 20
231.4
 30
0.0
 11
7.0
 21
231.4
 31
0.0
  0
ARC
  5
3ED
100
AcDbEntity
  8
LAY-2
  6
CONTINUOUS
 62
     3
100
AcDbCircle
 10
7.0
 20
230.4
 30
0.0
 40
1.0
100
AcDbArc
 50
90.0
 51
180.0
  0
LINE
  5
3EE
100
AcDbEntity
  8
LAY-2
  6
CONTINUOUS
 62
     3
100
AcDbLine
 10
20.0
 20
210.6
 30
0.0
 11
7.0
 21
210.6
 31
0.0
  0
ARC
  5
3EF
100
AcDbEntity
  8
LAY-2
  6
CONTINUOUS
 62
     3
100
AcDbCircle
 10
7.0
 20
211.6
 30
0.0
 40
1.0
100
AcDbArc
 50
180.0
 51
270.0
  0
LINE
  5
3F0
100
AcDbEntity
  8
LAY-2
  6
CONTINUOUS
 62
     3
100
AcDbLine
 10
20.0
 20
231.4
 30
0.0
 11
20.0
 21
210.6
 31
0.0
  0
LINE
  5
3F1
100
AcDbEntity
  8
LAY-2
  6
CONTINUOUS
 62
     3
100
AcDbLine
 10
-54.0
 20
231.4
 30
0.0
 11
-41.0
 21
231.4
 31
0.0
  0
ARC
  5
3F2
100
AcDbEntity
  8
LAY-2
  6
CONTINUOUS
 62
     3
100
AcDbCircle
 10
-41.0
 20
230.4
 30
0.0
 40
1.0
100
AcDbArc
 50
0.0
 51
90.0
  0
LINE
  5
3F3
100
AcDbEntity
  8
LAY-2
  6
CONTINUOUS
 62
     3
100
AcDbLine
 10
-54.0
 20
210.6
 30
0.0
 11
-41.0
 21
210.6
 31
0.0
  0
ARC
  5
3F4
100
AcDbEntity
  8
LAY-2
  6
CONTINUOUS
 62
     3
100
AcDbCircle
 10
-41.0
 20
211.6
 30
0.0
 40
1.0
100
AcDbArc
 50
270.0
 51
0.0
  0
LINE
  5
3F5
100
AcDbEntity
  8
LAY-2
  6
CONTINUOUS
 62
     3
100
AcDbLine
 10
-54.0
 20
231.4
 30
0.0
 11
-54.0
 21
210.6
 31
0.0
  0
LINE
  5
3F6
100
AcDbEntity
  8
LAY-2
  6
CONTINUOUS
 62
     3
100
AcDbLine
 10
162.333333
 20
232.6
 30
0.0
 11
148.333333
 21
232.6
 31
0.0
  0
ARC
  5
3F7
100
AcDbEntity
  8
LAY-2
  6
CONTINUOUS
 62
     3
100
AcDbCircle
 10
148.333333
 20
231.6
 30
0.0
 40
1.0
100
AcDbArc
 50
90.0
 51
180.0
  0
LINE
  5
3F8
100
AcDbEntity
  8
LAY-2
  6
CONTINUOUS
 62
     3
100
AcDbLine
 10
66.333333
 20
232.6
 30
0.0
 11
80.333333
 21
232.6
 31
0.0
  0
ARC
  5
3F9
100
AcDbEntity
  8
LAY-2
  6
CONTINUOUS
 62
     3
100
AcDbCircle
 10
80.333333
 20
231.6
 30
0.0
 40
1.0
100
AcDbArc
 50
0.0
 51
90.0
  0
LINE
  5
3FA
100
AcDbEntity
  8
LAY-2
  6
CONTINUOUS
 62
     3
100
AcDbLine
 10
162.333333
 20
209.4
 30
0.0
 11
148.333333
 21
209.4
 31
0.0
  0
ARC
  5
3FB
100
AcDbEntity
  8
LAY-2
  6
CONTINUOUS
 62
     3
100
AcDbCircle
 10
148.333333
 20
210.4
 30
0.0
 40
1.0
100
AcDbArc
 50
180.0
 51
270.0
  0
LINE
  5
3FC
100
AcDbEntity
  8
LAY-2
  6
CONTINUOUS
 62
     3
100
AcDbLine
 10
66.333333
 20
209.4
 30
0.0
 11
80.333333
 21
209.4
 31
0.0
  0
ARC
  5
3FD
100
AcDbEntity
  8
LAY-2
  6
CONTINUOUS
 62
     3
100
AcDbCircle
 10
80.333333
 20
210.4
 30
0.0
 40
1.0
100
AcDbArc
 50
270.0
 51
0.0
  0
LINE
  5
3FE
100
AcDbEntity
  8
LAY-2
  6
CONTINUOUS
 62
     3
100
AcDbLine
 10
162.333333
 20
232.6
 30
0.0
 11
162.333333
 21
209.4
 31
0.0
  0
LINE
  5
3FF
100
AcDbEntity
  8
LAY-2
  6
CONTINUOUS
 62
     3
100
AcDbLine
 10
66.333333
 20
232.6
 30
0.0
 11
66.333333
 21
209.4
 31
0.0
  0
LINE
  5
400
100
AcDbEntity
  8
LAY-2
  6
CONTINUOUS
 62
     3
100
AcDbLine
 10
-175.5
 20
156.75
 30
0.0
 11
-175.5
 21
127.75
 31
0.0
  0
LINE
  5
401
100
AcDbEntity
  8
LAY-2
  6
CONTINUOUS
 62
     3
100
AcDbLine
 10
-55.5
 20
156.75
 30
0.0
 11
-55.5
 21
127.75
 31
0.0
  0
LINE
  5
402
100
AcDbEntity
  8
LAY-2
  6
CONTINUOUS
 62
     3
100
AcDbLine
 10
-55.5
 20
156.75
 30
0.0
 11
-71.5
 21
156.75
 31
0.0
  0
ARC
  5
403
100
AcDbEntity
  8
LAY-2
  6
CONTINUOUS
 62
     3
100
AcDbCircle
 10
-71.5
 20
155.75
 30
0.0
 40
1.0
100
AcDbArc
 50
90.0
 51
180.0
  0
LINE
  5
404
100
AcDbEntity
  8
LAY-2
  6
CONTINUOUS
 62
     3
100
AcDbLine
 10
-72.5
 20
155.75
 30
0.0
 11
-72.5
 21
154.75
 31
0.0
  0
ARC
  5
405
100
AcDbEntity
  8
LAY-2
  6
CONTINUOUS
 62
     3
100
AcDbCircle
 10
-73.0
 20
154.75
 30
0.0
 40
0.5
100
AcDbArc
 50
270.0
 51
0.0
  0
LINE
  5
406
100
AcDbEntity
  8
LAY-2
  6
CONTINUOUS
 62
     3
100
AcDbLine
 10
-55.5
 20
127.75
 30
0.0
 11
-71.5
 21
127.75
 31
0.0
  0
ARC
  5
407
100
AcDbEntity
  8
LAY-2
  6
CONTINUOUS
 62
     3
100
AcDbCircle
 10
-71.5
 20
128.75
 30
0.0
 40
1.0
100
AcDbArc
 50
180.0
 51
270.0
  0
ARC
  5
408
100
AcDbEntity
  8
LAY-2
  6
CONTINUOUS
 62
     3
100
AcDbCircle
 10
-73.0
 20
129.75
 30
0.0
 40
0.5
100
AcDbArc
 50
0.0
 51
90.0
  0
LINE
  5
409
100
AcDbEntity
  8
LAY-2
  6
CONTINUOUS
 62
     3
100
AcDbLine
 10
-72.5
 20
129.75
 30
0.0
 11
-72.5
 21
128.75
 31
0.0
  0
LINE
  5
40A
100
AcDbEntity
  8
LAY-2
  6
CONTINUOUS
 62
     3
100
AcDbLine
 10
-72.5
 20
154.25
 30
0.0
 11
-72.5
 21
130.25
 31
0.0
  0
LINE
  5
40B
100
AcDbEntity
  8
LAY-2
  6
CONTINUOUS
 62
     3
100
AcDbLine
 10
-175.5
 20
156.75
 30
0.0
 11
-159.5
 21
156.75
 31
0.0
  0
ARC
  5
40C
100
AcDbEntity
  8
LAY-2
  6
CONTINUOUS
 62
     3
100
AcDbCircle
 10
-159.5
 20
155.75
 30
0.0
 40
1.0
100
AcDbArc
 50
0.0
 51
90.0
  0
LINE
  5
40D
100
AcDbEntity
  8
LAY-2
  6
CONTINUOUS
 62
     3
100
AcDbLine
 10
-158.5
 20
155.75
 30
0.0
 11
-158.5
 21
154.75
 31
0.0
  0
ARC
  5
40E
100
AcDbEntity
  8
LAY-2
  6
CONTINUOUS
 62
     3
100
AcDbCircle
 10
-158.0
 20
154.75
 30
0.0
 40
0.5
100
AcDbArc
 50
180.0
 51
270.0
  0
LINE
  5
40F
100
AcDbEntity
  8
LAY-2
  6
CONTINUOUS
 62
     3
100
AcDbLine
 10
-175.5
 20
127.75
 30
0.0
 11
-159.5
 21
127.75
 31
0.0
  0
ARC
  5
410
100
AcDbEntity
  8
LAY-2
  6
CONTINUOUS
 62
     3
100
AcDbCircle
 10
-159.5
 20
128.75
 30
0.0
 40
1.0
100
AcDbArc
 50
270.0
 51
0.0
  0
ARC
  5
411
100
AcDbEntity
  8
LAY-2
  6
CONTINUOUS
 62
     3
100
AcDbCircle
 10
-158.0
 20
129.75
 30
0.0
 40
0.5
100
AcDbArc
 50
90.0
 51
180.0
  0
LINE
  5
412
100
AcDbEntity
  8
LAY-2
  6
CONTINUOUS
 62
     3
100
AcDbLine
 10
-158.5
 20
129.75
 30
0.0
 11
-158.5
 21
128.75
 31
0.0
  0
LINE
  5
413
100
AcDbEntity
  8
LAY-2
  6
CONTINUOUS
 62
     3
100
AcDbLine
 10
-158.5
 20
154.25
 30
0.0
 11
-158.5
 21
130.25
 31
0.0
  0
LINE
  5
414
100
AcDbEntity
  8
LAY-2
  6
CONTINUOUS
 62
     3
100
AcDbLine
 10
-158.0
 20
154.25
 30
0.0
 11
-73.0
 21
154.25
 31
0.0
  0
LINE
  5
415
100
AcDbEntity
  8
LAY-2
  6
CONTINUOUS
 62
     3
100
AcDbLine
 10
-158.0
 20
130.25
 30
0.0
 11
-73.0
 21
130.25
 31
0.0
  0
LINE
  5
416
100
AcDbEntity
  8
LAY-2
  6
CONTINUOUS
 62
     3
100
AcDbLine
 10
8.5
 20
159.65
 30
0.0
 11
8.5
 21
124.85
 31
0.0
  0
LINE
  5
417
100
AcDbEntity
  8
LAY-2
  6
CONTINUOUS
 62
     3
100
AcDbLine
 10
154.5
 20
159.65
 30
0.0
 11
154.5
 21
124.85
 31
0.0
  0
LINE
  5
418
100
AcDbEntity
  8
LAY-2
  6
CONTINUOUS
 62
     3
100
AcDbLine
 10
8.5
 20
159.65
 30
0.0
 11
28.5
 21
159.65
 31
0.0
  0
ARC
  5
419
100
AcDbEntity
  8
LAY-2
  6
CONTINUOUS
 62
     3
100
AcDbCircle
 10
28.5
 20
158.65
 30
0.0
 40
1.0
100
AcDbArc
 50
0.0
 51
90.0
  0
LINE
  5
41A
100
AcDbEntity
  8
LAY-2
  6
CONTINUOUS
 62
     3
100
AcDbLine
 10
8.5
 20
124.85
 30
0.0
 11
28.5
 21
124.85
 31
0.0
  0
ARC
  5
41B
100
AcDbEntity
  8
LAY-2
  6
CONTINUOUS
 62
     3
100
AcDbCircle
 10
28.5
 20
125.85
 30
0.0
 40
1.0
100
AcDbArc
 50
270.0
 51
0.0
  0
LINE
  5
41C
100
AcDbEntity
  8
LAY-2
  6
CONTINUOUS
 62
     3
100
AcDbLine
 10
154.5
 20
159.65
 30
0.0
 11
134.5
 21
159.65
 31
0.0
  0
ARC
  5
41D
100
AcDbEntity
  8
LAY-2
  6
CONTINUOUS
 62
     3
100
AcDbCircle
 10
134.5
 20
158.65
 30
0.0
 40
1.0
100
AcDbArc
 50
90.0
 51
180.0
  0
LINE
  5
41E
100
AcDbEntity
  8
LAY-2
  6
CONTINUOUS
 62
     3
100
AcDbLine
 10
154.5
 20
124.85
 30
0.0
 11
134.5
 21
124.85
 31
0.0
  0
ARC
  5
41F
100
AcDbEntity
  8
LAY-2
  6
CONTINUOUS
 62
     3
100
AcDbCircle
 10
134.5
 20
125.85
 30
0.0
 40
1.0
100
AcDbArc
 50
180.0
 51
270.0
  0
LINE
  5
420
100
AcDbEntity
  8
LAY-2
  6
CONTINUOUS
 62
     3
100
AcDbLine
 10
-98.0
 20
74.55
 30
0.0
 11
-75.0
 21
74.55
 31
0.0
  0
ARC
  5
421
100
AcDbEntity
  8
LAY-2
  6
CONTINUOUS
 62
     3
100
AcDbCircle
 10
-75.0
 20
73.55
 30
0.0
 40
1.0
100
AcDbArc
 50
0.0
 51
90.0
  0
LINE
  5
422
100
AcDbEntity
  8
LAY-2
  6
CONTINUOUS
 62
     3
100
AcDbLine
 10
64.0
 20
74.55
 30
0.0
 11
41.0
 21
74.55
 31
0.0
  0
ARC
  5
423
100
AcDbEntity
  8
LAY-2
  6
CONTINUOUS
 62
     3
100
AcDbCircle
 10
41.0
 20
73.55
 30
0.0
 40
1.0
100
AcDbArc
 50
90.0
 51
180.0
  0
LINE
  5
424
100
AcDbEntity
  8
LAY-2
  6
CONTINUOUS
 62
     3
100
AcDbLine
 10
-98.0
 20
34.95
 30
0.0
 11
-75.0
 21
34.95
 31
0.0
  0
ARC
  5
425
100
AcDbEntity
  8
LAY-2
  6
CONTINUOUS
 62
     3
100
AcDbCircle
 10
-75.0
 20
35.95
 30
0.0
 40
1.0
100
AcDbArc
 50
270.0
 51
0.0
  0
LINE
  5
426
100
AcDbEntity
  8
LAY-2
  6
CONTINUOUS
 62
     3
100
AcDbLine
 10
64.0
 20
34.95
 30
0.0
 11
41.0
 21
34.95
 31
0.0
  0
ARC
  5
427
100
AcDbEntity
  8
LAY-2
  6
CONTINUOUS
 62
     3
100
AcDbCircle
 10
41.0
 20
35.95
 30
0.0
 40
1.0
100
AcDbArc
 50
180.0
 51
270.0
  0
LINE
  5
428
100
AcDbEntity
  8
LAY-2
  6
CONTINUOUS
 62
     3
100
AcDbLine
 10
64.0
 20
74.55
 30
0.0
 11
64.0
 21
34.95
 31
0.0
  0
LINE
  5
429
100
AcDbEntity
  8
LAY-2
  6
CONTINUOUS
 62
     3
100
AcDbLine
 10
-98.0
 20
74.55
 30
0.0
 11
-98.0
 21
34.95
 31
0.0
  0
LINE
  5
42A
100
AcDbEntity
  8
LAY-2
  6
CONTINUOUS
 62
     3
100
AcDbLine
 10
-74.0
 20
73.55
 30
0.0
 11
-74.0
 21
72.25
 31
0.0
  0
ARC
  5
42B
100
AcDbEntity
  8
LAY-2
  6
CONTINUOUS
 62
     3
100
AcDbCircle
 10
-73.5
 20
72.25
 30
0.0
 40
0.5
100
AcDbArc
 50
180.0
 51
270.0
  0
LINE
  5
42C
100
AcDbEntity
  8
LAY-2
  6
CONTINUOUS
 62
     3
100
AcDbLine
 10
40.0
 20
73.55
 30
0.0
 11
40.0
 21
72.25
 31
0.0
  0
ARC
  5
42D
100
AcDbEntity
  8
LAY-2
  6
CONTINUOUS
 62
     3
100
AcDbCircle
 10
39.5
 20
72.25
 30
0.0
 40
0.5
100
AcDbArc
 50
270.0
 51
0.0
  0
LINE
  5
42E
100
AcDbEntity
  8
LAY-2
  6
CONTINUOUS
 62
     3
100
AcDbLine
 10
-73.5
 20
71.75
 30
0.0
 11
39.5
 21
71.75
 31
0.0
  0
ARC
  5
42F
100
AcDbEntity
  8
LAY-2
  6
CONTINUOUS
 62
     3
100
AcDbCircle
 10
-73.5
 20
37.25
 30
0.0
 40
0.5
100
AcDbArc
 50
90.0
 51
180.0
  0
LINE
  5
430
100
AcDbEntity
  8
LAY-2
  6
CONTINUOUS
 62
     3
100
AcDbLine
 10
-74.0
 20
37.25
 30
0.0
 11
-74.0
 21
35.95
 31
0.0
  0
ARC
  5
431
100
AcDbEntity
  8
LAY-2
  6
CONTINUOUS
 62
     3
100
AcDbCircle
 10
39.5
 20
37.25
 30
0.0
 40
0.5
100
AcDbArc
 50
0.0
 51
90.0
  0
LINE
  5
432
100
AcDbEntity
  8
LAY-2
  6
CONTINUOUS
 62
     3
100
AcDbLine
 10
40.0
 20
37.25
 30
0.0
 11
40.0
 21
35.95
 31
0.0
  0
LINE
  5
433
100
AcDbEntity
  8
LAY-2
  6
CONTINUOUS
 62
     3
100
AcDbLine
 10
-73.5
 20
37.75
 30
0.0
 11
39.5
 21
37.75
 31
0.0
  0
LINE
  5
434
100
AcDbEntity
  8
LAY-2
  6
CONTINUOUS
 62
     3
100
AcDbLine
 10
-74.0
 20
71.75
 30
0.0
 11
-74.0
 21
37.75
 31
0.0
  0
LINE
  5
435
100
AcDbEntity
  8
LAY-2
  6
CONTINUOUS
 62
     3
100
AcDbLine
 10
40.0
 20
71.75
 30
0.0
 11
40.0
 21
37.75
 31
0.0
  0
LINE
  5
436
100
AcDbEntity
  8
LAY-2
  6
CONTINUOUS
 62
     3
100
AcDbLine
 10
6.0
 20
230.4
 30
0.0
 11
6.0
 21
229.0
 31
0.0
  0
ARC
  5
437
100
AcDbEntity
  8
LAY-2
  6
CONTINUOUS
 62
     3
100
AcDbCircle
 10
5.5
 20
229.0
 30
0.0
 40
0.5
100
AcDbArc
 50
270.0
 51
0.0
  0
LINE
  5
438
100
AcDbEntity
  8
LAY-2
  6
CONTINUOUS
 62
     3
100
AcDbLine
 10
-40.0
 20
230.4
 30
0.0
 11
-40.0
 21
229.0
 31
0.0
  0
ARC
  5
439
100
AcDbEntity
  8
LAY-2
  6
CONTINUOUS
 62
     3
100
AcDbCircle
 10
-39.5
 20
229.0
 30
0.0
 40
0.5
100
AcDbArc
 50
180.0
 51
270.0
  0
LINE
  5
43A
100
AcDbEntity
  8
LAY-2
  6
CONTINUOUS
 62
     3
100
AcDbLine
 10
-39.5
 20
228.5
 30
0.0
 11
5.5
 21
228.5
 31
0.0
  0
ARC
  5
43B
100
AcDbEntity
  8
LAY-2
  6
CONTINUOUS
 62
     3
100
AcDbCircle
 10
5.5
 20
213.0
 30
0.0
 40
0.5
100
AcDbArc
 50
0.0
 51
90.0
  0
LINE
  5
43C
100
AcDbEntity
  8
LAY-2
  6
CONTINUOUS
 62
     3
100
AcDbLine
 10
6.0
 20
213.0
 30
0.0
 11
6.0
 21
211.6
 31
0.0
  0
ARC
  5
43D
100
AcDbEntity
  8
LAY-2
  6
CONTINUOUS
 62
     3
100
AcDbCircle
 10
-39.5
 20
213.0
 30
0.0
 40
0.5
100
AcDbArc
 50
90.0
 51
180.0
  0
LINE
  5
43E
100
AcDbEntity
  8
LAY-2
  6
CONTINUOUS
 62
     3
100
AcDbLine
 10
-40.0
 20
213.0
 30
0.0
 11
-40.0
 21
211.6
 31
0.0
  0
LINE
  5
43F
100
AcDbEntity
  8
LAY-2
  6
CONTINUOUS
 62
     3
100
AcDbLine
 10
-39.5
 20
213.5
 30
0.0
 11
5.5
 21
213.5
 31
0.0
  0
LINE
  5
440
100
AcDbEntity
  8
LAY-2
  6
CONTINUOUS
 62
     3
100
AcDbLine
 10
6.0
 20
228.5
 30
0.0
 11
6.0
 21
213.5
 31
0.0
  0
LINE
  5
441
100
AcDbEntity
  8
LAY-2
  6
CONTINUOUS
 62
     3
100
AcDbLine
 10
-40.0
 20
228.5
 30
0.0
 11
-40.0
 21
213.5
 31
0.0
  0
LINE
  5
442
100
AcDbEntity
  8
LAY-2
  6
CONTINUOUS
 62
     3
100
AcDbLine
 10
147.333333
 20
231.6
 30
0.0
 11
147.333333
 21
230.5
 31
0.0
  0
ARC
  5
443
100
AcDbEntity
  8
LAY-2
  6
CONTINUOUS
 62
     3
100
AcDbCircle
 10
146.833333
 20
230.5
 30
0.0
 40
0.5
100
AcDbArc
 50
270.0
 51
0.0
  0
LINE
  5
444
100
AcDbEntity
  8
LAY-2
  6
CONTINUOUS
 62
     3
100
AcDbLine
 10
81.333333
 20
231.6
 30
0.0
 11
81.333333
 21
230.5
 31
0.0
  0
ARC
  5
445
100
AcDbEntity
  8
LAY-2
  6
CONTINUOUS
 62
     3
100
AcDbCircle
 10
81.833333
 20
230.5
 30
0.0
 40
0.5
100
AcDbArc
 50
180.0
 51
270.0
  0
LINE
  5
446
100
AcDbEntity
  8
LAY-2
  6
CONTINUOUS
 62
     3
100
AcDbLine
 10
81.833333
 20
230.0
 30
0.0
 11
146.833333
 21
230.0
 31
0.0
  0
ARC
  5
447
100
AcDbEntity
  8
LAY-2
  6
CONTINUOUS
 62
     3
100
AcDbCircle
 10
146.833333
 20
211.5
 30
0.0
 40
0.5
100
AcDbArc
 50
0.0
 51
90.0
  0
LINE
  5
448
100
AcDbEntity
  8
LAY-2
  6
CONTINUOUS
 62
     3
100
AcDbLine
 10
147.333333
 20
211.5
 30
0.0
 11
147.333333
 21
210.4
 31
0.0
  0
ARC
  5
449
100
AcDbEntity
  8
LAY-2
  6
CONTINUOUS
 62
     3
100
AcDbCircle
 10
81.833333
 20
211.5
 30
0.0
 40
0.5
100
AcDbArc
 50
90.0
 51
180.0
  0
LINE
  5
44A
100
AcDbEntity
  8
LAY-2
  6
CONTINUOUS
 62
     3
100
AcDbLine
 10
81.333333
 20
211.5
 30
0.0
 11
81.333333
 21
210.4
 31
0.0
  0
LINE
  5
44B
100
AcDbEntity
  8
LAY-2
  6
CONTINUOUS
 62
     3
100
AcDbLine
 10
81.833333
 20
212.0
 30
0.0
 11
146.833333
 21
212.0
 31
0.0
  0
LINE
  5
44C
100
AcDbEntity
  8
LAY-2
  6
CONTINUOUS
 62
     3
100
AcDbLine
 10
147.333333
 20
230.0
 30
0.0
 11
147.333333
 21
212.0
 31
0.0
  0
LINE
  5
44D
100
AcDbEntity
  8
LAY-2
  6
CONTINUOUS
 62
     3
100
AcDbLine
 10
81.333333
 20
230.0
 30
0.0
 11
81.333333
 21
212.0
 31
0.0
  0
LINE
  5
44E
100
AcDbEntity
  8
LAY-2
  6
CONTINUOUS
 62
     3
100
AcDbLine
 10
29.5
 20
158.65
 30
0.0
 11
29.5
 21
157.25
 31
0.0
  0
ARC
  5
44F
100
AcDbEntity
  8
LAY-2
  6
CONTINUOUS
 62
     3
100
AcDbCircle
 10
30.0
 20
157.25
 30
0.0
 40
0.5
100
AcDbArc
 50
180.0
 51
270.0
  0
LINE
  5
450
100
AcDbEntity
  8
LAY-2
  6
CONTINUOUS
 62
     3
100
AcDbLine
 10
133.5
 20
158.65
 30
0.0
 11
133.5
 21
157.25
 31
0.0
  0
ARC
  5
451
100
AcDbEntity
  8
LAY-2
  6
CONTINUOUS
 62
     3
100
AcDbCircle
 10
133.0
 20
157.25
 30
0.0
 40
0.5
100
AcDbArc
 50
270.0
 51
0.0
  0
LINE
  5
452
100
AcDbEntity
  8
LAY-2
  6
CONTINUOUS
 62
     3
100
AcDbLine
 10
30.0
 20
156.75
 30
0.0
 11
133.0
 21
156.75
 31
0.0
  0
ARC
  5
453
100
AcDbEntity
  8
LAY-2
  6
CONTINUOUS
 62
     3
100
AcDbCircle
 10
30.0
 20
127.25
 30
0.0
 40
0.5
100
AcDbArc
 50
90.0
 51
180.0
  0
LINE
  5
454
100
AcDbEntity
  8
LAY-2
  6
CONTINUOUS
 62
     3
100
AcDbLine
 10
29.5
 20
127.25
 30
0.0
 11
29.5
 21
125.85
 31
0.0
  0
ARC
  5
455
100
AcDbEntity
  8
LAY-2
  6
CONTINUOUS
 62
     3
100
AcDbCircle
 10
133.0
 20
127.25
 30
0.0
 40
0.5
100
AcDbArc
 50
0.0
 51
90.0
  0
LINE
  5
456
100
AcDbEntity
  8
LAY-2
  6
CONTINUOUS
 62
     3
100
AcDbLine
 10
133.5
 20
127.25
 30
0.0
 11
133.5
 21
125.85
 31
0.0
  0
LINE
  5
457
100
AcDbEntity
  8
LAY-2
  6
CONTINUOUS
 62
     3
100
AcDbLine
 10
30.0
 20
127.75
 30
0.0
 11
133.0
 21
127.75
 31
0.0
  0
LINE
  5
458
100
AcDbEntity
  8
LAY-2
  6
CONTINUOUS
 62
     3
100
AcDbLine
 10
29.5
 20
156.75
 30
0.0
 11
29.5
 21
127.75
 31
0.0
  0
LINE
  5
459
100
AcDbEntity
  8
LAY-2
  6
CONTINUOUS
 62
     3
100
AcDbLine
 10
133.5
 20
156.75
 30
0.0
 11
133.5
 21
127.75
 31
0.0
  0
ENDSEC
  0
SECTION
  2
OBJECTS
  0
DICTIONARY
  5
19
100
AcDbDictionary
  3
ACAD_GROUP
350
1A
  3
ACAD_MLINESTYLE
350
1B
  0
DICTIONARY
  5
1A
102
{ACAD_REACTORS
330
19
102
}
100
AcDbDictionary
  0
DICTIONARY
  5
1B
102
{ACAD_REACTORS
330
19
102
}
100
AcDbDictionary
  3
STANDARD
350
1C
  0
MLINESTYLE
  5
1C
102
{ACAD_REACTORS
330
1B
102
}
100
AcDbMlineStyle
  2
Standard
 70
     0
  3

 62
     0
 51
90.0
 52
90.0
 71
     2
 49
0.5
 62
   256
  6
ByLayer
 49
-0.5
 62
   256
  6
ByLayer
  0
ENDSEC
  0
EOF
