  0
SECTION
  2
HEADER
  9
$ACADVER
  1
AC1015
  9
$ACADMAINTVER
 70
    20
  9
$DWGCODEPAGE
  3
ANSI_932
  9
$INSBASE
 10
0.0
 20
0.0
 30
0.0
  9
$EXTMIN
 10
-95.70485944760367
 20
143.5943332348379
 30
-0.0000000000112497
  9
$EXTMAX
 10
430.7135093490651
 20
280.1741433295829
 30
0.0000000000002956
  9
$LIMMIN
 10
0.0
 20
0.0
  9
$LIMMAX
 10
420.0
 20
297.0
  9
$ORTHOMODE
 70
     1
  9
$REGENMODE
 70
     1
  9
$FILLMODE
 70
     1
  9
$QTEXTMODE
 70
     0
  9
$MIRRTEXT
 70
     1
  9
$LTSCALE
 40
1.0
  9
$ATTMODE
 70
     1
  9
$TEXTSIZE
 40
0.0
  9
$TRACEWID
 40
0.05
  9
$TEXTSTYLE
  7
STANDARD
  9
$CLAYER
  8
LAY-3
  9
$CELTYPE
  6
CONTINUOUS
  9
$CECOLOR
 62
   256
  9
$CELTSCALE
 40
1.0
  9
$DISPSILH
 70
     0
  9
$DIMSCALE
 40
1.0
  9
$DIMASZ
 40
2.0
  9
$DIMEXO
 40
0.8
  9
$DIMDLI
 40
0.1
  9
$DIMRND
 40
0.0
  9
$DIMDLE
 40
0.0
  9
$DIMEXE
 40
0.5
  9
$DIMTP
 40
0.0
  9
$DIMTM
 40
0.0
  9
$DIMTXT
 40
3.0
  9
$DIMCEN
 40
0.1
  9
$DIMTSZ
 40
0.0
  9
$DIMTOL
 70
     0
  9
$DIMLIM
 70
     0
  9
$DIMTIH
 70
     0
  9
$DIMTOH
 70
     0
  9
$DIMSE1
 70
     0
  9
$DIMSE2
 70
     0
  9
$DIMTAD
 70
     1
  9
$DIMZIN
 70
     8
  9
$DIMBLK
  1

  9
$DIMASO
 70
     1
  9
$DIMSHO
 70
     1
  9
$DIMPOST
  1

  9
$DIMAPOST
  1

  9
$DIMALT
 70
     0
  9
$DIMALTD
 70
     2
  9
$DIMALTF
 40
25.4
  9
$DIMLFAC
 40
1.0
  9
$DIMTOFL
 70
     0
  9
$DIMTVP
 40
0.0
  9
$DIMTIX
 70
     0
  9
$DIMSOXD
 70
     0
  9
$DIMSAH
 70
     1
  9
$DIMBLK1
  1
OPEN30
  9
$DIMBLK2
  1
OPEN30
  9
$DIMSTYLE
  2
DIM-Ｆ1
  9
$DIMCLRD
 70
     1
  9
$DIMCLRE
 70
     1
  9
$DIMCLRT
 70
     7
  9
$DIMTFAC
 40
1.0
  9
$DIMGAP
 40
0.3
  9
$DIMJUST
 70
     0
  9
$DIMSD1
 70
     0
  9
$DIMSD2
 70
     0
  9
$DIMTOLJ
 70
     1
  9
$DIMTZIN
 70
     0
  9
$DIMALTZ
 70
     0
  9
$DIMALTTZ
 70
     0
  9
$DIMUPT
 70
     0
  9
$DIMDEC
 70
     2
  9
$DIMTDEC
 70
     2
  9
$DIMALTU
 70
     2
  9
$DIMALTTD
 70
     2
  9
$DIMTXSTY
  7
MSゴシック
  9
$DIMAUNIT
 70
     0
  9
$DIMADEC
 70
     0
  9
$DIMALTRND
 40
0.0
  9
$DIMAZIN
 70
     0
  9
$DIMDSEP
 70
    46
  9
$DIMATFIT
 70
     3
  9
$DIMFRAC
 70
     0
  9
$DIMLDRBLK
  1
OPEN30
  9
$DIMLUNIT
 70
     2
  9
$DIMLWD
 70
    -2
  9
$DIMLWE
 70
    -2
  9
$DIMTMOVE
 70
     2
  9
$LUNITS
 70
     2
  9
$LUPREC
 70
     4
  9
$SKETCHINC
 40
0.1
  9
$FILLETRAD
 40
0.0
  9
$AUNITS
 70
     0
  9
$AUPREC
 70
     0
  9
$MENU
  1
acad
  9
$ELEVATION
 40
0.0
  9
$PELEVATION
 40
0.0
  9
$THICKNESS
 40
0.0
  9
$LIMCHECK
 70
     0
  9
$CHAMFERA
 40
0.0
  9
$CHAMFERB
 40
0.0
  9
$CHAMFERC
 40
0.0
  9
$CHAMFERD
 40
0.0
  9
$SKPOLY
 70
     0
  9
$TDCREATE
 40
2453620.400547697
  9
$TDUCREATE
 40
2453620.025547697
  9
$TDUPDATE
 40
2455363.605471077
  9
$TDUUPDATE
 40
2455363.230471077
  9
$TDINDWG
 40
0.2729631366
  9
$TDUSRTIMER
 40
0.2729586227
  9
$USRTIMER
 70
     1
  9
$ANGBASE
 50
0.0
  9
$ANGDIR
 70
     0
  9
$PDMODE
 70
     0
  9
$PDSIZE
 40
0.0
  9
$PLINEWID
 40
0.0
  9
$SPLFRAME
 70
     0
  9
$SPLINETYPE
 70
     6
  9
$SPLINESEGS
 70
     8
  9
$HANDSEED
  5
160F
  9
$SURFTAB1
 70
     6
  9
$SURFTAB2
 70
     6
  9
$SURFTYPE
 70
     6
  9
$SURFU
 70
     6
  9
$SURFV
 70
     6
  9
$UCSBASE
  2

  9
$UCSNAME
  2

  9
$UCSORG
 10
0.0
 20
0.0
 30
0.0
  9
$UCSXDIR
 10
1.0
 20
0.0
 30
0.0
  9
$UCSYDIR
 10
0.0
 20
1.0
 30
0.0
  9
$UCSORTHOREF
  2

  9
$UCSORTHOVIEW
 70
     0
  9
$UCSORGTOP
 10
0.0
 20
0.0
 30
0.0
  9
$UCSORGBOTTOM
 10
0.0
 20
0.0
 30
0.0
  9
$UCSORGLEFT
 10
0.0
 20
0.0
 30
0.0
  9
$UCSORGRIGHT
 10
0.0
 20
0.0
 30
0.0
  9
$UCSORGFRONT
 10
0.0
 20
0.0
 30
0.0
  9
$UCSORGBACK
 10
0.0
 20
0.0
 30
0.0
  9
$PUCSBASE
  2

  9
$PUCSNAME
  2

  9
$PUCSORG
 10
0.0
 20
0.0
 30
0.0
  9
$PUCSXDIR
 10
1.0
 20
0.0
 30
0.0
  9
$PUCSYDIR
 10
0.0
 20
1.0
 30
0.0
  9
$PUCSORTHOREF
  2

  9
$PUCSORTHOVIEW
 70
     0
  9
$PUCSORGTOP
 10
0.0
 20
0.0
 30
0.0
  9
$PUCSORGBOTTOM
 10
0.0
 20
0.0
 30
0.0
  9
$PUCSORGLEFT
 10
0.0
 20
0.0
 30
0.0
  9
$PUCSORGRIGHT
 10
0.0
 20
0.0
 30
0.0
  9
$PUCSORGFRONT
 10
0.0
 20
0.0
 30
0.0
  9
$PUCSORGBACK
 10
0.0
 20
0.0
 30
0.0
  9
$USERI1
 70
     0
  9
$USERI2
 70
     0
  9
$USERI3
 70
     0
  9
$USERI4
 70
     0
  9
$USERI5
 70
     0
  9
$USERR1
 40
0.0
  9
$USERR2
 40
0.0
  9
$USERR3
 40
0.0
  9
$USERR4
 40
0.0
  9
$USERR5
 40
0.0
  9
$WORLDVIEW
 70
     1
  9
$SHADEDGE
 70
     3
  9
$SHADEDIF
 70
    70
  9
$TILEMODE
 70
     1
  9
$MAXACTVP
 70
    16
  9
$PINSBASE
 10
0.0
 20
0.0
 30
0.0
  9
$PLIMCHECK
 70
     0
  9
$PEXTMIN
 10
1.000000000000000E+20
 20
1.000000000000000E+20
 30
1.000000000000000E+20
  9
$PEXTMAX
 10
-1.000000000000000E+20
 20
-1.000000000000000E+20
 30
-1.000000000000000E+20
  9
$PLIMMIN
 10
0.0
 20
0.0
  9
$PLIMMAX
 10
12.0
 20
9.0
  9
$UNITMODE
 70
     0
  9
$VISRETAIN
 70
     0
  9
$PLINEGEN
 70
     1
  9
$PSLTSCALE
 70
     0
  9
$TREEDEPTH
 70
  3020
  9
$CMLSTYLE
  2
STANDARD
  9
$CMLJUST
 70
     0
  9
$CMLSCALE
 40
1.0
  9
$PROXYGRAPHICS
 70
     0
  9
$MEASUREMENT
 70
     0
  9
$CELWEIGHT
370
    -1
  9
$ENDCAPS
280
     0
  9
$JOINSTYLE
280
     0
  9
$LWDISPLAY
290
     0
  9
$INSUNITS
 70
     0
  9
$HYPERLINKBASE
  1

  9
$STYLESHEET
  1
免震.CTB
  9
$XEDIT
290
     1
  9
$CEPSNTYPE
380
     0
  9
$PSTYLEMODE
290
     1
  9
$FINGERPRINTGUID
  2
{2615EF7F-400C-4831-9954-B54559317ACD}
  9
$VERSIONGUID
  2
{F91AECA0-9544-42E1-AEA6-5CEC21748B28}
  9
$EXTNAMES
290
     1
  9
$PSVPSCALE
 40
0.0
  9
$OLESTARTUP
290
     0
  0
ENDSEC
  0
SECTION
  2
CLASSES
  0
CLASS
  1
IMAGE
  2
AcDbRasterImage
  3
ISM
 90
    32895
280
     0
281
     1
  0
CLASS
  1
DICTIONARYVAR
  2
AcDbDictionaryVar
  3
ObjectDBX Classes
 90
        0
280
     0
281
     0
  0
CLASS
  1
RASTERVARIABLES
  2
AcDbRasterVariables
  3
ISM
 90
    32768
280
     0
281
     0
  0
CLASS
  1
IMAGEDEF
  2
AcDbRasterImageDef
  3
ISM
 90
    32768
280
     0
281
     0
  0
CLASS
  1
IMAGEDEF_REACTOR
  2
AcDbRasterImageDefReactor
  3
ISM
 90
    32769
280
     0
281
     0
  0
CLASS
  1
IDBUFFER
  2
AcDbIdBuffer
  3
ObjectDBX Classes
 90
    32768
280
     0
281
     0
  0
CLASS
  1
SPATIAL_FILTER
  2
AcDbSpatialFilter
  3
ObjectDBX Classes
 90
    32768
280
     0
281
     0
  0
CLASS
  1
SORTENTSTABLE
  2
AcDbSortentsTable
  3
ObjectDBX Classes
 90
        0
280
     0
281
     0
  0
CLASS
  1
LAYER_INDEX
  2
AcDbLayerIndex
  3
ObjectDBX Classes
 90
    32768
280
     0
281
     0
  0
CLASS
  1
SPATIAL_INDEX
  2
AcDbSpatialIndex
  3
ObjectDBX Classes
 90
    32768
280
     0
281
     0
  0
CLASS
  1
OBJECT_PTR
  2
CAseDLPNTableRecord
  3
"ASE-LPNTableRecord"
 90
    32769
280
     0
281
     0
  0
CLASS
  1
LAYOUT
  2
AcDbLayout
  3
ObjectDBX Classes
 90
        0
280
     0
281
     0
  0
CLASS
  1
PLOTSETTINGS
  2
AcDbPlotSettings
  3
ObjectDBX Classes
 90
    32768
280
     0
281
     0
  0
CLASS
  1
ACDBDICTIONARYWDFLT
  2
AcDbDictionaryWithDefault
  3
ObjectDBX Classes
 90
        0
280
     0
281
     0
  0
CLASS
  1
ACDBPLACEHOLDER
  2
AcDbPlaceHolder
  3
ObjectDBX Classes
 90
        0
280
     0
281
     0
  0
CLASS
  1
VBA_PROJECT
  2
AcDbVbaProject
  3
acad
 90
    32768
280
     0
281
     0
  0
CLASS
  1
WIPEOUT
  2
AcDbWipeout
  3
"WipeOut|Product Desc: Object Enabler for WipeOut entity^I^I^I^I^I^I|Company: Autodesk, Inc.^I^I^I^I^I^I|WEB Address: www.autodesk.com"
 90
    32895
280
     0
281
     1
  0
CLASS
  1
WIPEOUTVARIABLES
  2
AcDbWipeoutVariables
  3
"WipeOut|Product Desc:     WipeOut Dbx Application|Company:          Autodesk, Inc.|WEB Address:      www.autodesk.com"
 90
    32768
280
     0
281
     0
  0
CLASS
  1
RTEXT
  2
RText
  3
RText|AutoCAD Express Tool|expresstools@autodesk.com
 90
    32768
280
     0
281
     1
  0
CLASS
  1
ARCALIGNEDTEXT
  2
AcDbArcAlignedText
  3
ATEXT|AutoCAD Express Tool|expresstools@autodesk.com
 90
    32768
280
     0
281
     1
  0
CLASS
  1
TABLESTYLE
  2
AcDbTableStyle
  3
ObjectDBX Classes
 90
     2047
280
     0
281
     0
  0
CLASS
  1
MATERIAL
  2
AcDbMaterial
  3
ObjectDBX Classes
 90
        0
280
     0
281
     0
  0
ENDSEC
  0
SECTION
  2
TABLES
  0
TABLE
  2
VPORT
  5
7
330
0
100
AcDbSymbolTable
 70
    16
  0
VPORT
  5
1609
330
7
100
AcDbSymbolTableRecord
100
AcDbViewportTableRecord
  2
*Active
 70
     0
 10
0.0
 20
0.0
 11
1.0
 21
1.0
 12
167.5043249507307
 22
211.8842382822105
 13
0.0
 23
0.0
 14
1.0
 24
1.0
 15
0.0
 25
0.0
 16
0.0
 26
0.0
 36
1.0
 17
0.0
 27
0.0
 37
0.0
 40
381.4765118073329
 41
1.387728459530026
 42
50.0
 43
0.0
 44
0.0
 50
0.0
 51
0.0
 71
     0
 72
   100
 73
     1
 74
     1
 75
     0
 76
     0
 77
     0
 78
     0
281
     0
 65
     1
110
0.0
120
0.0
130
0.0
111
1.0
121
0.0
131
0.0
112
0.0
122
1.0
132
0.0
 79
     0
146
0.0
  0
ENDTAB
  0
TABLE
  2
LTYPE
  5
4
330
0
100
AcDbSymbolTable
 70
    11
  0
LTYPE
  5
11
330
4
100
AcDbSymbolTableRecord
100
AcDbLinetypeTableRecord
  2
BYBLOCK
 70
     0
  3

 72
    65
 73
     0
 40
0.0
  0
LTYPE
  5
12
330
4
100
AcDbSymbolTableRecord
100
AcDbLinetypeTableRecord
  2
BYLAYER
 70
     0
  3

 72
    65
 73
     0
 40
0.0
  0
LTYPE
  5
13
330
4
100
AcDbSymbolTableRecord
100
AcDbLinetypeTableRecord
  2
CONTINUOUS
 70
     0
  3
実線
 72
    65
 73
     0
 40
0.0
  0
LTYPE
  5
1F
330
4
100
AcDbSymbolTableRecord
100
AcDbLinetypeTableRecord
  2
EXLTYPE3
 70
     0
  3
一点鎖線
 72
    65
 73
     4
 40
33.0
 49
30.0
 74
     0
 49
-1.0
 74
     0
 49
1.0
 74
     0
 49
-1.0
 74
     0
  0
ENDTAB
  0
TABLE
  2
LAYER
  5
2
102
{ACAD_XDICTIONARY
360
9CD
102
}
330
0
100
AcDbSymbolTable
 70
    22
  0
LAYER
  5
14
330
2
100
AcDbSymbolTableRecord
100
AcDbLayerTableRecord
  2
0
 70
     0
 62
     7
  6
CONTINUOUS
370
    -3
390
4C9
  0
LAYER
  5
25
330
2
100
AcDbSymbolTableRecord
100
AcDbLayerTableRecord
  2
LAY-1
 70
     0
 62
     7
  6
CONTINUOUS
370
    -3
390
4C9
  0
LAYER
  5
26
330
2
100
AcDbSymbolTableRecord
100
AcDbLayerTableRecord
  2
LAY-2
 70
     0
 62
     7
  6
CONTINUOUS
370
    -3
390
4C9
  0
LAYER
  5
27
330
2
100
AcDbSymbolTableRecord
100
AcDbLayerTableRecord
  2
LAY-3
 70
     0
 62
     7
  6
CONTINUOUS
370
    -3
390
4C9
  0
LAYER
  5
28
330
2
100
AcDbSymbolTableRecord
100
AcDbLayerTableRecord
  2
LAY-4
 70
     0
 62
     7
  6
CONTINUOUS
370
    -3
390
4C9
  0
LAYER
  5
92C
330
2
100
AcDbSymbolTableRecord
100
AcDbLayerTableRecord
  2
Defpoints
 70
     0
 62
     7
  6
CONTINUOUS
290
     0
370
    -3
390
4C9
  0
ENDTAB
  0
TABLE
  2
STYLE
  5
3
330
0
100
AcDbSymbolTable
 70
     6
  0
STYLE
  5
17
330
3
100
AcDbSymbolTableRecord
100
AcDbTextStyleTableRecord
  2
STANDARD
 70
     0
 40
0.0
 41
1.0
 50
0.0
 71
     0
 42
0.0
  3
monotxt
  4
extfont
  0
STYLE
  5
23
330
3
100
AcDbSymbolTableRecord
100
AcDbTextStyleTableRecord
  2
EXCADSTD
 70
     0
 40
0.0
 41
1.0
 50
0.0
 71
     0
 42
0.2
  3
monotxt
  4
extfont
  0
STYLE
  5
4C1
330
3
100
AcDbSymbolTableRecord
100
AcDbTextStyleTableRecord
  2
EXCADTTF1
 70
     0
 40
0.0
 41
1.0
 50
0.0
 71
     0
 42
0.2
  3
MS Gothic.ttf
  4

1001
ACAD
1000
MS Gothic
1071
    32817
  0
STYLE
  5
9C5
330
3
100
AcDbSymbolTableRecord
100
AcDbTextStyleTableRecord
  2
MSゴシック
 70
     0
 40
0.0
 41
1.0
 50
0.0
 71
     0
 42
0.2
  3
MS Gothic.ttf
  4

1001
ACAD
1000
MS Gothic
1071
    32817
  0
ENDTAB
  0
TABLE
  2
VIEW
  5
5
330
0
100
AcDbSymbolTable
 70
     0
  0
ENDTAB
  0
TABLE
  2
UCS
  5
6
330
0
100
AcDbSymbolTable
 70
     0
  0
ENDTAB
  0
TABLE
  2
APPID
  5
8
330
0
100
AcDbSymbolTable
 70
     3
  0
APPID
  5
16
330
8
100
AcDbSymbolTableRecord
100
AcDbRegAppTableRecord
  2
ACAD
 70
     0
  0
APPID
  5
945
330
8
100
AcDbSymbolTableRecord
100
AcDbRegAppTableRecord
  2
ACAD_EXEMPT_FROM_CAD_STANDARDS
 70
     0
  0
APPID
  5
9C9
330
8
100
AcDbSymbolTableRecord
100
AcDbRegAppTableRecord
  2
ACAD_PSEXT
 70
     0
  0
ENDTAB
  0
TABLE
  2
DIMSTYLE
  5
9
330
0
100
AcDbSymbolTable
 70
     3
100
AcDbDimStyleTable
 71
     2
340
9C7
340
18
  0
DIMSTYLE
105
18
330
9
100
AcDbSymbolTableRecord
100
AcDbDimStyleTableRecord
  2
STANDARD
 70
     0
340
17
  0
DIMSTYLE
105
9C7
330
9
100
AcDbSymbolTableRecord
100
AcDbDimStyleTableRecord
  2
DIM-Ｆ1
 70
     0
 41
2.0
 42
0.8
 43
0.1
 44
0.5
 73
     0
 74
     0
 77
     1
 78
     8
140
3.0
141
0.1
147
0.3
173
     1
176
     1
177
     1
178
     7
271
     2
272
     2
279
     2
340
9C5
341
94C
343
94C
344
94C
  0
ENDTAB
  0
TABLE
  2
BLOCK_RECORD
  5
1
330
0
100
AcDbSymbolTable
 70
    76
  0
BLOCK_RECORD
  5
A
102
{ACAD_XDICTIONARY
360
93C
102
}
330
1
100
AcDbSymbolTableRecord
100
AcDbBlockTableRecord
  2
*MODEL_SPACE
340
4D0
  0
BLOCK_RECORD
  5
B
330
1
100
AcDbSymbolTableRecord
100
AcDbBlockTableRecord
  2
*PAPER_SPACE
340
4D1
  0
BLOCK_RECORD
  5
94C
330
1
100
AcDbSymbolTableRecord
100
AcDbBlockTableRecord
  2
_OPEN30
340
0
102
{BLKREFS
331
95B
331
95C
331
968
331
969
331
975
331
976
331
997
331
98C
331
98D
331
980
331
981
331
F59
331
F5A
331
F63
331
F64
331
F6D
331
F6E
331
F75
331
F76
331
F7E
331
F7F
331
F86
331
10EA
331
10EB
331
10F4
331
10F5
331
10FE
331
10FF
331
1106
331
1107
331
110F
331
1110
331
1117
331
116D
331
116E
331
1221
331
1222
331
123F
331
1240
331
124A
331
124B
331
1257
331
1258
331
1264
331
1265
331
1288
331
1289
331
1295
331
1296
331
12A5
331
12A6
331
12B2
331
12B3
331
12BF
331
12C0
331
12CC
331
12CD
331
12F0
331
12F1
331
12FD
331
12FE
331
130A
331
130B
331
1317
331
1318
331
1324
331
1325
331
1331
331
1332
331
133F
331
1340
331
134E
331
134F
331
135B
331
135C
331
1368
331
1369
331
1375
331
1376
331
1394
331
1395
331
13FD
331
13FE
331
140A
331
140B
331
1437
331
1438
331
1445
331
1446
331
1458
331
1459
331
1465
331
1466
331
1474
331
1475
331
1481
331
1482
331
148E
331
148F
331
149B
331
149C
331
14A9
331
14AA
331
1550
331
1551
331
15F6
331
15F7
102
}
  0
ENDTAB
  0
ENDSEC
  0
SECTION
  2
BLOCKS
  0
BLOCK
  5
D
330
A
100
AcDbEntity
  8
0
100
AcDbBlockBegin
  2
*MODEL_SPACE
 70
     0
 10
0.0
 20
0.0
 30
0.0
  3
*MODEL_SPACE
  1

  0
ENDBLK
  5
E
330
A
100
AcDbEntity
  8
0
100
AcDbBlockEnd
  0
BLOCK
  5
F
330
B
100
AcDbEntity
 67
     1
  8
0
100
AcDbBlockBegin
  2
*PAPER_SPACE
 70
     0
 10
0.0
 20
0.0
 30
0.0
  3
*PAPER_SPACE
  1

  0
ENDBLK
  5
10
330
B
100
AcDbEntity
 67
     1
  8
0
100
AcDbBlockEnd
  0
BLOCK
  5
94D
330
94C
100
AcDbEntity
  8
0
100
AcDbBlockBegin
  2
_OPEN30
 70
     0
 10
0.0
 20
0.0
 30
0.0
  3
_OPEN30
  1

  0
LINE
  5
94E
330
94C
100
AcDbEntity
  8
0
  6
ByBlock
 62
     0
100
AcDbLine
 10
-1.0
 20
0.26794919
 30
0.0
 11
0.0
 21
0.0
 31
0.0
  0
LINE
  5
94F
330
94C
100
AcDbEntity
  8
0
  6
ByBlock
 62
     0
100
AcDbLine
 10
0.0
 20
0.0
 30
0.0
 11
-1.0
 21
-0.26794919
 31
0.0
  0
LINE
  5
950
330
94C
100
AcDbEntity
  8
0
  6
ByBlock
 62
     0
100
AcDbLine
 10
0.0
 20
0.0
 30
0.0
 11
-1.0
 21
0.0
 31
0.0
  0
ENDBLK
  5
951
330
94C
100
AcDbEntity
  8
0
100
AcDbBlockEnd
  0
ENDSEC
  0
SECTION
  2
ENTITIES
  0
TEXT
  5
360
330
A
100
AcDbEntity
  8
LAY-3
  6
Continuous
 62
     7
100
AcDbText
 10
100.832143
 20
249.4
 30
0.0
 40
2.5
  1
２０Ａ×４５０Ｌ
 41
1.021739130434782
  7
EXCADSTD
 72
     5
 11
124.332143
 21
249.4
 31
0.0
100
AcDbText
  0
TEXT
  5
361
330
A
100
AcDbEntity
  8
LAY-3
  6
Continuous
 62
     7
100
AcDbText
 10
211.549999
 20
249.55
 30
0.0
 40
2.5
  1
３２Ａ×３００Ｌ
 41
1.021739130434782
  7
EXCADSTD
 72
     5
 11
235.049999
 21
249.55
 31
0.0
100
AcDbText
  0
TEXT
  5
363
330
A
100
AcDbEntity
  8
LAY-3
  6
Continuous
 62
     7
100
AcDbText
 10
267.6651780000001
 20
249.6500000000001
 30
0.0
 40
2.5
  1
４０Ａ×４５０Ｌ
 41
1.021739130434784
  7
EXCADSTD
 72
     5
 11
291.1651780000001
 21
249.6500000000001
 31
0.0
100
AcDbText
  0
TEXT
  5
367
330
A
100
AcDbEntity
  8
LAY-3
  6
Continuous
 62
     7
100
AcDbText
 10
45.09196399999999
 20
212.05
 30
0.0
 40
2.5
  1
５０Ａ×４５０Ｌ
 41
1.021739130434782
  7
EXCADSTD
 72
     5
 11
68.59196399999999
 21
212.05
 31
0.0
100
AcDbText
  0
TEXT
  5
368
330
A
100
AcDbEntity
  8
LAY-3
  6
Continuous
 62
     7
100
AcDbText
 10
100.525892
 20
211.9
 30
0.0
 40
2.5
  1
６５Ａ×４５０Ｌ
 41
1.021739130434782
  7
EXCADSTD
 72
     5
 11
124.025892
 21
211.9
 31
0.0
100
AcDbText
  0
TEXT
  5
369
330
A
100
AcDbEntity
  8
LAY-3
  6
Continuous
 62
     7
100
AcDbText
 10
153.859821
 20
212.15
 30
0.0
 40
2.5
  1
８０Ａ×５００Ｌ
 41
1.152173913043478
  7
EXCADSTD
 72
     5
 11
180.359821
 21
212.15
 31
0.0
100
AcDbText
  0
TEXT
  5
36A
330
A
100
AcDbEntity
  8
LAY-3
  6
Continuous
 62
     7
100
AcDbText
 10
210.24375
 20
212.25
 30
0.0
 40
2.5
  1
１００Ａ×５００Ｌ
 41
1.019230769230769
  7
EXCADSTD
 72
     5
 11
236.74375
 21
212.25
 31
0.0
100
AcDbText
  0
TEXT
  5
36B
330
A
100
AcDbEntity
  8
LAY-3
  6
Continuous
 62
     7
100
AcDbText
 10
45.141964
 20
249.7
 30
0.0
 40
2.5
  1
１５Ａ×４５０Ｌ
 41
1.021739130434782
  7
EXCADSTD
 72
     5
 11
68.641964
 21
249.7
 31
0.0
100
AcDbText
  0
LINE
  5
36C
330
A
100
AcDbEntity
  8
LAY-3
  6
Continuous
 62
     2
100
AcDbLine
 10
306.757143
 20
280.0499999999999
 30
0.0
 11
28.15
 21
280.05
 31
0.0
  0
LINE
  5
371
330
A
100
AcDbEntity
  8
LAY-3
  6
Continuous
 62
     2
100
AcDbLine
 10
28.15
 20
178.4
 30
0.0
 11
306.757143
 21
178.3999999999999
 31
0.0
  0
LINE
  5
372
330
A
100
AcDbEntity
  8
LAY-3
  6
Continuous
 62
     2
100
AcDbLine
 10
28.15
 20
210.9
 30
0.0
 11
306.757143
 21
210.9
 31
0.0
  0
LINE
  5
373
330
A
100
AcDbEntity
  8
LAY-3
  6
Continuous
 62
     2
100
AcDbLine
 10
28.15
 20
215.9
 30
0.0
 11
306.757143
 21
215.9
 31
0.0
  0
LINE
  5
374
330
A
100
AcDbEntity
  8
LAY-3
  6
Continuous
 62
     2
100
AcDbLine
 10
28.15
 20
248.4
 30
0.0
 11
306.757143
 21
248.4
 31
0.0
  0
LINE
  5
375
330
A
100
AcDbEntity
  8
LAY-3
  6
Continuous
 62
     2
100
AcDbLine
 10
28.15
 20
253.4
 30
0.0
 11
306.757143
 21
253.4
 31
0.0
  0
TEXT
  5
381
330
A
100
AcDbEntity
  8
LAY-3
  6
Continuous
 62
     7
100
AcDbText
 10
147.9271670059273
 20
261.725
 30
0.0
 40
10.0
  1
ＬＴコネクタ
  7
EXCADSTD
 72
     1
 11
182.593833672594
 21
266.725
 31
0.0
100
AcDbText
 73
     2
  0
LINE
  5
390
330
A
100
AcDbEntity
  8
LAY-3
  6
Continuous
 62
     2
100
AcDbLine
 10
28.15
 20
280.05
 30
0.0
 11
28.15
 21
178.4
 31
0.0
  0
LINE
  5
392
330
A
100
AcDbEntity
  8
LAY-3
  6
Continuous
 62
     2
100
AcDbLine
 10
306.757143
 20
280.0499999999999
 30
0.0
 11
306.757143
 21
178.3999999999999
 31
0.0
  0
LINE
  5
393
330
A
100
AcDbEntity
  8
LAY-3
  6
Continuous
 62
     2
100
AcDbLine
 10
251.035714
 20
253.4
 30
0.0
 11
251.035714
 21
178.4
 31
0.0
  0
LINE
  5
394
330
A
100
AcDbEntity
  8
LAY-3
  6
Continuous
 62
     2
100
AcDbLine
 10
195.314286
 20
253.4
 30
0.0
 11
195.314286
 21
178.4
 31
0.0
  0
LINE
  5
395
330
A
100
AcDbEntity
  8
LAY-3
  6
Continuous
 62
     2
100
AcDbLine
 10
139.592857
 20
253.4
 30
0.0
 11
139.592857
 21
178.4
 31
0.0
  0
LINE
  5
396
330
A
100
AcDbEntity
  8
LAY-3
  6
Continuous
 62
     2
100
AcDbLine
 10
83.871429
 20
253.4
 30
0.0
 11
83.871429
 21
178.4
 31
0.0
  0
LINE
  5
398
330
A
100
AcDbEntity
  8
LAY-4
  6
Continuous
 62
     2
100
AcDbLine
 10
110.3085295
 20
272.2
 30
0.0
 11
111.7611135
 21
272.2
 31
0.0
  0
LINE
  5
399
330
A
100
AcDbEntity
  8
LAY-4
  6
Continuous
 62
     2
100
AcDbLine
 10
109.2769815
 20
271.95
 30
0.0
 11
112.7926615
 21
271.95
 31
0.0
  0
LINE
  5
39A
330
A
100
AcDbEntity
  8
LAY-4
  6
Continuous
 62
     2
100
AcDbLine
 10
108.6837575
 20
271.7
 30
0.0
 11
113.3858855
 21
271.7
 31
0.0
  0
LINE
  5
39B
330
A
100
AcDbEntity
  8
LAY-4
  6
Continuous
 62
     2
100
AcDbLine
 10
108.2348215
 20
271.45
 30
0.0
 11
113.8348215
 21
271.45
 31
0.0
  0
LINE
  5
39C
330
A
100
AcDbEntity
  8
LAY-4
  6
Continuous
 62
     2
100
AcDbLine
 10
107.8681985
 20
271.2
 30
0.0
 11
114.2014445
 21
271.2
 31
0.0
  0
LINE
  5
39D
330
A
100
AcDbEntity
  8
LAY-4
  6
Continuous
 62
     2
100
AcDbLine
 10
107.5577535
 20
270.95
 30
0.0
 11
114.5118895
 21
270.95
 31
0.0
  0
LINE
  5
39E
330
A
100
AcDbEntity
  8
LAY-4
  6
Continuous
 62
     2
100
AcDbLine
 10
98.53482150000003
 20
270.7
 30
0.0
 11
106.5905785
 21
270.7
 31
0.0
  0
LINE
  5
39F
330
A
100
AcDbEntity
  8
LAY-4
  6
Continuous
 62
     2
100
AcDbLine
 10
107.2894915
 20
270.7
 30
0.0
 11
114.7801515
 21
270.7
 31
0.0
  0
LINE
  5
3A0
330
A
100
AcDbEntity
  8
LAY-4
  6
Continuous
 62
     2
100
AcDbLine
 10
115.4790645
 20
270.7
 30
0.0
 11
121.5348215
 21
270.7
 31
0.0
  0
LINE
  5
3A1
330
A
100
AcDbEntity
  8
LAY-4
  6
Continuous
 62
     2
100
AcDbLine
 10
122.3848215
 20
270.7
 30
0.0
 11
129.0848215
 21
270.7
 31
0.0
  0
LINE
  5
3A2
330
A
100
AcDbEntity
  8
LAY-4
  6
Continuous
 62
     2
100
AcDbLine
 10
129.8348215
 20
270.7
 30
0.0
 11
131.5348215
 21
270.7
 31
0.0
  0
LINE
  5
3A3
330
A
100
AcDbEntity
  8
LAY-4
  6
Continuous
 62
     2
100
AcDbLine
 10
135.0348215
 20
270.7
 30
0.0
 11
136.7348215
 21
270.7
 31
0.0
  0
LINE
  5
3A4
330
A
100
AcDbEntity
  8
LAY-4
  6
Continuous
 62
     2
100
AcDbLine
 10
98.53482150000003
 20
270.45
 30
0.0
 11
106.3911375
 21
270.45
 31
0.0
  0
LINE
  5
3A5
330
A
100
AcDbEntity
  8
LAY-4
  6
Continuous
 62
     2
100
AcDbLine
 10
107.0548715
 20
270.45
 30
0.0
 11
115.0147715
 21
270.45
 31
0.0
  0
LINE
  5
3A6
330
A
100
AcDbEntity
  8
LAY-4
  6
Continuous
 62
     2
100
AcDbLine
 10
115.6785055
 20
270.45
 30
0.0
 11
121.5348215
 21
270.45
 31
0.0
  0
LINE
  5
3A7
330
A
100
AcDbEntity
  8
LAY-4
  6
Continuous
 62
     2
100
AcDbLine
 10
122.3848215
 20
270.45
 30
0.0
 11
129.0848215
 21
270.45
 31
0.0
  0
LINE
  5
3A8
330
A
100
AcDbEntity
  8
LAY-4
  6
Continuous
 62
     2
100
AcDbLine
 10
129.8348215
 20
270.45
 30
0.0
 11
131.6993435
 21
270.45
 31
0.0
  0
LINE
  5
3A9
330
A
100
AcDbEntity
  8
LAY-4
  6
Continuous
 62
     2
100
AcDbLine
 10
135.0348215
 20
270.45
 30
0.0
 11
136.7348215
 21
270.45
 31
0.0
  0
LINE
  5
3AA
330
A
100
AcDbEntity
  8
LAY-4
  6
Continuous
 62
     2
100
AcDbLine
 10
98.53482150000003
 20
270.2
 30
0.0
 11
106.2128615
 21
270.2
 31
0.0
  0
LINE
  5
3AB
330
A
100
AcDbEntity
  8
LAY-4
  6
Continuous
 62
     2
100
AcDbLine
 10
106.8482355
 20
270.2
 30
0.0
 11
109.7357835
 21
270.2
 31
0.0
  0
LINE
  5
3AC
330
A
100
AcDbEntity
  8
LAY-4
  6
Continuous
 62
     2
100
AcDbLine
 10
112.3338595
 20
270.2
 30
0.0
 11
115.2214075
 21
270.2
 31
0.0
  0
LINE
  5
3AD
330
A
100
AcDbEntity
  8
LAY-4
  6
Continuous
 62
     2
100
AcDbLine
 10
115.8567815
 20
270.2
 30
0.0
 11
121.5348215
 21
270.2
 31
0.0
  0
LINE
  5
3AE
330
A
100
AcDbEntity
  8
LAY-4
  6
Continuous
 62
     2
100
AcDbLine
 10
122.3848215
 20
270.2
 30
0.0
 11
129.0848215
 21
270.2
 31
0.0
  0
LINE
  5
3AF
330
A
100
AcDbEntity
  8
LAY-4
  6
Continuous
 62
     2
100
AcDbLine
 10
129.8348215
 20
270.2
 30
0.0
 11
131.8638654999999
 21
270.2
 31
0.0
  0
LINE
  5
3B0
330
A
100
AcDbEntity
  8
LAY-4
  6
Continuous
 62
     2
100
AcDbLine
 10
135.0348215
 20
270.2
 30
0.0
 11
136.7348215
 21
270.2
 31
0.0
  0
LINE
  5
3B1
330
A
100
AcDbEntity
  8
LAY-4
  6
Continuous
 62
     2
100
AcDbLine
 10
98.53482150000003
 20
269.95
 30
0.0
 11
106.0534765
 21
269.95
 31
0.0
  0
LINE
  5
3B2
330
A
100
AcDbEntity
  8
LAY-4
  6
Continuous
 62
     2
100
AcDbLine
 10
106.6656115
 20
269.95
 30
0.0
 11
109.2320455
 21
269.95
 31
0.0
  0
LINE
  5
3B3
330
A
100
AcDbEntity
  8
LAY-4
  6
Continuous
 62
     2
100
AcDbLine
 10
112.8375975
 20
269.95
 30
0.0
 11
115.4040315
 21
269.95
 31
0.0
  0
LINE
  5
3B4
330
A
100
AcDbEntity
  8
LAY-4
  6
Continuous
 62
     2
100
AcDbLine
 10
116.0161665
 20
269.95
 30
0.0
 11
121.5348215
 21
269.95
 31
0.0
  0
LINE
  5
3B5
330
A
100
AcDbEntity
  8
LAY-4
  6
Continuous
 62
     2
100
AcDbLine
 10
122.3848215
 20
269.95
 30
0.0
 11
129.0848215
 21
269.95
 31
0.0
  0
LINE
  5
3B6
330
A
100
AcDbEntity
  8
LAY-4
  6
Continuous
 62
     2
100
AcDbLine
 10
129.8348215
 20
269.95
 30
0.0
 11
132.0283875
 21
269.95
 31
0.0
  0
LINE
  5
3B7
330
A
100
AcDbEntity
  8
LAY-4
  6
Continuous
 62
     2
100
AcDbLine
 10
135.0348215
 20
269.95
 30
0.0
 11
136.7348215
 21
269.95
 31
0.0
  0
LINE
  5
3B8
330
A
100
AcDbEntity
  8
LAY-4
  6
Continuous
 62
     2
100
AcDbLine
 10
98.53482150000003
 20
269.7
 30
0.0
 11
105.9112195
 21
269.7
 31
0.0
  0
LINE
  5
3B9
330
A
100
AcDbEntity
  8
LAY-4
  6
Continuous
 62
     2
100
AcDbLine
 10
106.5040935
 20
269.7
 30
0.0
 11
108.8697575
 21
269.7
 31
0.0
  0
LINE
  5
3BA
330
A
100
AcDbEntity
  8
LAY-4
  6
Continuous
 62
     2
100
AcDbLine
 10
113.1998855
 20
269.7
 30
0.0
 11
115.5655495
 21
269.7
 31
0.0
  0
LINE
  5
3BB
330
A
100
AcDbEntity
  8
LAY-4
  6
Continuous
 62
     2
100
AcDbLine
 10
116.1584235
 20
269.7
 30
0.0
 11
121.5348215
 21
269.7
 31
0.0
  0
LINE
  5
3BC
330
A
100
AcDbEntity
  8
LAY-4
  6
Continuous
 62
     2
100
AcDbLine
 10
122.3848215
 20
269.7
 30
0.0
 11
129.0848215
 21
269.7
 31
0.0
  0
LINE
  5
3BD
330
A
100
AcDbEntity
  8
LAY-4
  6
Continuous
 62
     2
100
AcDbLine
 10
129.8348215
 20
269.7
 30
0.0
 11
132.1929095
 21
269.7
 31
0.0
  0
LINE
  5
3BE
330
A
100
AcDbEntity
  8
LAY-4
  6
Continuous
 62
     2
100
AcDbLine
 10
135.0348215
 20
269.7
 30
0.0
 11
136.7348215
 21
269.7
 31
0.0
  0
LINE
  5
3BF
330
A
100
AcDbEntity
  8
LAY-4
  6
Continuous
 62
     2
100
AcDbLine
 10
98.53482150000003
 20
269.45
 30
0.0
 11
105.7846975
 21
269.45
 31
0.0
  0
LINE
  5
3C0
330
A
100
AcDbEntity
  8
LAY-4
  6
Continuous
 62
     2
100
AcDbLine
 10
106.3614925
 20
269.45
 30
0.0
 11
108.5853315
 21
269.45
 31
0.0
  0
LINE
  5
3C1
330
A
100
AcDbEntity
  8
LAY-4
  6
Continuous
 62
     2
100
AcDbLine
 10
110.1559015
 20
269.45
 30
0.0
 11
111.9137415
 21
269.45
 31
0.0
  0
LINE
  5
3C2
330
A
100
AcDbEntity
  8
LAY-4
  6
Continuous
 62
     2
100
AcDbLine
 10
113.4843115
 20
269.45
 30
0.0
 11
115.7081505
 21
269.45
 31
0.0
  0
LINE
  5
3C3
330
A
100
AcDbEntity
  8
LAY-4
  6
Continuous
 62
     2
100
AcDbLine
 10
116.2849455
 20
269.45
 30
0.0
 11
121.5348215
 21
269.45
 31
0.0
  0
LINE
  5
3C4
330
A
100
AcDbEntity
  8
LAY-4
  6
Continuous
 62
     2
100
AcDbLine
 10
122.3848215
 20
269.45
 30
0.0
 11
129.0848215
 21
269.45
 31
0.0
  0
LINE
  5
3C5
330
A
100
AcDbEntity
  8
LAY-4
  6
Continuous
 62
     2
100
AcDbLine
 10
129.8348215
 20
269.45
 30
0.0
 11
132.3574315
 21
269.45
 31
0.0
  0
LINE
  5
3C6
330
A
100
AcDbEntity
  8
LAY-4
  6
Continuous
 62
     2
100
AcDbLine
 10
135.0348215
 20
269.45
 30
0.0
 11
136.7348215
 21
269.45
 31
0.0
  0
LINE
  5
3C7
330
A
100
AcDbEntity
  8
LAY-4
  6
Continuous
 62
     2
100
AcDbLine
 10
98.53482150000003
 20
269.2
 30
0.0
 11
105.6727975
 21
269.2
 31
0.0
  0
LINE
  5
3C8
330
A
100
AcDbEntity
  8
LAY-4
  6
Continuous
 62
     2
100
AcDbLine
 10
106.2361235
 20
269.2
 30
0.0
 11
108.3538705
 21
269.2
 31
0.0
  0
LINE
  5
3C9
330
A
100
AcDbEntity
  8
LAY-4
  6
Continuous
 62
     2
100
AcDbLine
 10
109.6348215
 20
269.2
 30
0.0
 11
112.4348215
 21
269.2
 31
0.0
  0
LINE
  5
3CA
330
A
100
AcDbEntity
  8
LAY-4
  6
Continuous
 62
     2
100
AcDbLine
 10
113.7157725
 20
269.2
 30
0.0
 11
115.8335195
 21
269.2
 31
0.0
  0
LINE
  5
3CB
330
A
100
AcDbEntity
  8
LAY-4
  6
Continuous
 62
     2
100
AcDbLine
 10
116.3968455
 20
269.2
 30
0.0
 11
121.5348215
 21
269.2
 31
0.0
  0
LINE
  5
3CC
330
A
100
AcDbEntity
  8
LAY-4
  6
Continuous
 62
     2
100
AcDbLine
 10
122.3848215
 20
269.2
 30
0.0
 11
129.0848215
 21
269.2
 31
0.0
  0
LINE
  5
3CD
330
A
100
AcDbEntity
  8
LAY-4
  6
Continuous
 62
     2
100
AcDbLine
 10
129.8348215
 20
269.2
 30
0.0
 11
132.5219535
 21
269.2
 31
0.0
  0
LINE
  5
3CE
330
A
100
AcDbEntity
  8
LAY-4
  6
Continuous
 62
     2
100
AcDbLine
 10
135.0348215
 20
269.2
 30
0.0
 11
136.7348215
 21
269.2
 31
0.0
  0
LINE
  5
3CF
330
A
100
AcDbEntity
  8
LAY-4
  6
Continuous
 62
     2
100
AcDbLine
 10
102.0348215
 20
268.95
 30
0.0
 11
103.7848215
 21
268.95
 31
0.0
  0
LINE
  5
3D0
330
A
100
AcDbEntity
  8
LAY-4
  6
Continuous
 62
     2
100
AcDbLine
 10
106.1266655
 20
268.95
 30
0.0
 11
108.1625405
 21
268.95
 31
0.0
  0
LINE
  5
3D1
330
A
100
AcDbEntity
  8
LAY-4
  6
Continuous
 62
     2
100
AcDbLine
 10
109.2962875
 20
268.95
 30
0.0
 11
112.7733555
 21
268.95
 31
0.0
  0
LINE
  5
3D2
330
A
100
AcDbEntity
  8
LAY-4
  6
Continuous
 62
     2
100
AcDbLine
 10
113.9071025
 20
268.95
 30
0.0
 11
115.9429775
 21
268.95
 31
0.0
  0
LINE
  5
3D3
330
A
100
AcDbEntity
  8
LAY-4
  6
Continuous
 62
     2
100
AcDbLine
 10
119.6063415
 20
268.95
 30
0.0
 11
121.5348215
 21
268.95
 31
0.0
  0
LINE
  5
3D4
330
A
100
AcDbEntity
  8
LAY-4
  6
Continuous
 62
     2
100
AcDbLine
 10
122.3848215
 20
268.95
 30
0.0
 11
124.1348215
 21
268.95
 31
0.0
  0
LINE
  5
3D5
330
A
100
AcDbEntity
  8
LAY-4
  6
Continuous
 62
     2
100
AcDbLine
 10
129.8348215
 20
268.95
 30
0.0
 11
132.6864755
 21
268.95
 31
0.0
  0
LINE
  5
3D6
330
A
100
AcDbEntity
  8
LAY-4
  6
Continuous
 62
     2
100
AcDbLine
 10
135.0348215
 20
268.95
 30
0.0
 11
136.7348215
 21
268.95
 31
0.0
  0
LINE
  5
3D7
330
A
100
AcDbEntity
  8
LAY-4
  6
Continuous
 62
     2
100
AcDbLine
 10
102.0348215
 20
268.7
 30
0.0
 11
103.7848215
 21
268.7
 31
0.0
  0
LINE
  5
3D8
330
A
100
AcDbEntity
  8
LAY-4
  6
Continuous
 62
     2
100
AcDbLine
 10
106.0320725
 20
268.7
 30
0.0
 11
108.0037325
 21
268.7
 31
0.0
  0
LINE
  5
3D9
330
A
100
AcDbEntity
  8
LAY-4
  6
Continuous
 62
     2
100
AcDbLine
 10
109.0448465
 20
268.7
 30
0.0
 11
113.0247965
 21
268.7
 31
0.0
  0
LINE
  5
3DA
330
A
100
AcDbEntity
  8
LAY-4
  6
Continuous
 62
     2
100
AcDbLine
 10
114.0659104999999
 20
268.7
 30
0.0
 11
116.0375705
 21
268.7
 31
0.0
  0
LINE
  5
3DB
330
A
100
AcDbEntity
  8
LAY-4
  6
Continuous
 62
     2
100
AcDbLine
 10
119.3809675
 20
268.7
 30
0.0
 11
121.3094464999999
 21
268.7
 31
0.0
  0
LINE
  5
3DC
330
A
100
AcDbEntity
  8
LAY-4
  6
Continuous
 62
     2
100
AcDbLine
 10
122.3848215
 20
268.7
 30
0.0
 11
124.1348215
 21
268.7
 31
0.0
  0
LINE
  5
3DD
330
A
100
AcDbEntity
  8
LAY-4
  6
Continuous
 62
     2
100
AcDbLine
 10
129.8348215
 20
268.7
 30
0.0
 11
132.8509975
 21
268.7
 31
0.0
  0
LINE
  5
3DE
330
A
100
AcDbEntity
  8
LAY-4
  6
Continuous
 62
     2
100
AcDbLine
 10
135.0348215
 20
268.7
 30
0.0
 11
136.7348215
 21
268.7
 31
0.0
  0
LINE
  5
3DF
330
A
100
AcDbEntity
  8
LAY-4
  6
Continuous
 62
     2
100
AcDbLine
 10
102.0348215
 20
268.45
 30
0.0
 11
103.7848215
 21
268.45
 31
0.0
  0
LINE
  5
3E0
330
A
100
AcDbEntity
  8
LAY-4
  6
Continuous
 62
     2
100
AcDbLine
 10
105.9515155
 20
268.45
 30
0.0
 11
107.8725435
 21
268.45
 31
0.0
  0
LINE
  5
3E1
330
A
100
AcDbEntity
  8
LAY-4
  6
Continuous
 62
     2
100
AcDbLine
 10
108.8502165
 20
268.45
 30
0.0
 11
113.2194265
 21
268.45
 31
0.0
  0
LINE
  5
3E2
330
A
100
AcDbEntity
  8
LAY-4
  6
Continuous
 62
     2
100
AcDbLine
 10
114.1970995
 20
268.45
 30
0.0
 11
116.1181275
 21
268.45
 31
0.0
  0
LINE
  5
3E3
330
A
100
AcDbEntity
  8
LAY-4
  6
Continuous
 62
     2
100
AcDbLine
 10
119.1555925
 20
268.45
 30
0.0
 11
121.0840725
 21
268.45
 31
0.0
  0
LINE
  5
3E4
330
A
100
AcDbEntity
  8
LAY-4
  6
Continuous
 62
     2
100
AcDbLine
 10
122.3848215
 20
268.45
 30
0.0
 11
124.1348215
 21
268.45
 31
0.0
  0
LINE
  5
3E5
330
A
100
AcDbEntity
  8
LAY-4
  6
Continuous
 62
     2
100
AcDbLine
 10
129.8348215
 20
268.45
 30
0.0
 11
131.5348215
 21
268.45
 31
0.0
  0
LINE
  5
3E6
330
A
100
AcDbEntity
  8
LAY-4
  6
Continuous
 62
     2
100
AcDbLine
 10
131.5798585
 20
268.45
 30
0.0
 11
133.0155205
 21
268.45
 31
0.0
  0
LINE
  5
3E7
330
A
100
AcDbEntity
  8
LAY-4
  6
Continuous
 62
     2
100
AcDbLine
 10
135.0348215
 20
268.45
 30
0.0
 11
136.7348215
 21
268.45
 31
0.0
  0
LINE
  5
3E8
330
A
100
AcDbEntity
  8
LAY-4
  6
Continuous
 62
     2
100
AcDbLine
 10
102.0348215
 20
268.2
 30
0.0
 11
103.7848215
 21
268.2
 31
0.0
  0
LINE
  5
3E9
330
A
100
AcDbEntity
  8
LAY-4
  6
Continuous
 62
     2
100
AcDbLine
 10
105.8843365
 20
268.2
 30
0.0
 11
107.7656475
 21
268.2
 31
0.0
  0
LINE
  5
3EA
330
A
100
AcDbEntity
  8
LAY-4
  6
Continuous
 62
     2
100
AcDbLine
 10
108.6981575
 20
268.2
 30
0.0
 11
113.3714855
 21
268.2
 31
0.0
  0
LINE
  5
3EB
330
A
100
AcDbEntity
  8
LAY-4
  6
Continuous
 62
     2
100
AcDbLine
 10
114.3039955
 20
268.2
 30
0.0
 11
116.1853065
 21
268.2
 31
0.0
  0
LINE
  5
3EC
330
A
100
AcDbEntity
  8
LAY-4
  6
Continuous
 62
     2
100
AcDbLine
 10
118.9302175
 20
268.2
 30
0.0
 11
120.8586975
 21
268.2
 31
0.0
  0
LINE
  5
3ED
330
A
100
AcDbEntity
  8
LAY-4
  6
Continuous
 62
     2
100
AcDbLine
 10
122.3848215
 20
268.2
 30
0.0
 11
124.1348215
 21
268.2
 31
0.0
  0
LINE
  5
3EE
330
A
100
AcDbEntity
  8
LAY-4
  6
Continuous
 62
     2
100
AcDbLine
 10
129.8348215
 20
268.2
 30
0.0
 11
131.5348215
 21
268.2
 31
0.0
  0
LINE
  5
3EF
330
A
100
AcDbEntity
  8
LAY-4
  6
Continuous
 62
     2
100
AcDbLine
 10
131.7443805
 20
268.2
 30
0.0
 11
133.1800425
 21
268.2
 31
0.0
  0
LINE
  5
3F0
330
A
100
AcDbEntity
  8
LAY-4
  6
Continuous
 62
     2
100
AcDbLine
 10
135.0348215
 20
268.2
 30
0.0
 11
136.7348215
 21
268.2
 31
0.0
  0
LINE
  5
3F1
330
A
100
AcDbEntity
  8
LAY-4
  6
Continuous
 62
     2
100
AcDbLine
 10
102.0348215
 20
267.95
 30
0.0
 11
103.7848215
 21
267.95
 31
0.0
  0
LINE
  5
3F2
330
A
100
AcDbEntity
  8
LAY-4
  6
Continuous
 62
     2
100
AcDbLine
 10
105.8300165
 20
267.95
 30
0.0
 11
107.6807195
 21
267.95
 31
0.0
  0
LINE
  5
3F3
330
A
100
AcDbEntity
  8
LAY-4
  6
Continuous
 62
     2
100
AcDbLine
 10
108.5807435
 20
267.95
 30
0.0
 11
113.4888995
 21
267.95
 31
0.0
  0
LINE
  5
3F4
330
A
100
AcDbEntity
  8
LAY-4
  6
Continuous
 62
     2
100
AcDbLine
 10
114.3889235
 20
267.95
 30
0.0
 11
116.2396265
 21
267.95
 31
0.0
  0
LINE
  5
3F5
330
A
100
AcDbEntity
  8
LAY-4
  6
Continuous
 62
     2
100
AcDbLine
 10
118.7048425
 20
267.95
 30
0.0
 11
120.6333225
 21
267.95
 31
0.0
  0
LINE
  5
3F6
330
A
100
AcDbEntity
  8
LAY-4
  6
Continuous
 62
     2
100
AcDbLine
 10
122.3848215
 20
267.95
 30
0.0
 11
124.1348215
 21
267.95
 31
0.0
  0
LINE
  5
3F7
330
A
100
AcDbEntity
  8
LAY-4
  6
Continuous
 62
     2
100
AcDbLine
 10
129.8348215
 20
267.95
 30
0.0
 11
131.5348215
 21
267.95
 31
0.0
  0
LINE
  5
3F8
330
A
100
AcDbEntity
  8
LAY-4
  6
Continuous
 62
     2
100
AcDbLine
 10
131.9089025
 20
267.95
 30
0.0
 11
133.3445645
 21
267.95
 31
0.0
  0
LINE
  5
3F9
330
A
100
AcDbEntity
  8
LAY-4
  6
Continuous
 62
     2
100
AcDbLine
 10
135.0348215
 20
267.95
 30
0.0
 11
136.7348215
 21
267.95
 31
0.0
  0
LINE
  5
3FA
330
A
100
AcDbEntity
  8
LAY-4
  6
Continuous
 62
     2
100
AcDbLine
 10
102.0348215
 20
267.7
 30
0.0
 11
103.7848215
 21
267.7
 31
0.0
  0
LINE
  5
3FB
330
A
100
AcDbEntity
  8
LAY-4
  6
Continuous
 62
     2
100
AcDbLine
 10
105.7881555
 20
267.7
 30
0.0
 11
107.6161225
 21
267.7
 31
0.0
  0
LINE
  5
3FC
330
A
100
AcDbEntity
  8
LAY-4
  6
Continuous
 62
     2
100
AcDbLine
 10
108.4931685
 20
267.7
 30
0.0
 11
113.5764745
 21
267.7
 31
0.0
  0
LINE
  5
3FD
330
A
100
AcDbEntity
  8
LAY-4
  6
Continuous
 62
     2
100
AcDbLine
 10
114.4535205
 20
267.7
 30
0.0
 11
116.2814875
 21
267.7
 31
0.0
  0
LINE
  5
3FE
330
A
100
AcDbEntity
  8
LAY-4
  6
Continuous
 62
     2
100
AcDbLine
 10
118.4794685
 20
267.7
 30
0.0
 11
120.4079475
 21
267.7
 31
0.0
  0
LINE
  5
3FF
330
A
100
AcDbEntity
  8
LAY-4
  6
Continuous
 62
     2
100
AcDbLine
 10
122.3848215
 20
267.7
 30
0.0
 11
129.0848215
 21
267.7
 31
0.0
  0
LINE
  5
400
330
A
100
AcDbEntity
  8
LAY-4
  6
Continuous
 62
     2
100
AcDbLine
 10
129.8348215
 20
267.7
 30
0.0
 11
131.5348215
 21
267.7
 31
0.0
  0
LINE
  5
401
330
A
100
AcDbEntity
  8
LAY-4
  6
Continuous
 62
     2
100
AcDbLine
 10
132.0734245
 20
267.7
 30
0.0
 11
133.5090865
 21
267.7
 31
0.0
  0
LINE
  5
402
330
A
100
AcDbEntity
  8
LAY-4
  6
Continuous
 62
     2
100
AcDbLine
 10
135.0348215
 20
267.7
 30
0.0
 11
136.7348215
 21
267.7
 31
0.0
  0
LINE
  5
403
330
A
100
AcDbEntity
  8
LAY-4
  6
Continuous
 62
     2
100
AcDbLine
 10
102.0348215
 20
267.45
 30
0.0
 11
103.7848215
 21
267.45
 31
0.0
  0
LINE
  5
404
330
A
100
AcDbEntity
  8
LAY-4
  6
Continuous
 62
     2
100
AcDbLine
 10
105.7584595
 20
267.45
 30
0.0
 11
107.5707195
 21
267.45
 31
0.0
  0
LINE
  5
405
330
A
100
AcDbEntity
  8
LAY-4
  6
Continuous
 62
     2
100
AcDbLine
 10
108.4324185
 20
267.45
 30
0.0
 11
113.6372245
 21
267.45
 31
0.0
  0
LINE
  5
406
330
A
100
AcDbEntity
  8
LAY-4
  6
Continuous
 62
     2
100
AcDbLine
 10
114.4989235
 20
267.45
 30
0.0
 11
116.3111835
 21
267.45
 31
0.0
  0
LINE
  5
407
330
A
100
AcDbEntity
  8
LAY-4
  6
Continuous
 62
     2
100
AcDbLine
 10
118.2540935
 20
267.45
 30
0.0
 11
120.1825735
 21
267.45
 31
0.0
  0
LINE
  5
408
330
A
100
AcDbEntity
  8
LAY-4
  6
Continuous
 62
     2
100
AcDbLine
 10
122.3848215
 20
267.45
 30
0.0
 11
129.0848215
 21
267.45
 31
0.0
  0
LINE
  5
409
330
A
100
AcDbEntity
  8
LAY-4
  6
Continuous
 62
     2
100
AcDbLine
 10
129.8348215
 20
267.45
 30
0.0
 11
131.5348215
 21
267.45
 31
0.0
  0
LINE
  5
40A
330
A
100
AcDbEntity
  8
LAY-4
  6
Continuous
 62
     2
100
AcDbLine
 10
132.2379465
 20
267.45
 30
0.0
 11
133.6736085
 21
267.45
 31
0.0
  0
LINE
  5
40B
330
A
100
AcDbEntity
  8
LAY-4
  6
Continuous
 62
     2
100
AcDbLine
 10
135.0348215
 20
267.45
 30
0.0
 11
136.7348215
 21
267.45
 31
0.0
  0
LINE
  5
40C
330
A
100
AcDbEntity
  8
LAY-4
  6
Continuous
 62
     2
100
AcDbLine
 10
102.0348215
 20
267.2
 30
0.0
 11
103.7848215
 21
267.2
 31
0.0
  0
LINE
  5
40D
330
A
100
AcDbEntity
  8
LAY-4
  6
Continuous
 62
     2
100
AcDbLine
 10
105.7407215
 20
267.2
 30
0.0
 11
107.5437615
 21
267.2
 31
0.0
  0
LINE
  5
40E
330
A
100
AcDbEntity
  8
LAY-4
  6
Continuous
 62
     2
100
AcDbLine
 10
108.3966405
 20
267.2
 30
0.0
 11
113.6730025
 21
267.2
 31
0.0
  0
LINE
  5
40F
330
A
100
AcDbEntity
  8
LAY-4
  6
Continuous
 62
     2
100
AcDbLine
 10
114.5258815
 20
267.2
 30
0.0
 11
116.3289215
 21
267.2
 31
0.0
  0
LINE
  5
410
330
A
100
AcDbEntity
  8
LAY-4
  6
Continuous
 62
     2
100
AcDbLine
 10
118.0287185
 20
267.2
 30
0.0
 11
119.9571985
 21
267.2
 31
0.0
  0
LINE
  5
411
330
A
100
AcDbEntity
  8
LAY-4
  6
Continuous
 62
     2
100
AcDbLine
 10
122.3848215
 20
267.2
 30
0.0
 11
129.0848215
 21
267.2
 31
0.0
  0
LINE
  5
412
330
A
100
AcDbEntity
  8
LAY-4
  6
Continuous
 62
     2
100
AcDbLine
 10
129.8348215
 20
267.2
 30
0.0
 11
131.5348215
 21
267.2
 31
0.0
  0
LINE
  5
413
330
A
100
AcDbEntity
  8
LAY-4
  6
Continuous
 62
     2
100
AcDbLine
 10
132.4024685
 20
267.2
 30
0.0
 11
133.8381305
 21
267.2
 31
0.0
  0
LINE
  5
414
330
A
100
AcDbEntity
  8
LAY-4
  6
Continuous
 62
     2
100
AcDbLine
 10
135.0348215
 20
267.2
 30
0.0
 11
136.7348215
 21
267.2
 31
0.0
  0
LINE
  5
415
330
A
100
AcDbEntity
  8
LAY-4
  6
Continuous
 62
     2
100
AcDbLine
 10
102.0348215
 20
266.95
 30
0.0
 11
103.7848215
 21
266.95
 31
0.0
  0
LINE
  5
416
330
A
100
AcDbEntity
  8
LAY-4
  6
Continuous
 62
     2
100
AcDbLine
 10
105.7348214999999
 20
266.95
 30
0.0
 11
107.5348215
 21
266.95
 31
0.0
  0
LINE
  5
417
330
A
100
AcDbEntity
  8
LAY-4
  6
Continuous
 62
     2
100
AcDbLine
 10
108.3848215
 20
266.95
 30
0.0
 11
113.6848215
 21
266.95
 31
0.0
  0
LINE
  5
418
330
A
100
AcDbEntity
  8
LAY-4
  6
Continuous
 62
     2
100
AcDbLine
 10
114.5348215
 20
266.95
 30
0.0
 11
116.3348215
 21
266.95
 31
0.0
  0
LINE
  5
419
330
A
100
AcDbEntity
  8
LAY-4
  6
Continuous
 62
     2
100
AcDbLine
 10
117.8033435
 20
266.95
 30
0.0
 11
119.7318235
 21
266.95
 31
0.0
  0
LINE
  5
41A
330
A
100
AcDbEntity
  8
LAY-4
  6
Continuous
 62
     2
100
AcDbLine
 10
122.3848215
 20
266.95
 30
0.0
 11
129.0848215
 21
266.95
 31
0.0
  0
LINE
  5
41B
330
A
100
AcDbEntity
  8
LAY-4
  6
Continuous
 62
     2
100
AcDbLine
 10
129.8348215
 20
266.95
 30
0.0
 11
131.5348215
 21
266.95
 31
0.0
  0
LINE
  5
41C
330
A
100
AcDbEntity
  8
LAY-4
  6
Continuous
 62
     2
100
AcDbLine
 10
132.5669905
 20
266.95
 30
0.0
 11
134.0026525
 21
266.95
 31
0.0
  0
LINE
  5
41D
330
A
100
AcDbEntity
  8
LAY-4
  6
Continuous
 62
     2
100
AcDbLine
 10
135.0348215
 20
266.95
 30
0.0
 11
136.7348215
 21
266.95
 31
0.0
  0
LINE
  5
41E
330
A
100
AcDbEntity
  8
LAY-4
  6
Continuous
 62
     2
100
AcDbLine
 10
102.0348215
 20
266.7
 30
0.0
 11
103.7848215
 21
266.7
 31
0.0
  0
LINE
  5
41F
330
A
100
AcDbEntity
  8
LAY-4
  6
Continuous
 62
     2
100
AcDbLine
 10
105.7407215
 20
266.7
 30
0.0
 11
107.5437615
 21
266.7
 31
0.0
  0
LINE
  5
420
330
A
100
AcDbEntity
  8
LAY-4
  6
Continuous
 62
     2
100
AcDbLine
 10
108.3966405
 20
266.7
 30
0.0
 11
113.6730025
 21
266.7
 31
0.0
  0
LINE
  5
421
330
A
100
AcDbEntity
  8
LAY-4
  6
Continuous
 62
     2
100
AcDbLine
 10
114.5258815
 20
266.7
 30
0.0
 11
116.3289215
 21
266.7
 31
0.0
  0
LINE
  5
422
330
A
100
AcDbEntity
  8
LAY-4
  6
Continuous
 62
     2
100
AcDbLine
 10
117.5779695
 20
266.7
 30
0.0
 11
119.5064485
 21
266.7
 31
0.0
  0
LINE
  5
423
330
A
100
AcDbEntity
  8
LAY-4
  6
Continuous
 62
     2
100
AcDbLine
 10
122.3848215
 20
266.7
 30
0.0
 11
129.0848215
 21
266.7
 31
0.0
  0
LINE
  5
424
330
A
100
AcDbEntity
  8
LAY-4
  6
Continuous
 62
     2
100
AcDbLine
 10
129.8348215
 20
266.7
 30
0.0
 11
131.5348215
 21
266.7
 31
0.0
  0
LINE
  5
425
330
A
100
AcDbEntity
  8
LAY-4
  6
Continuous
 62
     2
100
AcDbLine
 10
132.7315125
 20
266.7
 30
0.0
 11
134.1671745
 21
266.7
 31
0.0
  0
LINE
  5
426
330
A
100
AcDbEntity
  8
LAY-4
  6
Continuous
 62
     2
100
AcDbLine
 10
135.0348215
 20
266.7
 30
0.0
 11
136.7348215
 21
266.7
 31
0.0
  0
LINE
  5
427
330
A
100
AcDbEntity
  8
LAY-4
  6
Continuous
 62
     2
100
AcDbLine
 10
102.0348215
 20
266.45
 30
0.0
 11
103.7848215
 21
266.45
 31
0.0
  0
LINE
  5
428
330
A
100
AcDbEntity
  8
LAY-4
  6
Continuous
 62
     2
100
AcDbLine
 10
105.7584595
 20
266.45
 30
0.0
 11
107.5707195
 21
266.45
 31
0.0
  0
LINE
  5
429
330
A
100
AcDbEntity
  8
LAY-4
  6
Continuous
 62
     2
100
AcDbLine
 10
108.4324185
 20
266.45
 30
0.0
 11
113.6372245
 21
266.45
 31
0.0
  0
LINE
  5
42A
330
A
100
AcDbEntity
  8
LAY-4
  6
Continuous
 62
     2
100
AcDbLine
 10
114.4989235
 20
266.45
 30
0.0
 11
116.3111835
 21
266.45
 31
0.0
  0
LINE
  5
42B
330
A
100
AcDbEntity
  8
LAY-4
  6
Continuous
 62
     2
100
AcDbLine
 10
117.3525945
 20
266.45
 30
0.0
 11
119.2810745
 21
266.45
 31
0.0
  0
LINE
  5
42C
330
A
100
AcDbEntity
  8
LAY-4
  6
Continuous
 62
     2
100
AcDbLine
 10
122.3848215
 20
266.45
 30
0.0
 11
129.0848215
 21
266.45
 31
0.0
  0
LINE
  5
42D
330
A
100
AcDbEntity
  8
LAY-4
  6
Continuous
 62
     2
100
AcDbLine
 10
129.8348215
 20
266.45
 30
0.0
 11
131.5348215
 21
266.45
 31
0.0
  0
LINE
  5
42E
330
A
100
AcDbEntity
  8
LAY-4
  6
Continuous
 62
     2
100
AcDbLine
 10
132.8960345
 20
266.45
 30
0.0
 11
134.3316965
 21
266.45
 31
0.0
  0
LINE
  5
42F
330
A
100
AcDbEntity
  8
LAY-4
  6
Continuous
 62
     2
100
AcDbLine
 10
135.0348215
 20
266.45
 30
0.0
 11
136.7348215
 21
266.45
 31
0.0
  0
LINE
  5
430
330
A
100
AcDbEntity
  8
LAY-4
  6
Continuous
 62
     2
100
AcDbLine
 10
102.0348215
 20
266.2
 30
0.0
 11
103.7848215
 21
266.2
 31
0.0
  0
LINE
  5
431
330
A
100
AcDbEntity
  8
LAY-4
  6
Continuous
 62
     2
100
AcDbLine
 10
105.7881555
 20
266.2
 30
0.0
 11
107.6161225
 21
266.2
 31
0.0
  0
LINE
  5
432
330
A
100
AcDbEntity
  8
LAY-4
  6
Continuous
 62
     2
100
AcDbLine
 10
108.4931685
 20
266.2
 30
0.0
 11
113.5764745
 21
266.2
 31
0.0
  0
LINE
  5
433
330
A
100
AcDbEntity
  8
LAY-4
  6
Continuous
 62
     2
100
AcDbLine
 10
114.4535205
 20
266.2
 30
0.0
 11
116.2814875
 21
266.2
 31
0.0
  0
LINE
  5
434
330
A
100
AcDbEntity
  8
LAY-4
  6
Continuous
 62
     2
100
AcDbLine
 10
117.1272195
 20
266.2
 30
0.0
 11
119.0556995
 21
266.2
 31
0.0
  0
LINE
  5
435
330
A
100
AcDbEntity
  8
LAY-4
  6
Continuous
 62
     2
100
AcDbLine
 10
122.3848215
 20
266.2
 30
0.0
 11
124.1348215
 21
266.2
 31
0.0
  0
LINE
  5
436
330
A
100
AcDbEntity
  8
LAY-4
  6
Continuous
 62
     2
100
AcDbLine
 10
129.8348215
 20
266.2
 30
0.0
 11
131.5348215
 21
266.2
 31
0.0
  0
LINE
  5
437
330
A
100
AcDbEntity
  8
LAY-4
  6
Continuous
 62
     2
100
AcDbLine
 10
133.0605565
 20
266.2
 30
0.0
 11
134.4962185
 21
266.2
 31
0.0
  0
LINE
  5
438
330
A
100
AcDbEntity
  8
LAY-4
  6
Continuous
 62
     2
100
AcDbLine
 10
135.0348215
 20
266.2
 30
0.0
 11
136.7348215
 21
266.2
 31
0.0
  0
LINE
  5
439
330
A
100
AcDbEntity
  8
LAY-4
  6
Continuous
 62
     2
100
AcDbLine
 10
102.0348215
 20
265.95
 30
0.0
 11
103.7848215
 21
265.95
 31
0.0
  0
LINE
  5
43A
330
A
100
AcDbEntity
  8
LAY-4
  6
Continuous
 62
     2
100
AcDbLine
 10
105.8300165
 20
265.95
 30
0.0
 11
107.6807195
 21
265.95
 31
0.0
  0
LINE
  5
43B
330
A
100
AcDbEntity
  8
LAY-4
  6
Continuous
 62
     2
100
AcDbLine
 10
108.5807435
 20
265.95
 30
0.0
 11
113.4888995
 21
265.95
 31
0.0
  0
LINE
  5
43C
330
A
100
AcDbEntity
  8
LAY-4
  6
Continuous
 62
     2
100
AcDbLine
 10
114.3889235
 20
265.95
 30
0.0
 11
116.2396265
 21
265.95
 31
0.0
  0
LINE
  5
43D
330
A
100
AcDbEntity
  8
LAY-4
  6
Continuous
 62
     2
100
AcDbLine
 10
116.9018455
 20
265.95
 30
0.0
 11
118.8303245
 21
265.95
 31
0.0
  0
LINE
  5
43E
330
A
100
AcDbEntity
  8
LAY-4
  6
Continuous
 62
     2
100
AcDbLine
 10
122.3848215
 20
265.95
 30
0.0
 11
124.1348215
 21
265.95
 31
0.0
  0
LINE
  5
43F
330
A
100
AcDbEntity
  8
LAY-4
  6
Continuous
 62
     2
100
AcDbLine
 10
129.8348215
 20
265.95
 30
0.0
 11
131.5348215
 21
265.95
 31
0.0
  0
LINE
  5
440
330
A
100
AcDbEntity
  8
LAY-4
  6
Continuous
 62
     2
100
AcDbLine
 10
133.2250785
 20
265.95
 30
0.0
 11
134.6607405
 21
265.95
 31
0.0
  0
LINE
  5
441
330
A
100
AcDbEntity
  8
LAY-4
  6
Continuous
 62
     2
100
AcDbLine
 10
135.0348215
 20
265.95
 30
0.0
 11
136.7348215
 21
265.95
 31
0.0
  0
LINE
  5
442
330
A
100
AcDbEntity
  8
LAY-4
  6
Continuous
 62
     2
100
AcDbLine
 10
102.0348215
 20
265.7
 30
0.0
 11
103.7848215
 21
265.7
 31
0.0
  0
LINE
  5
443
330
A
100
AcDbEntity
  8
LAY-4
  6
Continuous
 62
     2
100
AcDbLine
 10
105.8843365
 20
265.7
 30
0.0
 11
107.7656475
 21
265.7
 31
0.0
  0
LINE
  5
444
330
A
100
AcDbEntity
  8
LAY-4
  6
Continuous
 62
     2
100
AcDbLine
 10
108.6981575
 20
265.7
 30
0.0
 11
113.3714855
 21
265.7
 31
0.0
  0
LINE
  5
445
330
A
100
AcDbEntity
  8
LAY-4
  6
Continuous
 62
     2
100
AcDbLine
 10
114.3039955
 20
265.7
 30
0.0
 11
116.1853065
 21
265.7
 31
0.0
  0
LINE
  5
446
330
A
100
AcDbEntity
  8
LAY-4
  6
Continuous
 62
     2
100
AcDbLine
 10
116.7138445
 20
265.7
 30
0.0
 11
118.6049495
 21
265.7
 31
0.0
  0
LINE
  5
447
330
A
100
AcDbEntity
  8
LAY-4
  6
Continuous
 62
     2
100
AcDbLine
 10
122.3848215
 20
265.7
 30
0.0
 11
124.1348215
 21
265.7
 31
0.0
  0
LINE
  5
448
330
A
100
AcDbEntity
  8
LAY-4
  6
Continuous
 62
     2
100
AcDbLine
 10
129.8348215
 20
265.7
 30
0.0
 11
131.5348215
 21
265.7
 31
0.0
  0
LINE
  5
449
330
A
100
AcDbEntity
  8
LAY-4
  6
Continuous
 62
     2
100
AcDbLine
 10
133.3896005
 20
265.7
 30
0.0
 11
134.8252625
 21
265.7
 31
0.0
  0
LINE
  5
44A
330
A
100
AcDbEntity
  8
LAY-4
  6
Continuous
 62
     2
100
AcDbLine
 10
135.0348215
 20
265.7
 30
0.0
 11
136.7348215
 21
265.7
 31
0.0
  0
LINE
  5
44B
330
A
100
AcDbEntity
  8
LAY-4
  6
Continuous
 62
     2
100
AcDbLine
 10
102.0348215
 20
265.45
 30
0.0
 11
103.7848215
 21
265.45
 31
0.0
  0
LINE
  5
44C
330
A
100
AcDbEntity
  8
LAY-4
  6
Continuous
 62
     2
100
AcDbLine
 10
105.9515155
 20
265.45
 30
0.0
 11
107.8725435
 21
265.45
 31
0.0
  0
LINE
  5
44D
330
A
100
AcDbEntity
  8
LAY-4
  6
Continuous
 62
     2
100
AcDbLine
 10
108.8502165
 20
265.45
 30
0.0
 11
113.2194265
 21
265.45
 31
0.0
  0
LINE
  5
44E
330
A
100
AcDbEntity
  8
LAY-4
  6
Continuous
 62
     2
100
AcDbLine
 10
114.1970995
 20
265.45
 30
0.0
 11
116.1181275
 21
265.45
 31
0.0
  0
LINE
  5
44F
330
A
100
AcDbEntity
  8
LAY-4
  6
Continuous
 62
     2
100
AcDbLine
 10
116.6529885
 20
265.45
 30
0.0
 11
118.3795755
 21
265.45
 31
0.0
  0
LINE
  5
450
330
A
100
AcDbEntity
  8
LAY-4
  6
Continuous
 62
     2
100
AcDbLine
 10
122.3848215
 20
265.45
 30
0.0
 11
124.1348215
 21
265.45
 31
0.0
  0
LINE
  5
451
330
A
100
AcDbEntity
  8
LAY-4
  6
Continuous
 62
     2
100
AcDbLine
 10
129.8348215
 20
265.45
 30
0.0
 11
131.5348215
 21
265.45
 31
0.0
  0
LINE
  5
452
330
A
100
AcDbEntity
  8
LAY-4
  6
Continuous
 62
     2
100
AcDbLine
 10
133.5541225
 20
265.45
 30
0.0
 11
134.9897845
 21
265.45
 31
0.0
  0
LINE
  5
453
330
A
100
AcDbEntity
  8
LAY-4
  6
Continuous
 62
     2
100
AcDbLine
 10
135.0348215
 20
265.45
 30
0.0
 11
136.7348215
 21
265.45
 31
0.0
  0
LINE
  5
454
330
A
100
AcDbEntity
  8
LAY-4
  6
Continuous
 62
     2
100
AcDbLine
 10
102.0348215
 20
265.2
 30
0.0
 11
103.7848215
 21
265.2
 31
0.0
  0
LINE
  5
455
330
A
100
AcDbEntity
  8
LAY-4
  6
Continuous
 62
     2
100
AcDbLine
 10
106.0320725
 20
265.2
 30
0.0
 11
108.0037325
 21
265.2
 31
0.0
  0
LINE
  5
456
330
A
100
AcDbEntity
  8
LAY-4
  6
Continuous
 62
     2
100
AcDbLine
 10
109.0448465
 20
265.2
 30
0.0
 11
113.0247965
 21
265.2
 31
0.0
  0
LINE
  5
457
330
A
100
AcDbEntity
  8
LAY-4
  6
Continuous
 62
     2
100
AcDbLine
 10
114.0659104999999
 20
265.2
 30
0.0
 11
116.0375705
 21
265.2
 31
0.0
  0
LINE
  5
458
330
A
100
AcDbEntity
  8
LAY-4
  6
Continuous
 62
     2
100
AcDbLine
 10
116.5802065
 20
265.2
 30
0.0
 11
118.1542005
 21
265.2
 31
0.0
  0
LINE
  5
459
330
A
100
AcDbEntity
  8
LAY-4
  6
Continuous
 62
     2
100
AcDbLine
 10
122.3848215
 20
265.2
 30
0.0
 11
124.1348215
 21
265.2
 31
0.0
  0
LINE
  5
45A
330
A
100
AcDbEntity
  8
LAY-4
  6
Continuous
 62
     2
100
AcDbLine
 10
129.8348215
 20
265.2
 30
0.0
 11
131.5348215
 21
265.2
 31
0.0
  0
LINE
  5
45B
330
A
100
AcDbEntity
  8
LAY-4
  6
Continuous
 62
     2
100
AcDbLine
 10
133.7186455
 20
265.2
 30
0.0
 11
136.7348215
 21
265.2
 31
0.0
  0
LINE
  5
45C
330
A
100
AcDbEntity
  8
LAY-4
  6
Continuous
 62
     2
100
AcDbLine
 10
102.0348215
 20
264.95
 30
0.0
 11
103.7848215
 21
264.95
 31
0.0
  0
LINE
  5
45D
330
A
100
AcDbEntity
  8
LAY-4
  6
Continuous
 62
     2
100
AcDbLine
 10
106.1266655
 20
264.95
 30
0.0
 11
108.1625405
 21
264.95
 31
0.0
  0
LINE
  5
45E
330
A
100
AcDbEntity
  8
LAY-4
  6
Continuous
 62
     2
100
AcDbLine
 10
109.2962875
 20
264.95
 30
0.0
 11
112.7733555
 21
264.95
 31
0.0
  0
LINE
  5
45F
330
A
100
AcDbEntity
  8
LAY-4
  6
Continuous
 62
     2
100
AcDbLine
 10
113.9071025
 20
264.95
 30
0.0
 11
115.9429775
 21
264.95
 31
0.0
  0
LINE
  5
460
330
A
100
AcDbEntity
  8
LAY-4
  6
Continuous
 62
     2
100
AcDbLine
 10
116.4950225
 20
264.95
 30
0.0
 11
121.5348215
 21
264.95
 31
0.0
  0
LINE
  5
461
330
A
100
AcDbEntity
  8
LAY-4
  6
Continuous
 62
     2
100
AcDbLine
 10
122.3848215
 20
264.95
 30
0.0
 11
129.0848215
 21
264.95
 31
0.0
  0
LINE
  5
462
330
A
100
AcDbEntity
  8
LAY-4
  6
Continuous
 62
     2
100
AcDbLine
 10
129.8348215
 20
264.95
 30
0.0
 11
131.5348215
 21
264.95
 31
0.0
  0
LINE
  5
463
330
A
100
AcDbEntity
  8
LAY-4
  6
Continuous
 62
     2
100
AcDbLine
 10
133.8831675
 20
264.95
 30
0.0
 11
136.7348215
 21
264.95
 31
0.0
  0
LINE
  5
464
330
A
100
AcDbEntity
  8
LAY-4
  6
Continuous
 62
     2
100
AcDbLine
 10
102.0348215
 20
264.7
 30
0.0
 11
103.7848215
 21
264.7
 31
0.0
  0
LINE
  5
465
330
A
100
AcDbEntity
  8
LAY-4
  6
Continuous
 62
     2
100
AcDbLine
 10
106.2361235
 20
264.7
 30
0.0
 11
108.3538705
 21
264.7
 31
0.0
  0
LINE
  5
466
330
A
100
AcDbEntity
  8
LAY-4
  6
Continuous
 62
     2
100
AcDbLine
 10
109.6348215
 20
264.7
 30
0.0
 11
112.4348215
 21
264.7
 31
0.0
  0
LINE
  5
467
330
A
100
AcDbEntity
  8
LAY-4
  6
Continuous
 62
     2
100
AcDbLine
 10
113.7157725
 20
264.7
 30
0.0
 11
115.8335195
 21
264.7
 31
0.0
  0
LINE
  5
468
330
A
100
AcDbEntity
  8
LAY-4
  6
Continuous
 62
     2
100
AcDbLine
 10
116.3968455
 20
264.7
 30
0.0
 11
121.5348215
 21
264.7
 31
0.0
  0
LINE
  5
469
330
A
100
AcDbEntity
  8
LAY-4
  6
Continuous
 62
     2
100
AcDbLine
 10
122.3848215
 20
264.7
 30
0.0
 11
129.0848215
 21
264.7
 31
0.0
  0
LINE
  5
46A
330
A
100
AcDbEntity
  8
LAY-4
  6
Continuous
 62
     2
100
AcDbLine
 10
129.8348215
 20
264.7
 30
0.0
 11
131.5348215
 21
264.7
 31
0.0
  0
LINE
  5
46B
330
A
100
AcDbEntity
  8
LAY-4
  6
Continuous
 62
     2
100
AcDbLine
 10
134.0476895
 20
264.7
 30
0.0
 11
136.7348215
 21
264.7
 31
0.0
  0
LINE
  5
46C
330
A
100
AcDbEntity
  8
LAY-4
  6
Continuous
 62
     2
100
AcDbLine
 10
102.0348215
 20
264.45
 30
0.0
 11
103.7848215
 21
264.45
 31
0.0
  0
LINE
  5
46D
330
A
100
AcDbEntity
  8
LAY-4
  6
Continuous
 62
     2
100
AcDbLine
 10
106.3614925
 20
264.45
 30
0.0
 11
108.5853315
 21
264.45
 31
0.0
  0
LINE
  5
46E
330
A
100
AcDbEntity
  8
LAY-4
  6
Continuous
 62
     2
100
AcDbLine
 10
110.1559015
 20
264.45
 30
0.0
 11
111.9137415
 21
264.45
 31
0.0
  0
LINE
  5
46F
330
A
100
AcDbEntity
  8
LAY-4
  6
Continuous
 62
     2
100
AcDbLine
 10
113.4843115
 20
264.45
 30
0.0
 11
115.7081505
 21
264.45
 31
0.0
  0
LINE
  5
470
330
A
100
AcDbEntity
  8
LAY-4
  6
Continuous
 62
     2
100
AcDbLine
 10
116.2849455
 20
264.45
 30
0.0
 11
121.5348215
 21
264.45
 31
0.0
  0
LINE
  5
471
330
A
100
AcDbEntity
  8
LAY-4
  6
Continuous
 62
     2
100
AcDbLine
 10
122.3848215
 20
264.45
 30
0.0
 11
129.0848215
 21
264.45
 31
0.0
  0
LINE
  5
472
330
A
100
AcDbEntity
  8
LAY-4
  6
Continuous
 62
     2
100
AcDbLine
 10
129.8348215
 20
264.45
 30
0.0
 11
131.5348215
 21
264.45
 31
0.0
  0
LINE
  5
473
330
A
100
AcDbEntity
  8
LAY-4
  6
Continuous
 62
     2
100
AcDbLine
 10
134.2122115
 20
264.45
 30
0.0
 11
136.7348215
 21
264.45
 31
0.0
  0
LINE
  5
474
330
A
100
AcDbEntity
  8
LAY-4
  6
Continuous
 62
     2
100
AcDbLine
 10
102.0348215
 20
264.2
 30
0.0
 11
103.7848215
 21
264.2
 31
0.0
  0
LINE
  5
475
330
A
100
AcDbEntity
  8
LAY-4
  6
Continuous
 62
     2
100
AcDbLine
 10
106.5040935
 20
264.2
 30
0.0
 11
108.8697575
 21
264.2
 31
0.0
  0
LINE
  5
476
330
A
100
AcDbEntity
  8
LAY-4
  6
Continuous
 62
     2
100
AcDbLine
 10
113.1998855
 20
264.2
 30
0.0
 11
115.5655495
 21
264.2
 31
0.0
  0
LINE
  5
477
330
A
100
AcDbEntity
  8
LAY-4
  6
Continuous
 62
     2
100
AcDbLine
 10
116.1584235
 20
264.2
 30
0.0
 11
121.5348215
 21
264.2
 31
0.0
  0
LINE
  5
478
330
A
100
AcDbEntity
  8
LAY-4
  6
Continuous
 62
     2
100
AcDbLine
 10
122.3848215
 20
264.2
 30
0.0
 11
129.0848215
 21
264.2
 31
0.0
  0
LINE
  5
479
330
A
100
AcDbEntity
  8
LAY-4
  6
Continuous
 62
     2
100
AcDbLine
 10
129.8348215
 20
264.2
 30
0.0
 11
131.5348215
 21
264.2
 31
0.0
  0
LINE
  5
47A
330
A
100
AcDbEntity
  8
LAY-4
  6
Continuous
 62
     2
100
AcDbLine
 10
134.3767335
 20
264.2
 30
0.0
 11
136.7348215
 21
264.2
 31
0.0
  0
LINE
  5
47B
330
A
100
AcDbEntity
  8
LAY-4
  6
Continuous
 62
     2
100
AcDbLine
 10
102.0348215
 20
263.95
 30
0.0
 11
103.7848215
 21
263.95
 31
0.0
  0
LINE
  5
47C
330
A
100
AcDbEntity
  8
LAY-4
  6
Continuous
 62
     2
100
AcDbLine
 10
106.6656115
 20
263.95
 30
0.0
 11
109.2320455
 21
263.95
 31
0.0
  0
LINE
  5
47D
330
A
100
AcDbEntity
  8
LAY-4
  6
Continuous
 62
     2
100
AcDbLine
 10
112.8375975
 20
263.95
 30
0.0
 11
115.4040315
 21
263.95
 31
0.0
  0
LINE
  5
47E
330
A
100
AcDbEntity
  8
LAY-4
  6
Continuous
 62
     2
100
AcDbLine
 10
116.0161665
 20
263.95
 30
0.0
 11
121.5348215
 21
263.95
 31
0.0
  0
LINE
  5
47F
330
A
100
AcDbEntity
  8
LAY-4
  6
Continuous
 62
     2
100
AcDbLine
 10
122.3848215
 20
263.95
 30
0.0
 11
129.0848215
 21
263.95
 31
0.0
  0
LINE
  5
480
330
A
100
AcDbEntity
  8
LAY-4
  6
Continuous
 62
     2
100
AcDbLine
 10
129.8348215
 20
263.95
 30
0.0
 11
131.5348215
 21
263.95
 31
0.0
  0
LINE
  5
481
330
A
100
AcDbEntity
  8
LAY-4
  6
Continuous
 62
     2
100
AcDbLine
 10
134.5412555
 20
263.95
 30
0.0
 11
136.7348215
 21
263.95
 31
0.0
  0
LINE
  5
482
330
A
100
AcDbEntity
  8
LAY-4
  6
Continuous
 62
     2
100
AcDbLine
 10
102.0348215
 20
263.7
 30
0.0
 11
103.7848215
 21
263.7
 31
0.0
  0
LINE
  5
483
330
A
100
AcDbEntity
  8
LAY-4
  6
Continuous
 62
     2
100
AcDbLine
 10
106.8482355
 20
263.7
 30
0.0
 11
109.7357835
 21
263.7
 31
0.0
  0
LINE
  5
484
330
A
100
AcDbEntity
  8
LAY-4
  6
Continuous
 62
     2
100
AcDbLine
 10
112.3338595
 20
263.7
 30
0.0
 11
115.2214075
 21
263.7
 31
0.0
  0
LINE
  5
485
330
A
100
AcDbEntity
  8
LAY-4
  6
Continuous
 62
     2
100
AcDbLine
 10
115.8567815
 20
263.7
 30
0.0
 11
121.5348215
 21
263.7
 31
0.0
  0
LINE
  5
486
330
A
100
AcDbEntity
  8
LAY-4
  6
Continuous
 62
     2
100
AcDbLine
 10
122.3848215
 20
263.7
 30
0.0
 11
129.0848215
 21
263.7
 31
0.0
  0
LINE
  5
487
330
A
100
AcDbEntity
  8
LAY-4
  6
Continuous
 62
     2
100
AcDbLine
 10
129.8348215
 20
263.7
 30
0.0
 11
131.5348215
 21
263.7
 31
0.0
  0
LINE
  5
488
330
A
100
AcDbEntity
  8
LAY-4
  6
Continuous
 62
     2
100
AcDbLine
 10
134.7057775
 20
263.7
 30
0.0
 11
136.7348215
 21
263.7
 31
0.0
  0
LINE
  5
489
330
A
100
AcDbEntity
  8
LAY-4
  6
Continuous
 62
     2
100
AcDbLine
 10
102.0348215
 20
263.45
 30
0.0
 11
103.7848215
 21
263.45
 31
0.0
  0
LINE
  5
48A
330
A
100
AcDbEntity
  8
LAY-4
  6
Continuous
 62
     2
100
AcDbLine
 10
107.0548715
 20
263.45
 30
0.0
 11
115.0147715
 21
263.45
 31
0.0
  0
LINE
  5
48B
330
A
100
AcDbEntity
  8
LAY-4
  6
Continuous
 62
     2
100
AcDbLine
 10
115.6785055
 20
263.45
 30
0.0
 11
121.5348215
 21
263.45
 31
0.0
  0
LINE
  5
48C
330
A
100
AcDbEntity
  8
LAY-4
  6
Continuous
 62
     2
100
AcDbLine
 10
122.3848215
 20
263.45
 30
0.0
 11
129.0848215
 21
263.45
 31
0.0
  0
LINE
  5
48D
330
A
100
AcDbEntity
  8
LAY-4
  6
Continuous
 62
     2
100
AcDbLine
 10
129.8348215
 20
263.45
 30
0.0
 11
131.5348215
 21
263.45
 31
0.0
  0
LINE
  5
48E
330
A
100
AcDbEntity
  8
LAY-4
  6
Continuous
 62
     2
100
AcDbLine
 10
134.8702995
 20
263.45
 30
0.0
 11
136.7348215
 21
263.45
 31
0.0
  0
LINE
  5
48F
330
A
100
AcDbEntity
  8
LAY-4
  6
Continuous
 62
     2
100
AcDbLine
 10
107.2894915
 20
263.2
 30
0.0
 11
114.7801515
 21
263.2
 31
0.0
  0
LINE
  5
490
330
A
100
AcDbEntity
  8
LAY-4
  6
Continuous
 62
     2
100
AcDbLine
 10
107.5577535
 20
262.95
 30
0.0
 11
114.5118895
 21
262.95
 31
0.0
  0
LINE
  5
491
330
A
100
AcDbEntity
  8
LAY-4
  6
Continuous
 62
     2
100
AcDbLine
 10
107.8681985
 20
262.7
 30
0.0
 11
114.2014445
 21
262.7
 31
0.0
  0
LINE
  5
492
330
A
100
AcDbEntity
  8
LAY-4
  6
Continuous
 62
     2
100
AcDbLine
 10
108.2348215
 20
262.45
 30
0.0
 11
113.8348215
 21
262.45
 31
0.0
  0
LINE
  5
493
330
A
100
AcDbEntity
  8
LAY-4
  6
Continuous
 62
     2
100
AcDbLine
 10
108.6837575
 20
262.2
 30
0.0
 11
113.3858855
 21
262.2
 31
0.0
  0
LINE
  5
494
330
A
100
AcDbEntity
  8
LAY-4
  6
Continuous
 62
     2
100
AcDbLine
 10
109.2769815
 20
261.95
 30
0.0
 11
112.7926615
 21
261.95
 31
0.0
  0
LINE
  5
495
330
A
100
AcDbEntity
  8
LAY-4
  6
Continuous
 62
     2
100
AcDbLine
 10
110.3085295
 20
261.7
 30
0.0
 11
111.7611135
 21
261.7
 31
0.0
  0
LINE
  5
496
330
A
100
AcDbEntity
  8
LAY-4
  6
Continuous
 62
     2
100
AcDbLine
 10
102.0348215
 20
268.95
 30
0.0
 11
102.0348215
 21
263.2
 31
0.0
  0
LINE
  5
497
330
A
100
AcDbEntity
  8
LAY-4
  6
Continuous
 62
     2
100
AcDbLine
 10
103.7848215
 20
268.95
 30
0.0
 11
103.7848215
 21
263.2
 31
0.0
  0
CIRCLE
  5
498
330
A
100
AcDbEntity
  8
LAY-4
  6
Continuous
 62
     2
100
AcDbCircle
 10
111.0348215
 20
266.95
 30
0.0
 40
2.649999999999999
  0
CIRCLE
  5
499
330
A
100
AcDbEntity
  8
LAY-4
  6
Continuous
 62
     2
100
AcDbCircle
 10
111.0348215
 20
266.95
 30
0.0
 40
3.5
  0
CIRCLE
  5
49A
330
A
100
AcDbEntity
  8
LAY-4
  6
Continuous
 62
     2
100
AcDbCircle
 10
111.0348215
 20
266.95
 30
0.0
 40
5.299999999999998
  0
LINE
  5
49B
330
A
100
AcDbEntity
  8
LAY-4
  6
Continuous
 62
     2
100
AcDbLine
 10
98.53482150000003
 20
270.7
 30
0.0
 11
98.53482150000003
 21
268.95
 31
0.0
  0
LINE
  5
49C
330
A
100
AcDbEntity
  8
LAY-4
  6
Continuous
 62
     2
100
AcDbLine
 10
102.0348215
 20
263.2
 30
0.0
 11
103.7848215
 21
263.2
 31
0.0
  0
ARC
  5
49D
330
A
100
AcDbEntity
  8
LAY-4
  6
Continuous
 62
     2
100
AcDbCircle
 10
111.0348215
 20
266.95
 30
0.0
 40
5.814962999999998
100
AcDbArc
 50
139.8427230000001
 51
159.882882
  0
ARC
  5
49E
330
A
100
AcDbEntity
  8
LAY-4
  6
Continuous
 62
     2
100
AcDbCircle
 10
111.0348215
 20
266.95
 30
0.0
 40
5.814962999999998
100
AcDbArc
 50
20.117118
 51
40.15727699999991
  0
LINE
  5
49F
330
A
100
AcDbEntity
  8
LAY-4
  6
Continuous
 62
     2
100
AcDbLine
 10
121.5348215
 20
264.95
 30
0.0
 11
121.5348215
 21
263.2
 31
0.0
  0
LINE
  5
4A0
330
A
100
AcDbEntity
  8
LAY-4
  6
Continuous
 62
     2
100
AcDbLine
 10
121.5348215
 20
270.7
 30
0.0
 11
121.5348215
 21
268.95
 31
0.0
  0
ARC
  5
4A1
330
A
100
AcDbEntity
  8
LAY-4
  6
Continuous
 62
     2
100
AcDbCircle
 10
111.0348215
 20
266.95
 30
0.0
 40
5.814962999999998
100
AcDbArc
 50
319.842723
 51
348.135428
  0
LINE
  5
4A2
330
A
100
AcDbEntity
  8
LAY-4
  6
Continuous
 62
     2
100
AcDbLine
 10
121.5348215
 20
268.95
 30
0.0
 11
117.9288255
 21
264.95
 31
0.0
  0
LINE
  5
4A3
330
A
100
AcDbEntity
  8
LAY-4
  6
Continuous
 62
     2
100
AcDbLine
 10
119.6063415
 20
268.95
 30
0.0
 11
116.7255555
 21
265.754449
 31
0.0
  0
LINE
  5
4A4
330
A
100
AcDbEntity
  8
LAY-4
  6
Continuous
 62
     2
100
AcDbLine
 10
122.3848215
 20
270.7
 30
0.0
 11
122.3848215
 21
263.2
 31
0.0
  0
LINE
  5
4A5
330
A
100
AcDbEntity
  8
LAY-4
  6
Continuous
 62
     2
100
AcDbLine
 10
124.1348215
 20
267.7
 30
0.0
 11
129.0848215
 21
267.7
 31
0.0
  0
LINE
  5
4A6
330
A
100
AcDbEntity
  8
LAY-4
  6
Continuous
 62
     2
100
AcDbLine
 10
124.1348215
 20
266.2
 30
0.0
 11
129.0848215
 21
266.2
 31
0.0
  0
LINE
  5
4A7
330
A
100
AcDbEntity
  8
LAY-4
  6
Continuous
 62
     2
100
AcDbLine
 10
129.8348215
 20
270.7
 30
0.0
 11
129.8348215
 21
263.2
 31
0.0
  0
LINE
  5
4A8
330
A
100
AcDbEntity
  8
LAY-4
  6
Continuous
 62
     2
100
AcDbLine
 10
136.7348215
 20
270.7
 30
0.0
 11
136.7348215
 21
263.2
 31
0.0
  0
LINE
  5
4A9
330
A
100
AcDbEntity
  8
LAY-4
  6
Continuous
 62
     2
100
AcDbLine
 10
135.0348215
 20
263.2
 30
0.0
 11
131.5348215
 21
268.518436
 31
0.0
  0
LINE
  5
4AA
330
A
100
AcDbEntity
  8
LAY-4
  6
Continuous
 62
     2
100
AcDbLine
 10
131.5348215
 20
270.7
 30
0.0
 11
135.0348215
 21
265.381564
 31
0.0
  0
LINE
  5
4AB
330
A
100
AcDbEntity
  8
LAY-4
  6
Continuous
 62
     2
100
AcDbLine
 10
129.0848215
 20
270.7
 30
0.0
 11
129.0848215
 21
268.95
 31
0.0
  0
LINE
  5
4AC
330
A
100
AcDbEntity
  8
LAY-4
  6
Continuous
 62
     2
100
AcDbLine
 10
129.0848215
 20
267.7
 30
0.0
 11
129.0848215
 21
266.2
 31
0.0
  0
LINE
  5
4AD
330
A
100
AcDbEntity
  8
LAY-4
  6
Continuous
 62
     2
100
AcDbLine
 10
129.0848215
 20
264.95
 30
0.0
 11
129.0848215
 21
263.2
 31
0.0
  0
LINE
  5
4AE
330
A
100
AcDbEntity
  8
LAY-4
  6
Continuous
 62
     2
100
AcDbLine
 10
124.1348215
 20
268.95
 30
0.0
 11
129.0848215
 21
268.95
 31
0.0
  0
LINE
  5
4AF
330
A
100
AcDbEntity
  8
LAY-4
  6
Continuous
 62
     2
100
AcDbLine
 10
122.3848215
 20
270.7
 30
0.0
 11
129.0848215
 21
270.7
 31
0.0
  0
LINE
  5
4B0
330
A
100
AcDbEntity
  8
LAY-4
  6
Continuous
 62
     2
100
AcDbLine
 10
124.1348215
 20
266.2
 30
0.0
 11
124.1348215
 21
264.95
 31
0.0
  0
LINE
  5
4B1
330
A
100
AcDbEntity
  8
LAY-4
  6
Continuous
 62
     2
100
AcDbLine
 10
122.3848215
 20
263.2
 30
0.0
 11
129.0848215
 21
263.2
 31
0.0
  0
LINE
  5
4B2
330
A
100
AcDbEntity
  8
LAY-4
  6
Continuous
 62
     2
100
AcDbLine
 10
124.1348215
 20
264.95
 30
0.0
 11
129.0848215
 21
264.95
 31
0.0
  0
LINE
  5
4B3
330
A
100
AcDbEntity
  8
LAY-4
  6
Continuous
 62
     2
100
AcDbLine
 10
131.5348215
 20
268.518436
 30
0.0
 11
131.5348215
 21
263.2
 31
0.0
  0
LINE
  5
4B4
330
A
100
AcDbEntity
  8
LAY-4
  6
Continuous
 62
     2
100
AcDbLine
 10
129.8348215
 20
270.7
 30
0.0
 11
131.5348215
 21
270.7
 31
0.0
  0
LINE
  5
4B5
330
A
100
AcDbEntity
  8
LAY-4
  6
Continuous
 62
     2
100
AcDbLine
 10
135.0348215
 20
270.7
 30
0.0
 11
136.7348215
 21
270.7
 31
0.0
  0
LINE
  5
4B6
330
A
100
AcDbEntity
  8
LAY-4
  6
Continuous
 62
     2
100
AcDbLine
 10
129.8348215
 20
263.2
 30
0.0
 11
131.5348215
 21
263.2
 31
0.0
  0
LINE
  5
4B7
330
A
100
AcDbEntity
  8
LAY-4
  6
Continuous
 62
     2
100
AcDbLine
 10
135.0348215
 20
263.2
 30
0.0
 11
136.7348215
 21
263.2
 31
0.0
  0
LINE
  5
4B8
330
A
100
AcDbEntity
  8
LAY-4
  6
Continuous
 62
     2
100
AcDbLine
 10
135.0348215
 20
270.7
 30
0.0
 11
135.0348215
 21
265.381564
 31
0.0
  0
LINE
  5
4B9
330
A
100
AcDbEntity
  8
LAY-4
  6
Continuous
 62
     2
100
AcDbLine
 10
98.53482150000003
 20
268.95
 30
0.0
 11
102.0348215
 21
268.95
 31
0.0
  0
LINE
  5
4BA
330
A
100
AcDbEntity
  8
LAY-4
  6
Continuous
 62
     2
100
AcDbLine
 10
103.7848215
 20
268.95
 30
0.0
 11
105.5746205
 21
268.95
 31
0.0
  0
LINE
  5
4BB
330
A
100
AcDbEntity
  8
LAY-4
  6
Continuous
 62
     2
100
AcDbLine
 10
98.53482150000003
 20
270.7
 30
0.0
 11
106.5905785
 21
270.7
 31
0.0
  0
LINE
  5
4BC
330
A
100
AcDbEntity
  8
LAY-4
  6
Continuous
 62
     2
100
AcDbLine
 10
115.4790645
 20
270.7
 30
0.0
 11
121.5348215
 21
270.7
 31
0.0
  0
LINE
  5
4BD
330
A
100
AcDbEntity
  8
LAY-4
  6
Continuous
 62
     2
100
AcDbLine
 10
116.4950225
 20
268.95
 30
0.0
 11
119.6063415
 21
268.95
 31
0.0
  0
LINE
  5
4BE
330
A
100
AcDbEntity
  8
LAY-4
  6
Continuous
 62
     2
100
AcDbLine
 10
115.4790645
 20
263.2
 30
0.0
 11
121.5348215
 21
263.2
 31
0.0
  0
LINE
  5
4BF
330
A
100
AcDbEntity
  8
LAY-4
  6
Continuous
 62
     2
100
AcDbLine
 10
117.9288255
 20
264.95
 30
0.0
 11
121.5348215
 21
264.95
 31
0.0
  0
LINE
  5
4C0
330
A
100
AcDbEntity
  8
LAY-4
  6
Continuous
 62
     2
100
AcDbLine
 10
124.1348215
 20
268.95
 30
0.0
 11
124.1348215
 21
267.7
 31
0.0
  0
TEXT
  5
4C2
330
A
100
AcDbEntity
  8
LAY-4
  6
Continuous
 62
     1
100
AcDbText
 10
-95.69363662182741
 20
145.8286957947443
 30
0.0
 40
11.25
  1
スケールは１／２０となっています。必要に応じてサイズを２０倍して下さい。
  7
EXCADTTF1
 72
     1
 11
167.4535715
 21
151.4536957947442
 31
0.0
100
AcDbText
 73
     2
  0
TEXT
  5
92A
330
A
100
AcDbEntity
  8
LAY-3
  6
Continuous
 62
     7
100
AcDbText
 10
155.82857
 20
249.55
 30
0.0
 40
2.5
  1
２５Ａ×４５０Ｌ
 41
1.021739130434782
  7
EXCADSTD
 72
     5
 11
179.32857
 21
249.55
 31
0.0
100
AcDbText
  0
LINE
  5
1558
330
A
100
AcDbEntity
  8
LAY-1
  6
Continuous
 62
     4
100
AcDbLine
 10
44.91071450000009
 20
234.525
 30
0.0
 11
45.51071450000001
 21
234.525
 31
0.0
  0
LINE
  5
1559
330
A
100
AcDbEntity
  8
LAY-1
  6
Continuous
 62
     4
100
AcDbLine
 10
45.51071450000001
 20
234.525
 30
0.0
 11
45.51071450000001
 21
229.775
 31
0.0
  0
LINE
  5
155A
330
A
100
AcDbEntity
  8
LAY-1
  6
Continuous
 62
     4
100
AcDbLine
 10
45.51071450000001
 20
229.775
 30
0.0
 11
44.91071450000009
 21
229.775
 31
0.0
  0
LINE
  5
155B
330
A
100
AcDbEntity
  8
LAY-1
  6
Continuous
 62
     4
100
AcDbLine
 10
44.91071450000009
 20
229.775
 30
0.0
 11
44.91071450000009
 21
234.525
 31
0.0
  0
LINE
  5
155C
330
A
100
AcDbEntity
  8
LAY-1
  6
Continuous
 62
     4
100
AcDbLine
 10
44.7607145
 20
231.275
 30
0.0
 11
44.7607145
 21
233.025
 31
0.0
  0
LINE
  5
155D
330
A
100
AcDbEntity
  8
LAY-1
  6
Continuous
 62
     4
100
AcDbLine
 10
67.2607145
 20
231.275
 30
0.0
 11
67.2607145
 21
233.025
 31
0.0
  0
LINE
  5
155E
330
A
100
AcDbEntity
  8
LAY-2
  6
EXLTYPE3
 62
     1
100
AcDbLine
 10
67.7607145
 20
232.15
 30
0.0
 11
44.26071450000001
 21
232.15
 31
0.0
  0
LINE
  5
155F
330
A
100
AcDbEntity
  8
LAY-1
  6
Continuous
 62
     4
100
AcDbLine
 10
67.2607145
 20
231.275
 30
0.0
 11
67.11071450000014
 21
231.275
 31
0.0
  0
LINE
  5
1560
330
A
100
AcDbEntity
  8
LAY-1
  6
Continuous
 62
     4
100
AcDbLine
 10
44.91071450000009
 20
231.275
 30
0.0
 11
44.7607145
 21
231.275
 31
0.0
  0
LINE
  5
1561
330
A
100
AcDbEntity
  8
LAY-1
  6
Continuous
 62
     4
100
AcDbLine
 10
67.2607145
 20
233.025
 30
0.0
 11
67.11071450000014
 21
233.025
 31
0.0
  0
LINE
  5
1562
330
A
100
AcDbEntity
  8
LAY-1
  6
Continuous
 62
     4
100
AcDbLine
 10
44.91071450000009
 20
233.025
 30
0.0
 11
44.7607145
 21
233.025
 31
0.0
  0
LINE
  5
1563
330
A
100
AcDbEntity
  8
LAY-1
  6
Continuous
 62
     4
100
AcDbLine
 10
66.5107145
 20
231.2500000000001
 30
0.0
 11
45.51071450000001
 21
231.2500000000001
 31
0.0
  0
LINE
  5
1564
330
A
100
AcDbEntity
  8
LAY-1
  6
Continuous
 62
     4
100
AcDbLine
 10
66.5107145
 20
233.0500000000001
 30
0.0
 11
45.51071450000001
 21
233.0500000000001
 31
0.0
  0
LINE
  5
1565
330
A
100
AcDbEntity
  8
LAY-1
  6
Continuous
 62
     4
100
AcDbLine
 10
67.11071450000014
 20
234.525
 30
0.0
 11
66.5107145
 21
234.525
 31
0.0
  0
LINE
  5
1566
330
A
100
AcDbEntity
  8
LAY-1
  6
Continuous
 62
     4
100
AcDbLine
 10
66.5107145
 20
234.525
 30
0.0
 11
66.5107145
 21
229.775
 31
0.0
  0
LINE
  5
1567
330
A
100
AcDbEntity
  8
LAY-1
  6
Continuous
 62
     4
100
AcDbLine
 10
66.5107145
 20
229.775
 30
0.0
 11
67.11071450000014
 21
229.775
 31
0.0
  0
LINE
  5
1568
330
A
100
AcDbEntity
  8
LAY-1
  6
Continuous
 62
     4
100
AcDbLine
 10
67.11071450000014
 20
229.775
 30
0.0
 11
67.11071450000014
 21
234.525
 31
0.0
  0
LINE
  5
1569
330
A
100
AcDbEntity
  8
LAY-1
  6
Continuous
 62
     4
100
AcDbLine
 10
100.6321425000001
 20
234.65
 30
0.0
 11
101.3321424999999
 21
234.65
 31
0.0
  0
LINE
  5
156A
330
A
100
AcDbEntity
  8
LAY-1
  6
Continuous
 62
     4
100
AcDbLine
 10
101.3321424999999
 20
234.65
 30
0.0
 11
101.3321424999999
 21
229.65
 31
0.0
  0
LINE
  5
156B
330
A
100
AcDbEntity
  8
LAY-1
  6
Continuous
 62
     4
100
AcDbLine
 10
101.3321424999999
 20
229.65
 30
0.0
 11
100.6321425000001
 21
229.65
 31
0.0
  0
LINE
  5
156C
330
A
100
AcDbEntity
  8
LAY-1
  6
Continuous
 62
     4
100
AcDbLine
 10
100.6321425000001
 20
229.65
 30
0.0
 11
100.6321425000001
 21
234.65
 31
0.0
  0
LINE
  5
156D
330
A
100
AcDbEntity
  8
LAY-1
  6
Continuous
 62
     4
100
AcDbLine
 10
100.4821425
 20
230.9999999999999
 30
0.0
 11
100.4821425
 21
233.2999999999999
 31
0.0
  0
LINE
  5
156E
330
A
100
AcDbEntity
  8
LAY-1
  6
Continuous
 62
     4
100
AcDbLine
 10
122.9821425
 20
230.9999999999999
 30
0.0
 11
122.9821425
 21
233.2999999999999
 31
0.0
  0
LINE
  5
156F
330
A
100
AcDbEntity
  8
LAY-2
  6
EXLTYPE3
 62
     1
100
AcDbLine
 10
123.4821425
 20
232.15
 30
0.0
 11
99.98214250000001
 21
232.15
 31
0.0
  0
LINE
  5
1570
330
A
100
AcDbEntity
  8
LAY-1
  6
Continuous
 62
     4
100
AcDbLine
 10
122.1321425000001
 20
230.9999999999999
 30
0.0
 11
101.3321424999999
 21
230.9999999999999
 31
0.0
  0
LINE
  5
1571
330
A
100
AcDbEntity
  8
LAY-1
  6
Continuous
 62
     4
100
AcDbLine
 10
122.1321425000001
 20
233.2999999999999
 30
0.0
 11
101.3321424999999
 21
233.2999999999999
 31
0.0
  0
LINE
  5
1572
330
A
100
AcDbEntity
  8
LAY-1
  6
Continuous
 62
     4
100
AcDbLine
 10
122.9821425
 20
230.9999999999999
 30
0.0
 11
122.8321425000001
 21
230.9999999999999
 31
0.0
  0
LINE
  5
1573
330
A
100
AcDbEntity
  8
LAY-1
  6
Continuous
 62
     4
100
AcDbLine
 10
100.6321425000001
 20
230.9999999999999
 30
0.0
 11
100.4821425
 21
230.9999999999999
 31
0.0
  0
LINE
  5
1574
330
A
100
AcDbEntity
  8
LAY-1
  6
Continuous
 62
     4
100
AcDbLine
 10
122.9821425
 20
233.2999999999999
 30
0.0
 11
122.8321425000001
 21
233.2999999999999
 31
0.0
  0
LINE
  5
1575
330
A
100
AcDbEntity
  8
LAY-1
  6
Continuous
 62
     4
100
AcDbLine
 10
100.6321425000001
 20
233.2999999999999
 30
0.0
 11
100.4821425
 21
233.2999999999999
 31
0.0
  0
LINE
  5
1576
330
A
100
AcDbEntity
  8
LAY-1
  6
Continuous
 62
     4
100
AcDbLine
 10
122.8321425000001
 20
234.65
 30
0.0
 11
122.1321425000001
 21
234.65
 31
0.0
  0
LINE
  5
1577
330
A
100
AcDbEntity
  8
LAY-1
  6
Continuous
 62
     4
100
AcDbLine
 10
122.1321425000001
 20
234.65
 30
0.0
 11
122.1321425000001
 21
229.65
 31
0.0
  0
LINE
  5
1578
330
A
100
AcDbEntity
  8
LAY-1
  6
Continuous
 62
     4
100
AcDbLine
 10
122.1321425000001
 20
229.65
 30
0.0
 11
122.8321425000001
 21
229.65
 31
0.0
  0
LINE
  5
1579
330
A
100
AcDbEntity
  8
LAY-1
  6
Continuous
 62
     4
100
AcDbLine
 10
122.8321425000001
 20
229.65
 30
0.0
 11
122.8321425000001
 21
234.65
 31
0.0
  0
LINE
  5
157A
330
A
100
AcDbEntity
  8
LAY-1
  6
Continuous
 62
     4
100
AcDbLine
 10
156.3535715000001
 20
235.275
 30
0.0
 11
157.0535714999999
 21
235.275
 31
0.0
  0
LINE
  5
157B
330
A
100
AcDbEntity
  8
LAY-1
  6
Continuous
 62
     4
100
AcDbLine
 10
157.0535714999999
 20
235.275
 30
0.0
 11
157.0535714999999
 21
229.025
 31
0.0
  0
LINE
  5
157C
330
A
100
AcDbEntity
  8
LAY-1
  6
Continuous
 62
     4
100
AcDbLine
 10
157.0535714999999
 20
229.025
 30
0.0
 11
156.3535715000001
 21
229.025
 31
0.0
  0
LINE
  5
157D
330
A
100
AcDbEntity
  8
LAY-1
  6
Continuous
 62
     4
100
AcDbLine
 10
156.3535715000001
 20
229.025
 30
0.0
 11
156.3535715000001
 21
235.275
 31
0.0
  0
LINE
  5
157E
330
A
100
AcDbEntity
  8
LAY-1
  6
Continuous
 62
     4
100
AcDbLine
 10
156.2035715
 20
230.6999999999999
 30
0.0
 11
156.2035715
 21
233.5999999999998
 31
0.0
  0
LINE
  5
157F
330
A
100
AcDbEntity
  8
LAY-1
  6
Continuous
 62
     4
100
AcDbLine
 10
178.7035715
 20
230.6999999999999
 30
0.0
 11
178.7035715
 21
233.5999999999998
 31
0.0
  0
LINE
  5
1580
330
A
100
AcDbEntity
  8
LAY-2
  6
EXLTYPE3
 62
     1
100
AcDbLine
 10
179.2035715
 20
232.15
 30
0.0
 11
155.7035715
 21
232.15
 31
0.0
  0
LINE
  5
1581
330
A
100
AcDbEntity
  8
LAY-1
  6
Continuous
 62
     4
100
AcDbLine
 10
177.8535715000001
 20
230.8749999999999
 30
0.0
 11
157.0535714999999
 21
230.8749999999999
 31
0.0
  0
LINE
  5
1582
330
A
100
AcDbEntity
  8
LAY-1
  6
Continuous
 62
     4
100
AcDbLine
 10
177.8535715000001
 20
233.4249999999999
 30
0.0
 11
157.0535714999999
 21
233.4249999999999
 31
0.0
  0
LINE
  5
1583
330
A
100
AcDbEntity
  8
LAY-1
  6
Continuous
 62
     4
100
AcDbLine
 10
178.7035715
 20
230.6999999999999
 30
0.0
 11
178.5535715000001
 21
230.6999999999999
 31
0.0
  0
LINE
  5
1584
330
A
100
AcDbEntity
  8
LAY-1
  6
Continuous
 62
     4
100
AcDbLine
 10
156.3535715000001
 20
230.6999999999999
 30
0.0
 11
156.2035715
 21
230.6999999999999
 31
0.0
  0
LINE
  5
1585
330
A
100
AcDbEntity
  8
LAY-1
  6
Continuous
 62
     4
100
AcDbLine
 10
178.7035715
 20
233.5999999999998
 30
0.0
 11
178.5535715000001
 21
233.5999999999998
 31
0.0
  0
LINE
  5
1586
330
A
100
AcDbEntity
  8
LAY-1
  6
Continuous
 62
     4
100
AcDbLine
 10
156.3535715000001
 20
233.5999999999998
 30
0.0
 11
156.2035715
 21
233.5999999999998
 31
0.0
  0
LINE
  5
1587
330
A
100
AcDbEntity
  8
LAY-1
  6
Continuous
 62
     4
100
AcDbLine
 10
178.5535715000001
 20
235.275
 30
0.0
 11
177.8535715000001
 21
235.275
 31
0.0
  0
LINE
  5
1588
330
A
100
AcDbEntity
  8
LAY-1
  6
Continuous
 62
     4
100
AcDbLine
 10
177.8535715000001
 20
235.275
 30
0.0
 11
177.8535715000001
 21
229.025
 31
0.0
  0
LINE
  5
1589
330
A
100
AcDbEntity
  8
LAY-1
  6
Continuous
 62
     4
100
AcDbLine
 10
177.8535715000001
 20
229.025
 30
0.0
 11
178.5535715000001
 21
229.025
 31
0.0
  0
LINE
  5
158A
330
A
100
AcDbEntity
  8
LAY-1
  6
Continuous
 62
     4
100
AcDbLine
 10
178.5535715000001
 20
229.025
 30
0.0
 11
178.5535715000001
 21
235.275
 31
0.0
  0
LINE
  5
158B
330
A
100
AcDbEntity
  8
LAY-1
  6
Continuous
 62
     4
100
AcDbLine
 10
212.0749995000001
 20
235.525
 30
0.0
 11
212.8749995000001
 21
235.525
 31
0.0
  0
LINE
  5
158C
330
A
100
AcDbEntity
  8
LAY-1
  6
Continuous
 62
     4
100
AcDbLine
 10
212.8749995000001
 20
235.525
 30
0.0
 11
212.8749995000001
 21
228.775
 31
0.0
  0
LINE
  5
158D
330
A
100
AcDbEntity
  8
LAY-1
  6
Continuous
 62
     4
100
AcDbLine
 10
212.8749995000001
 20
228.775
 30
0.0
 11
212.0749995000001
 21
228.775
 31
0.0
  0
LINE
  5
158E
330
A
100
AcDbEntity
  8
LAY-1
  6
Continuous
 62
     4
100
AcDbLine
 10
212.0749995000001
 20
228.775
 30
0.0
 11
212.0749995000001
 21
235.525
 31
0.0
  0
LINE
  5
158F
330
A
100
AcDbEntity
  8
LAY-1
  6
Continuous
 62
     4
100
AcDbLine
 10
211.9249995
 20
230.4499999999999
 30
0.0
 11
211.9249995
 21
233.8500000000001
 31
0.0
  0
LINE
  5
1590
330
A
100
AcDbEntity
  8
LAY-1
  6
Continuous
 62
     4
100
AcDbLine
 10
234.4249995
 20
230.4499999999999
 30
0.0
 11
234.4249995
 21
233.8500000000001
 31
0.0
  0
LINE
  5
1591
330
A
100
AcDbEntity
  8
LAY-2
  6
EXLTYPE3
 62
     1
100
AcDbLine
 10
234.9249995
 20
232.15
 30
0.0
 11
211.4249995
 21
232.15
 31
0.0
  0
LINE
  5
1592
330
A
100
AcDbEntity
  8
LAY-1
  6
Continuous
 62
     4
100
AcDbLine
 10
233.4749995
 20
230.65
 30
0.0
 11
212.8749995000001
 21
230.65
 31
0.0
  0
LINE
  5
1593
330
A
100
AcDbEntity
  8
LAY-1
  6
Continuous
 62
     4
100
AcDbLine
 10
233.4749995
 20
233.65
 30
0.0
 11
212.8749995000001
 21
233.65
 31
0.0
  0
LINE
  5
1594
330
A
100
AcDbEntity
  8
LAY-1
  6
Continuous
 62
     4
100
AcDbLine
 10
234.4249995
 20
230.4499999999999
 30
0.0
 11
234.2749995000001
 21
230.4499999999999
 31
0.0
  0
LINE
  5
1595
330
A
100
AcDbEntity
  8
LAY-1
  6
Continuous
 62
     4
100
AcDbLine
 10
212.0749995000001
 20
230.4499999999999
 30
0.0
 11
211.9249995
 21
230.4499999999999
 31
0.0
  0
LINE
  5
1596
330
A
100
AcDbEntity
  8
LAY-1
  6
Continuous
 62
     4
100
AcDbLine
 10
234.4249995
 20
233.8500000000001
 30
0.0
 11
234.2749995000001
 21
233.8500000000001
 31
0.0
  0
LINE
  5
1597
330
A
100
AcDbEntity
  8
LAY-1
  6
Continuous
 62
     4
100
AcDbLine
 10
212.0749995000001
 20
233.8500000000001
 30
0.0
 11
211.9249995
 21
233.8500000000001
 31
0.0
  0
LINE
  5
1598
330
A
100
AcDbEntity
  8
LAY-1
  6
Continuous
 62
     4
100
AcDbLine
 10
234.2749995000001
 20
235.525
 30
0.0
 11
233.4749995
 21
235.525
 31
0.0
  0
LINE
  5
1599
330
A
100
AcDbEntity
  8
LAY-1
  6
Continuous
 62
     4
100
AcDbLine
 10
233.4749995
 20
235.525
 30
0.0
 11
233.4749995
 21
228.775
 31
0.0
  0
LINE
  5
159A
330
A
100
AcDbEntity
  8
LAY-1
  6
Continuous
 62
     4
100
AcDbLine
 10
233.4749995
 20
228.775
 30
0.0
 11
234.2749995000001
 21
228.775
 31
0.0
  0
LINE
  5
159B
330
A
100
AcDbEntity
  8
LAY-1
  6
Continuous
 62
     4
100
AcDbLine
 10
234.2749995000001
 20
228.775
 30
0.0
 11
234.2749995000001
 21
235.525
 31
0.0
  0
LINE
  5
159C
330
A
100
AcDbEntity
  8
LAY-1
  6
Continuous
 62
     4
100
AcDbLine
 10
267.7964285000002
 20
235.65
 30
0.0
 11
268.5964285000001
 21
235.65
 31
0.0
  0
LINE
  5
159D
330
A
100
AcDbEntity
  8
LAY-1
  6
Continuous
 62
     4
100
AcDbLine
 10
268.5964285000001
 20
235.65
 30
0.0
 11
268.5964285000001
 21
228.65
 31
0.0
  0
LINE
  5
159E
330
A
100
AcDbEntity
  8
LAY-1
  6
Continuous
 62
     4
100
AcDbLine
 10
268.5964285000001
 20
228.65
 30
0.0
 11
267.7964285000002
 21
228.65
 31
0.0
  0
LINE
  5
159F
330
A
100
AcDbEntity
  8
LAY-1
  6
Continuous
 62
     4
100
AcDbLine
 10
267.7964285000002
 20
228.65
 30
0.0
 11
267.7964285000002
 21
235.65
 31
0.0
  0
LINE
  5
15A0
330
A
100
AcDbEntity
  8
LAY-1
  6
Continuous
 62
     4
100
AcDbLine
 10
267.6464285000001
 20
230.3000000000001
 30
0.0
 11
267.6464285000001
 21
233.9999999999999
 31
0.0
  0
LINE
  5
15A1
330
A
100
AcDbEntity
  8
LAY-1
  6
Continuous
 62
     4
100
AcDbLine
 10
290.1464285000001
 20
230.3000000000001
 30
0.0
 11
290.1464285000001
 21
233.9999999999999
 31
0.0
  0
LINE
  5
15A2
330
A
100
AcDbEntity
  8
LAY-2
  6
EXLTYPE3
 62
     1
100
AcDbLine
 10
290.6464285000001
 20
232.15
 30
0.0
 11
267.1464285000001
 21
232.15
 31
0.0
  0
LINE
  5
15A3
330
A
100
AcDbEntity
  8
LAY-1
  6
Continuous
 62
     4
100
AcDbLine
 10
289.1964285
 20
230.525
 30
0.0
 11
268.5964285000001
 21
230.525
 31
0.0
  0
LINE
  5
15A4
330
A
100
AcDbEntity
  8
LAY-1
  6
Continuous
 62
     4
100
AcDbLine
 10
289.1964285
 20
233.775
 30
0.0
 11
268.5964285000001
 21
233.775
 31
0.0
  0
LINE
  5
15A5
330
A
100
AcDbEntity
  8
LAY-1
  6
Continuous
 62
     4
100
AcDbLine
 10
290.1464285000001
 20
230.3000000000001
 30
0.0
 11
289.9964285000002
 21
230.3000000000001
 31
0.0
  0
LINE
  5
15A6
330
A
100
AcDbEntity
  8
LAY-1
  6
Continuous
 62
     4
100
AcDbLine
 10
267.7964285000002
 20
230.3000000000001
 30
0.0
 11
267.6464285000001
 21
230.3000000000001
 31
0.0
  0
LINE
  5
15A7
330
A
100
AcDbEntity
  8
LAY-1
  6
Continuous
 62
     4
100
AcDbLine
 10
290.1464285000001
 20
233.9999999999999
 30
0.0
 11
289.9964285000002
 21
233.9999999999999
 31
0.0
  0
LINE
  5
15A8
330
A
100
AcDbEntity
  8
LAY-1
  6
Continuous
 62
     4
100
AcDbLine
 10
267.7964285000002
 20
233.9999999999999
 30
0.0
 11
267.6464285000001
 21
233.9999999999999
 31
0.0
  0
LINE
  5
15A9
330
A
100
AcDbEntity
  8
LAY-1
  6
Continuous
 62
     4
100
AcDbLine
 10
289.9964285000002
 20
235.65
 30
0.0
 11
289.1964285
 21
235.65
 31
0.0
  0
LINE
  5
15AA
330
A
100
AcDbEntity
  8
LAY-1
  6
Continuous
 62
     4
100
AcDbLine
 10
289.1964285
 20
235.65
 30
0.0
 11
289.1964285
 21
228.65
 31
0.0
  0
LINE
  5
15AB
330
A
100
AcDbEntity
  8
LAY-1
  6
Continuous
 62
     4
100
AcDbLine
 10
289.1964285
 20
228.65
 30
0.0
 11
289.9964285000002
 21
228.65
 31
0.0
  0
LINE
  5
15AC
330
A
100
AcDbEntity
  8
LAY-1
  6
Continuous
 62
     4
100
AcDbLine
 10
289.9964285000002
 20
228.65
 30
0.0
 11
289.9964285000002
 21
235.65
 31
0.0
  0
LINE
  5
15AD
330
A
100
AcDbEntity
  8
LAY-1
  6
Continuous
 62
     4
100
AcDbLine
 10
44.91071450000009
 20
198.5249999999999
 30
0.0
 11
45.71071450000005
 21
198.5249999999999
 31
0.0
  0
LINE
  5
15AE
330
A
100
AcDbEntity
  8
LAY-1
  6
Continuous
 62
     4
100
AcDbLine
 10
45.71071450000005
 20
198.5249999999999
 30
0.0
 11
45.71071450000005
 21
190.775
 31
0.0
  0
LINE
  5
15AF
330
A
100
AcDbEntity
  8
LAY-1
  6
Continuous
 62
     4
100
AcDbLine
 10
45.71071450000005
 20
190.775
 30
0.0
 11
44.91071450000009
 21
190.775
 31
0.0
  0
LINE
  5
15B0
330
A
100
AcDbEntity
  8
LAY-1
  6
Continuous
 62
     4
100
AcDbLine
 10
44.91071450000009
 20
190.775
 30
0.0
 11
44.91071450000009
 21
198.5249999999999
 31
0.0
  0
LINE
  5
15B1
330
A
100
AcDbEntity
  8
LAY-1
  6
Continuous
 62
     4
100
AcDbLine
 10
44.7607145
 20
192.3999999999999
 30
0.0
 11
44.7607145
 21
196.9
 31
0.0
  0
LINE
  5
15B2
330
A
100
AcDbEntity
  8
LAY-1
  6
Continuous
 62
     4
100
AcDbLine
 10
67.2607145
 20
192.3999999999999
 30
0.0
 11
67.2607145
 21
196.9
 31
0.0
  0
LINE
  5
15B3
330
A
100
AcDbEntity
  8
LAY-2
  6
EXLTYPE3
 62
     1
100
AcDbLine
 10
67.7607145
 20
194.65
 30
0.0
 11
44.26071450000001
 21
194.65
 31
0.0
  0
LINE
  5
15B4
330
A
100
AcDbEntity
  8
LAY-1
  6
Continuous
 62
     4
100
AcDbLine
 10
66.31071449999996
 20
192.6999999999999
 30
0.0
 11
45.71071450000005
 21
192.6999999999999
 31
0.0
  0
LINE
  5
15B5
330
A
100
AcDbEntity
  8
LAY-1
  6
Continuous
 62
     4
100
AcDbLine
 10
66.31071449999996
 20
196.6
 30
0.0
 11
45.71071450000005
 21
196.6
 31
0.0
  0
LINE
  5
15B6
330
A
100
AcDbEntity
  8
LAY-1
  6
Continuous
 62
     4
100
AcDbLine
 10
67.2607145
 20
192.3999999999999
 30
0.0
 11
67.11071450000014
 21
192.3999999999999
 31
0.0
  0
LINE
  5
15B7
330
A
100
AcDbEntity
  8
LAY-1
  6
Continuous
 62
     4
100
AcDbLine
 10
44.91071450000009
 20
192.3999999999999
 30
0.0
 11
44.7607145
 21
192.3999999999999
 31
0.0
  0
LINE
  5
15B8
330
A
100
AcDbEntity
  8
LAY-1
  6
Continuous
 62
     4
100
AcDbLine
 10
67.2607145
 20
196.9
 30
0.0
 11
67.11071450000014
 21
196.9
 31
0.0
  0
LINE
  5
15B9
330
A
100
AcDbEntity
  8
LAY-1
  6
Continuous
 62
     4
100
AcDbLine
 10
44.91071450000009
 20
196.9
 30
0.0
 11
44.7607145
 21
196.9
 31
0.0
  0
LINE
  5
15BA
330
A
100
AcDbEntity
  8
LAY-1
  6
Continuous
 62
     4
100
AcDbLine
 10
67.11071450000014
 20
198.5249999999999
 30
0.0
 11
66.31071449999996
 21
198.5249999999999
 31
0.0
  0
LINE
  5
15BB
330
A
100
AcDbEntity
  8
LAY-1
  6
Continuous
 62
     4
100
AcDbLine
 10
66.31071449999996
 20
198.5249999999999
 30
0.0
 11
66.31071449999996
 21
190.775
 31
0.0
  0
LINE
  5
15BC
330
A
100
AcDbEntity
  8
LAY-1
  6
Continuous
 62
     4
100
AcDbLine
 10
66.31071449999996
 20
190.775
 30
0.0
 11
67.11071450000014
 21
190.775
 31
0.0
  0
LINE
  5
15BD
330
A
100
AcDbEntity
  8
LAY-1
  6
Continuous
 62
     4
100
AcDbLine
 10
67.11071450000014
 20
190.775
 30
0.0
 11
67.11071450000014
 21
198.5249999999999
 31
0.0
  0
LINE
  5
15BE
330
A
100
AcDbEntity
  8
LAY-1
  6
Continuous
 62
     4
100
AcDbLine
 10
100.6321425000001
 20
199.0249999999999
 30
0.0
 11
101.5321424999999
 21
199.0249999999999
 31
0.0
  0
LINE
  5
15BF
330
A
100
AcDbEntity
  8
LAY-1
  6
Continuous
 62
     4
100
AcDbLine
 10
101.5321424999999
 20
199.0249999999999
 30
0.0
 11
101.5321424999999
 21
190.2749999999999
 31
0.0
  0
LINE
  5
15C0
330
A
100
AcDbEntity
  8
LAY-1
  6
Continuous
 62
     4
100
AcDbLine
 10
101.5321424999999
 20
190.2749999999999
 30
0.0
 11
100.6321425000001
 21
190.2749999999999
 31
0.0
  0
LINE
  5
15C1
330
A
100
AcDbEntity
  8
LAY-1
  6
Continuous
 62
     4
100
AcDbLine
 10
100.6321425000001
 20
190.2749999999999
 30
0.0
 11
100.6321425000001
 21
199.0249999999999
 31
0.0
  0
LINE
  5
15C2
330
A
100
AcDbEntity
  8
LAY-1
  6
Continuous
 62
     4
100
AcDbLine
 10
100.4821425
 20
191.9999999999999
 30
0.0
 11
100.4821425
 21
197.3
 31
0.0
  0
LINE
  5
15C3
330
A
100
AcDbEntity
  8
LAY-1
  6
Continuous
 62
     4
100
AcDbLine
 10
122.9821425
 20
191.9999999999999
 30
0.0
 11
122.9821425
 21
197.3
 31
0.0
  0
LINE
  5
15C4
330
A
100
AcDbEntity
  8
LAY-2
  6
EXLTYPE3
 62
     1
100
AcDbLine
 10
123.4821425
 20
194.65
 30
0.0
 11
99.98214250000001
 21
194.65
 31
0.0
  0
LINE
  5
15C5
330
A
100
AcDbEntity
  8
LAY-1
  6
Continuous
 62
     4
100
AcDbLine
 10
121.9321425
 20
192.1750000000001
 30
0.0
 11
101.5321424999999
 21
192.1750000000001
 31
0.0
  0
LINE
  5
15C6
330
A
100
AcDbEntity
  8
LAY-1
  6
Continuous
 62
     4
100
AcDbLine
 10
121.9321425
 20
197.1249999999999
 30
0.0
 11
101.5321424999999
 21
197.1249999999999
 31
0.0
  0
LINE
  5
15C7
330
A
100
AcDbEntity
  8
LAY-1
  6
Continuous
 62
     4
100
AcDbLine
 10
122.9821425
 20
191.9999999999999
 30
0.0
 11
122.8321425000001
 21
191.9999999999999
 31
0.0
  0
LINE
  5
15C8
330
A
100
AcDbEntity
  8
LAY-1
  6
Continuous
 62
     4
100
AcDbLine
 10
100.6321425000001
 20
191.9999999999999
 30
0.0
 11
100.4821425
 21
191.9999999999999
 31
0.0
  0
LINE
  5
15C9
330
A
100
AcDbEntity
  8
LAY-1
  6
Continuous
 62
     4
100
AcDbLine
 10
122.9821425
 20
197.3
 30
0.0
 11
122.8321425000001
 21
197.3
 31
0.0
  0
LINE
  5
15CA
330
A
100
AcDbEntity
  8
LAY-1
  6
Continuous
 62
     4
100
AcDbLine
 10
100.6321425000001
 20
197.3
 30
0.0
 11
100.4821425
 21
197.3
 31
0.0
  0
LINE
  5
15CB
330
A
100
AcDbEntity
  8
LAY-1
  6
Continuous
 62
     4
100
AcDbLine
 10
122.8321425000001
 20
199.0249999999999
 30
0.0
 11
121.9321425
 21
199.0249999999999
 31
0.0
  0
LINE
  5
15CC
330
A
100
AcDbEntity
  8
LAY-1
  6
Continuous
 62
     4
100
AcDbLine
 10
121.9321425
 20
199.0249999999999
 30
0.0
 11
121.9321425
 21
190.2749999999999
 31
0.0
  0
LINE
  5
15CD
330
A
100
AcDbEntity
  8
LAY-1
  6
Continuous
 62
     4
100
AcDbLine
 10
121.9321425
 20
190.2749999999999
 30
0.0
 11
122.8321425000001
 21
190.2749999999999
 31
0.0
  0
LINE
  5
15CE
330
A
100
AcDbEntity
  8
LAY-1
  6
Continuous
 62
     4
100
AcDbLine
 10
122.8321425000001
 20
190.2749999999999
 30
0.0
 11
122.8321425000001
 21
199.0249999999999
 31
0.0
  0
LINE
  5
15CF
330
A
100
AcDbEntity
  8
LAY-1
  6
Continuous
 62
     4
100
AcDbLine
 10
155.1035715000001
 20
199.275
 30
0.0
 11
156.0035715
 21
199.275
 31
0.0
  0
LINE
  5
15D0
330
A
100
AcDbEntity
  8
LAY-1
  6
Continuous
 62
     4
100
AcDbLine
 10
156.0035715
 20
199.275
 30
0.0
 11
156.0035715
 21
190.0249999999999
 31
0.0
  0
LINE
  5
15D1
330
A
100
AcDbEntity
  8
LAY-1
  6
Continuous
 62
     4
100
AcDbLine
 10
156.0035715
 20
190.0249999999999
 30
0.0
 11
155.1035715000001
 21
190.0249999999999
 31
0.0
  0
LINE
  5
15D2
330
A
100
AcDbEntity
  8
LAY-1
  6
Continuous
 62
     4
100
AcDbLine
 10
155.1035715000001
 20
190.0249999999999
 30
0.0
 11
155.1035715000001
 21
199.275
 31
0.0
  0
LINE
  5
15D3
330
A
100
AcDbEntity
  8
LAY-1
  6
Continuous
 62
     4
100
AcDbLine
 10
154.9535715
 20
191.65
 30
0.0
 11
154.9535715
 21
197.65
 31
0.0
  0
LINE
  5
15D4
330
A
100
AcDbEntity
  8
LAY-1
  6
Continuous
 62
     4
100
AcDbLine
 10
179.9535715
 20
191.65
 30
0.0
 11
179.9535715
 21
197.65
 31
0.0
  0
LINE
  5
15D5
330
A
100
AcDbEntity
  8
LAY-2
  6
EXLTYPE3
 62
     1
100
AcDbLine
 10
180.4535715
 20
194.65
 30
0.0
 11
154.4535715
 21
194.65
 31
0.0
  0
LINE
  5
15D6
330
A
100
AcDbEntity
  8
LAY-1
  6
Continuous
 62
     4
100
AcDbLine
 10
178.9035715000001
 20
191.8249999999999
 30
0.0
 11
156.0035715
 21
191.8249999999999
 31
0.0
  0
LINE
  5
15D7
330
A
100
AcDbEntity
  8
LAY-1
  6
Continuous
 62
     4
100
AcDbLine
 10
178.9035715000001
 20
197.475
 30
0.0
 11
156.0035715
 21
197.475
 31
0.0
  0
LINE
  5
15D8
330
A
100
AcDbEntity
  8
LAY-1
  6
Continuous
 62
     4
100
AcDbLine
 10
179.9535715
 20
191.65
 30
0.0
 11
179.8035715000001
 21
191.65
 31
0.0
  0
LINE
  5
15D9
330
A
100
AcDbEntity
  8
LAY-1
  6
Continuous
 62
     4
100
AcDbLine
 10
155.1035715000001
 20
191.65
 30
0.0
 11
154.9535715
 21
191.65
 31
0.0
  0
LINE
  5
15DA
330
A
100
AcDbEntity
  8
LAY-1
  6
Continuous
 62
     4
100
AcDbLine
 10
179.9535715
 20
197.65
 30
0.0
 11
179.8035715000001
 21
197.65
 31
0.0
  0
LINE
  5
15DB
330
A
100
AcDbEntity
  8
LAY-1
  6
Continuous
 62
     4
100
AcDbLine
 10
155.1035715000001
 20
197.65
 30
0.0
 11
154.9535715
 21
197.65
 31
0.0
  0
LINE
  5
15DC
330
A
100
AcDbEntity
  8
LAY-1
  6
Continuous
 62
     4
100
AcDbLine
 10
179.8035715000001
 20
199.275
 30
0.0
 11
178.9035715000001
 21
199.275
 31
0.0
  0
LINE
  5
15DD
330
A
100
AcDbEntity
  8
LAY-1
  6
Continuous
 62
     4
100
AcDbLine
 10
178.9035715000001
 20
199.275
 30
0.0
 11
178.9035715000001
 21
190.0249999999999
 31
0.0
  0
LINE
  5
15DE
330
A
100
AcDbEntity
  8
LAY-1
  6
Continuous
 62
     4
100
AcDbLine
 10
178.9035715000001
 20
190.0249999999999
 30
0.0
 11
179.8035715000001
 21
190.0249999999999
 31
0.0
  0
LINE
  5
15DF
330
A
100
AcDbEntity
  8
LAY-1
  6
Continuous
 62
     4
100
AcDbLine
 10
179.8035715000001
 20
190.0249999999999
 30
0.0
 11
179.8035715000001
 21
199.275
 31
0.0
  0
LINE
  5
15E0
330
A
100
AcDbEntity
  8
LAY-1
  6
Continuous
 62
     4
100
AcDbLine
 10
210.8249995000001
 20
199.9
 30
0.0
 11
211.7249995
 21
199.9
 31
0.0
  0
LINE
  5
15E1
330
A
100
AcDbEntity
  8
LAY-1
  6
Continuous
 62
     4
100
AcDbLine
 10
211.7249995
 20
199.9
 30
0.0
 11
211.7249995
 21
189.4
 31
0.0
  0
LINE
  5
15E2
330
A
100
AcDbEntity
  8
LAY-1
  6
Continuous
 62
     4
100
AcDbLine
 10
211.7249995
 20
189.4
 30
0.0
 11
210.8249995000001
 21
189.4
 31
0.0
  0
LINE
  5
15E3
330
A
100
AcDbEntity
  8
LAY-1
  6
Continuous
 62
     4
100
AcDbLine
 10
210.8249995000001
 20
189.4
 30
0.0
 11
210.8249995000001
 21
199.9
 31
0.0
  0
LINE
  5
15E4
330
A
100
AcDbEntity
  8
LAY-1
  6
Continuous
 62
     4
100
AcDbLine
 10
210.6749995
 20
190.9500000000001
 30
0.0
 11
210.6749995
 21
198.35
 31
0.0
  0
LINE
  5
15E5
330
A
100
AcDbEntity
  8
LAY-1
  6
Continuous
 62
     4
100
AcDbLine
 10
235.6749995
 20
190.9500000000001
 30
0.0
 11
235.6749995
 21
198.35
 31
0.0
  0
LINE
  5
15E6
330
A
100
AcDbEntity
  8
LAY-2
  6
EXLTYPE3
 62
     1
100
AcDbLine
 10
236.1749995
 20
194.65
 30
0.0
 11
210.1749995
 21
194.65
 31
0.0
  0
LINE
  5
15E7
330
A
100
AcDbEntity
  8
LAY-1
  6
Continuous
 62
     4
100
AcDbLine
 10
234.6249995
 20
191.15
 30
0.0
 11
211.7249995
 21
191.15
 31
0.0
  0
LINE
  5
15E8
330
A
100
AcDbEntity
  8
LAY-1
  6
Continuous
 62
     4
100
AcDbLine
 10
234.6249995
 20
198.15
 30
0.0
 11
211.7249995
 21
198.15
 31
0.0
  0
LINE
  5
15E9
330
A
100
AcDbEntity
  8
LAY-1
  6
Continuous
 62
     4
100
AcDbLine
 10
235.6749995
 20
190.9500000000001
 30
0.0
 11
235.5249995000002
 21
190.9500000000001
 31
0.0
  0
LINE
  5
15EA
330
A
100
AcDbEntity
  8
LAY-1
  6
Continuous
 62
     4
100
AcDbLine
 10
210.8249995000001
 20
190.9500000000001
 30
0.0
 11
210.6749995
 21
190.9500000000001
 31
0.0
  0
LINE
  5
15EB
330
A
100
AcDbEntity
  8
LAY-1
  6
Continuous
 62
     4
100
AcDbLine
 10
235.6749995
 20
198.35
 30
0.0
 11
235.5249995000002
 21
198.35
 31
0.0
  0
LINE
  5
15EC
330
A
100
AcDbEntity
  8
LAY-1
  6
Continuous
 62
     4
100
AcDbLine
 10
210.8249995000001
 20
198.35
 30
0.0
 11
210.6749995
 21
198.35
 31
0.0
  0
LINE
  5
15ED
330
A
100
AcDbEntity
  8
LAY-1
  6
Continuous
 62
     4
100
AcDbLine
 10
235.5249995000002
 20
199.9
 30
0.0
 11
234.6249995
 21
199.9
 31
0.0
  0
LINE
  5
15EE
330
A
100
AcDbEntity
  8
LAY-1
  6
Continuous
 62
     4
100
AcDbLine
 10
234.6249995
 20
199.9
 30
0.0
 11
234.6249995
 21
189.4
 31
0.0
  0
LINE
  5
15EF
330
A
100
AcDbEntity
  8
LAY-1
  6
Continuous
 62
     4
100
AcDbLine
 10
234.6249995
 20
189.4
 30
0.0
 11
235.5249995000002
 21
189.4
 31
0.0
  0
LINE
  5
15F0
330
A
100
AcDbEntity
  8
LAY-1
  6
Continuous
 62
     4
100
AcDbLine
 10
235.5249995000002
 20
189.4
 30
0.0
 11
235.5249995000002
 21
199.9
 31
0.0
  0
ENDSEC
  0
SECTION
  2
OBJECTS
  0
DICTIONARY
  5
19
330
0
100
AcDbDictionary
281
     1
  3
ACAD_COLOR
350
4CB
  3
ACAD_GROUP
350
1A
  3
ACAD_LAYOUT
350
4CE
  3
ACAD_MATERIAL
350
4CA
  3
ACAD_MLINESTYLE
350
1B
  3
ACAD_PLOTSETTINGS
350
4CF
  3
ACAD_PLOTSTYLENAME
350
4C8
  3
ACAD_TABLESTYLE
350
4CC
  3
ACDBHEADERROUNDTRIPXREC
350
160A
  3
AcDbVariableDictionary
350
90C
  0
DICTIONARY
  5
9CD
330
2
100
AcDbDictionary
280
     1
281
     1
  3
ACAD_LAYERSTATES
360
9CE
  0
DICTIONARY
  5
93C
330
A
100
AcDbDictionary
280
     1
281
     1
  3
ACAD_SORTENTS
360
93D
  0
DICTIONARY
  5
4CB
102
{ACAD_REACTORS
330
19
102
}
330
19
100
AcDbDictionary
281
     1
  0
DICTIONARY
  5
1A
102
{ACAD_REACTORS
330
19
102
}
330
19
100
AcDbDictionary
281
     1
  0
DICTIONARY
  5
4CE
102
{ACAD_REACTORS
330
19
102
}
330
19
100
AcDbDictionary
281
     1
  3
Model
350
4D0
  3
レイアウト1
350
4D1
  0
DICTIONARY
  5
4CA
102
{ACAD_REACTORS
330
19
102
}
330
19
100
AcDbDictionary
281
     1
  3
Global
350
9CA
  0
DICTIONARY
  5
1B
102
{ACAD_REACTORS
330
19
102
}
330
19
100
AcDbDictionary
281
     1
  3
STANDARD
350
1C
  0
DICTIONARY
  5
4CF
102
{ACAD_REACTORS
330
19
102
}
330
19
100
AcDbDictionary
281
     1
  0
ACDBDICTIONARYWDFLT
  5
4C8
102
{ACAD_REACTORS
330
19
102
}
330
19
100
AcDbDictionary
281
     1
  3
Normal
350
4C9
100
AcDbDictionaryWithDefault
340
4C9
  0
DICTIONARY
  5
4CC
102
{ACAD_REACTORS
330
19
102
}
330
19
100
AcDbDictionary
281
     1
  3
Standard
350
4CD
  0
DICTIONARY
  5
160A
102
{ACAD_REACTORS
330
19
102
}
330
19
100
AcDbDictionary
281
     1
  0
DICTIONARY
  5
90C
102
{ACAD_REACTORS
330
19
102
}
330
19
100
AcDbDictionary
281
     1
  3
CTABLESTYLE
350
90D
  3
DIMASSOC
350
11E6
  3
PROJECTNAME
350
11E7
  0
DICTIONARY
  5
9CE
102
{ACAD_REACTORS
330
9CD
102
}
330
9CD
100
AcDbDictionary
281
     1
  0
SORTENTSTABLE
  5
93D
102
{ACAD_REACTORS
330
93C
102
}
330
93C
100
AcDbSortentsTable
330
A
331
4A6
  5
4A7
331
4AD
  5
4AE
331
470
  5
471
331
3A7
  5
3A8
331
3DC
  5
3DD
331
419
  5
41A
331
456
  5
457
331
493
  5
494
331
3FF
  5
400
331
43C
  5
43D
331
3CA
  5
3CB
331
479
  5
47A
331
4B6
  5
4B7
331
3B0
  5
3B1
331
3E5
  5
3E6
331
422
  5
423
331
36A
  5
36B
331
49C
  5
49D
331
45F
  5
460
331
445
  5
446
331
396
  5
398
331
408
  5
409
331
3D2
  5
3D3
331
39D
  5
39E
331
482
  5
483
331
4BF
  5
4C0
331
489
  5
48A
331
44C
  5
44D
331
3EE
  5
3EF
331
42B
  5
42C
331
432
  5
433
331
373
  5
374
331
3C0
  5
3C1
331
3F5
  5
3F6
331
4A5
  5
4A6
331
46F
  5
470
331
4AC
  5
4AD
331
3DB
  5
3DC
331
418
  5
419
331
361
  5
363
331
3A6
  5
3A7
331
455
  5
456
331
492
  5
493
331
3C9
  5
3CA
331
3FE
  5
3FF
331
43B
  5
43C
331
478
  5
479
331
4B5
  5
4B6
331
421
  5
422
331
3AF
  5
3B0
331
3E4
  5
3E5
331
369
  5
36A
331
45E
  5
45F
331
49B
  5
49C
331
407
  5
408
331
444
  5
445
331
395
  5
396
331
39C
  5
39D
331
3D1
  5
3D2
331
4BE
  5
4BF
331
481
  5
482
331
44B
  5
44C
331
488
  5
489
331
3ED
  5
3EE
331
42A
  5
42B
331
3F4
  5
3F5
331
431
  5
432
331
372
  5
373
331
3BF
  5
3C0
331
467
  5
468
331
4A4
  5
4A5
331
4AB
  5
4AC
331
46E
  5
46F
331
92A
  5
93B
331
3A5
  5
3A6
331
3DA
  5
3DB
331
417
  5
418
331
360
  5
361
331
491
  5
492
331
454
  5
455
331
3FD
  5
3FE
331
43A
  5
43B
331
3C8
  5
3C9
331
477
  5
478
331
4B4
  5
4B5
331
3E3
  5
3E4
331
420
  5
421
331
3AE
  5
3AF
331
368
  5
369
331
49A
  5
49B
331
45D
  5
45E
331
443
  5
444
331
394
  5
395
331
406
  5
407
331
3D0
  5
3D1
331
39B
  5
39C
331
480
  5
481
331
4BD
  5
4BE
331
44A
  5
44B
331
3EC
  5
3ED
331
429
  5
42A
331
3B7
  5
3B8
331
430
  5
431
331
371
  5
372
331
3BE
  5
3BF
331
3F3
  5
3F4
331
466
  5
467
331
4A3
  5
4A4
331
46D
  5
46E
331
4AA
  5
4AB
331
40F
  5
410
331
416
  5
417
331
3A4
  5
3A5
331
3D9
  5
3DA
331
453
  5
454
331
490
  5
491
331
3C7
  5
3C8
331
3FC
  5
3FD
331
439
  5
43A
331
4B3
  5
4B4
331
476
  5
477
331
41F
  5
420
331
3AD
  5
3AE
331
3E2
  5
3E3
331
45C
  5
45D
331
499
  5
49A
331
405
  5
406
331
442
  5
443
331
393
  5
394
331
39A
  5
39B
331
4BC
  5
4BD
331
47F
  5
480
331
449
  5
44A
331
3B6
  5
3B7
331
3EB
  5
3EC
331
428
  5
429
331
3F2
  5
3F3
331
3BD
  5
3BE
331
4A2
  5
4A3
331
465
  5
466
331
46C
  5
46D
331
4A9
  5
4AA
331
40E
  5
40F
331
3A3
  5
3A4
331
3D8
  5
3D9
331
415
  5
416
331
48F
  5
490
331
452
  5
453
331
438
  5
439
331
381
  5
390
331
3C6
  5
3C7
331
3FB
  5
3FC
331
475
  5
476
331
4B2
  5
4B3
331
3E1
  5
3E2
331
41E
  5
41F
331
367
  5
368
331
3AC
  5
3AD
331
45B
  5
45C
331
498
  5
499
331
441
  5
442
331
392
  5
393
331
3CF
  5
3D0
331
404
  5
405
331
399
  5
39A
331
47E
  5
47F
331
4BB
  5
4BC
331
448
  5
449
331
427
  5
428
331
3B5
  5
3B6
331
3EA
  5
3EB
331
3BC
  5
3BD
331
3F1
  5
3F2
331
464
  5
465
331
4A1
  5
4A2
331
46B
  5
46C
331
4A8
  5
4A9
331
40D
  5
40E
331
414
  5
415
331
3A2
  5
3A3
331
3D7
  5
3D8
331
487
  5
488
331
451
  5
452
331
48E
  5
48F
331
3C5
  5
3C6
331
3FA
  5
3FB
331
437
  5
438
331
4B1
  5
4B2
331
474
  5
475
331
4C2
  5
4D3
331
3AB
  5
3AC
331
3E0
  5
3E1
331
41D
  5
41E
331
45A
  5
45B
331
497
  5
498
331
403
  5
404
331
440
  5
441
331
3CE
  5
3CF
331
398
  5
399
331
47D
  5
47E
331
4BA
  5
4BB
331
3B4
  5
3B5
331
3E9
  5
3EA
331
426
  5
427
331
3F0
  5
3F1
331
3BB
  5
3BC
331
4A0
  5
4A1
331
463
  5
464
331
46A
  5
46B
331
40C
  5
40D
331
3A1
  5
3A2
331
3D6
  5
3D7
331
413
  5
414
331
486
  5
487
331
48D
  5
48E
331
450
  5
451
331
42F
  5
430
331
436
  5
437
331
3C4
  5
3C5
331
3F9
  5
3FA
331
473
  5
474
331
4B0
  5
4B1
331
3DF
  5
3E0
331
41C
  5
41D
331
3AA
  5
3AB
331
459
  5
45A
331
496
  5
497
331
390
  5
392
331
3CD
  5
3CE
331
402
  5
403
331
43F
  5
440
331
47C
  5
47D
331
4B9
  5
4BA
331
425
  5
426
331
3B3
  5
3B4
331
3E8
  5
3E9
331
3BA
  5
3BB
331
462
  5
463
331
49F
  5
4A0
331
469
  5
46A
331
40B
  5
40C
331
412
  5
413
331
3A0
  5
3A1
331
3D5
  5
3D6
331
485
  5
486
331
44F
  5
450
331
48C
  5
48D
331
42E
  5
42F
331
3C3
  5
3C4
331
3F8
  5
3F9
331
435
  5
436
331
4AF
  5
4B0
331
472
  5
473
331
4C0
  5
4C2
331
3A9
  5
3AA
331
3DE
  5
3DF
331
41B
  5
41C
331
458
  5
459
331
495
  5
496
331
401
  5
402
331
43E
  5
43F
331
3CC
  5
3CD
331
47B
  5
47C
331
4B8
  5
4B9
331
3B2
  5
3B3
331
3E7
  5
3E8
331
424
  5
425
331
36C
  5
371
331
3B9
  5
3BA
331
49E
  5
49F
331
461
  5
462
331
468
  5
469
331
447
  5
448
331
40A
  5
40B
331
39F
  5
3A0
331
3D4
  5
3D5
331
411
  5
412
331
484
  5
485
331
48B
  5
48C
331
44E
  5
44F
331
42D
  5
42E
331
434
  5
435
331
375
  5
381
331
3C2
  5
3C3
331
3F7
  5
3F8
331
4A7
  5
4A8
331
471
  5
472
331
4AE
  5
4AF
331
3DD
  5
3DE
331
41A
  5
41B
331
363
  5
367
331
3A8
  5
3A9
331
457
  5
458
331
494
  5
495
331
3CB
  5
3CC
331
400
  5
401
331
43D
  5
43E
331
47A
  5
47B
331
4B7
  5
4B8
331
423
  5
424
331
3B1
  5
3B2
331
3E6
  5
3E7
331
3B8
  5
3B9
331
36B
  5
36C
331
460
  5
461
331
49D
  5
49E
331
409
  5
40A
331
446
  5
447
331
410
  5
411
331
39E
  5
39F
331
3D3
  5
3D4
331
483
  5
484
331
44D
  5
44E
331
48A
  5
48B
331
3EF
  5
3F0
331
42C
  5
42D
331
3C1
  5
3C2
331
3F6
  5
3F7
331
433
  5
434
331
374
  5
375
  0
LAYOUT
  5
4D0
102
{ACAD_XDICTIONARY
360
160B
102
}
102
{ACAD_REACTORS
330
4CE
102
}
330
4CE
100
AcDbPlotSettings
  1

  2
吉川１Ｆ技術３ - DocuPrint 305
  4
A4
  6

 40
4.900083065032958
 41
4.900057315826416
 42
4.90008544921875
 43
4.90008544921875
 44
210.0156707763672
 45
297.0106506347656
 46
0.0
 47
0.0
 48
0.0
 49
0.0
140
0.0
141
0.0
142
1.0
143
12.46753657853102
 70
 11952
 72
     0
 73
     1
 74
     0
  7
免震.ctb
 75
     0
147
0.0802083068857396
148
-16468.27847238767
149
4136.107631178417
100
AcDbLayout
  1
Model
 70
     1
 71
     0
 10
0.0
 20
0.0
 11
12.0
 21
9.0
 12
0.0
 22
0.0
 32
0.0
 14
0.0
 24
0.0
 34
0.0
 15
0.0
 25
0.0
 35
0.0
146
0.0
 13
0.0
 23
0.0
 33
0.0
 16
1.0
 26
0.0
 36
0.0
 17
0.0
 27
1.0
 37
0.0
 76
     0
330
A
1001
ACAD_PSEXT
1000
吉川１Ｆ技術３ - DocuPrint 305
1000
FX DocuPrint 305
1000
PORT_192.168.13.22
1000

1070
     0
  0
LAYOUT
  5
4D1
102
{ACAD_XDICTIONARY
360
160D
102
}
102
{ACAD_REACTORS
330
4CE
102
}
330
4CE
100
AcDbPlotSettings
  1

  2
吉川１Ｆ技術３ - DocuPrint 305
  4

  6

 40
0.0
 41
0.0
 42
0.0
 43
0.0
 44
0.0
 45
0.0
 46
0.0
 47
0.0
 48
0.0
 49
0.0
140
0.0
141
0.0
142
1.0
143
1.0
 70
   688
 72
     0
 73
     0
 74
     5
  7
免震.ctb
 75
    16
147
1.0
148
0.0
149
0.0
100
AcDbLayout
  1
レイアウト1
 70
     0
 71
     1
 10
0.0
 20
0.0
 11
12.0
 21
9.0
 12
0.0
 22
0.0
 32
0.0
 14
1.000000000000000E+20
 24
1.000000000000000E+20
 34
1.000000000000000E+20
 15
-1.000000000000000E+20
 25
-1.000000000000000E+20
 35
-1.000000000000000E+20
146
0.0
 13
0.0
 23
0.0
 33
0.0
 16
1.0
 26
0.0
 36
0.0
 17
0.0
 27
1.0
 37
0.0
 76
     0
330
B
  0
MATERIAL
  5
9CA
102
{ACAD_XDICTIONARY
360
9CB
102
}
102
{ACAD_REACTORS
330
4CA
102
}
330
4CA
100
AcDbMaterial
  1
Global
  0
MLINESTYLE
  5
1C
102
{ACAD_REACTORS
330
1B
102
}
330
1B
100
AcDbMlineStyle
  2
STANDARD
 70
     0
  3

 62
     0
 51
90.0
 52
90.0
 71
     2
 49
0.5
 62
   256
  6
BYLAYER
 49
-0.5
 62
   256
  6
BYLAYER
  0
ACDBPLACEHOLDER
  5
4C9
102
{ACAD_REACTORS
330
4C8
102
}
330
4C8
  0
TABLESTYLE
  5
4CD
102
{ACAD_REACTORS
330
4CC
102
}
330
4CC
100
AcDbTableStyle
  3
Standard
 70
     0
 71
     0
 40
0.06
 41
0.06
280
     0
281
     0
  7
STANDARD
140
0.18
170
     2
 62
     0
 63
     7
283
     0
274
    -2
284
     1
 64
     0
275
    -2
285
     1
 65
     0
276
    -2
286
     1
 66
     0
277
    -2
287
     1
 67
     0
278
    -2
288
     1
 68
     0
279
    -2
289
     1
 69
     0
  7
STANDARD
140
0.25
170
     5
 62
     0
 63
     7
283
     0
274
    -2
284
     1
 64
     0
275
    -2
285
     1
 65
     0
276
    -2
286
     1
 66
     0
277
    -2
287
     1
 67
     0
278
    -2
288
     1
 68
     0
279
    -2
289
     1
 69
     0
  7
STANDARD
140
0.18
170
     5
 62
     0
 63
     7
283
     0
274
    -2
284
     1
 64
     0
275
    -2
285
     1
 65
     0
276
    -2
286
     1
 66
     0
277
    -2
287
     1
 67
     0
278
    -2
288
     1
 68
     0
279
    -2
289
     1
 69
     0
  0
DICTIONARYVAR
  5
90D
102
{ACAD_REACTORS
330
90C
102
}
330
90C
100
DictionaryVariables
280
     0
  1
STANDARD
  0
DICTIONARYVAR
  5
11E6
102
{ACAD_REACTORS
330
90C
102
}
330
90C
100
DictionaryVariables
280
     0
  1
1
  0
DICTIONARYVAR
  5
11E7
102
{ACAD_REACTORS
330
90C
102
}
330
90C
100
DictionaryVariables
280
     0
  1

  0
DICTIONARY
  5
160B
330
4D0
100
AcDbDictionary
280
     1
281
     1
  3
ACAD_XREC_ROUNDTRIP
360
160C
  0
DICTIONARY
  5
160D
330
4D1
100
AcDbDictionary
280
     1
281
     1
  3
ACAD_XREC_ROUNDTRIP
360
160E
  0
DICTIONARY
  5
9CB
330
9CA
100
AcDbDictionary
280
     1
281
     1
  3
ACAD_XREC_ROUNDTRIP
360
9CC
  0
XRECORD
  5
160C
102
{ACAD_REACTORS
330
160B
102
}
330
160B
100
AcDbXrecord
280
     1
102
SHADEPLOT
 70
     0
102
SHADEPLOTRESLEVEL
 70
     2
102
SHADEPLOTCUSTOMDPI
 70
   300
  0
XRECORD
  5
160E
102
{ACAD_REACTORS
330
160D
102
}
330
160D
100
AcDbXrecord
280
     1
102
SHADEPLOT
 70
     0
102
SHADEPLOTRESLEVEL
 70
     2
102
SHADEPLOTCUSTOMDPI
 70
   300
  0
XRECORD
  5
9CC
102
{ACAD_REACTORS
330
9CB
102
}
330
9CB
100
AcDbXrecord
280
     1
102
MATERIAL
148
0.0
149
0.0
149
0.0
 93
        0
 94
       63
282
     0
 72
     1
 77
     1
171
     1
175
     1
179
     1
273
     0
  0
ENDSEC
  0
EOF
